  0
SECTION
  2
HEADER
  9
$ACADVER
  1
AC1015
  9
$ACADMAINTVER
 70
     6
  9
$DWGCODEPAGE
  3
ANSI_1250
  9
$INSBASE
 10
0.0
 20
0.0
 30
0.0
  9
$EXTMIN
 10
-26.9669
 20
-32.0172
 30
0.0
  9
$EXTMAX
 10
27.058
 20
31.9369
 30
0.0
  9
$LIMMIN
 10
0.0
 20
0.0
  9
$LIMMAX
 10
12.0
 20
9.0
  9
$ORTHOMODE
 70
     0
  9
$REGENMODE
 70
     1
  9
$FILLMODE
 70
     1
  9
$QTEXTMODE
 70
     0
  9
$MIRRTEXT
 70
     1
  9
$LTSCALE
 40
1.0
  9
$ATTMODE
 70
     1
  9
$TEXTSIZE
 40
0.2
  9
$TRACEWID
 40
0.05
  9
$TEXTSTYLE
  7
Standard
  9
$CLAYER
  8
0
  9
$CELTYPE
  6
ByLayer
  9
$CECOLOR
 62
   256
  9
$CELTSCALE
 40
1.0
  9
$DISPSILH
 70
     0
  9
$DIMSCALE
 40
1.0
  9
$DIMASZ
 40
0.18
  9
$DIMEXO
 40
0.0625
  9
$DIMDLI
 40
0.38
  9
$DIMRND
 40
0.0
  9
$DIMDLE
 40
0.0
  9
$DIMEXE
 40
0.18
  9
$DIMTP
 40
0.0
  9
$DIMTM
 40
0.0
  9
$DIMTXT
 40
0.18
  9
$DIMCEN
 40
0.09
  9
$DIMTSZ
 40
0.0
  9
$DIMTOL
 70
     0
  9
$DIMLIM
 70
     0
  9
$DIMTIH
 70
     1
  9
$DIMTOH
 70
     1
  9
$DIMSE1
 70
     0
  9
$DIMSE2
 70
     0
  9
$DIMTAD
 70
     0
  9
$DIMZIN
 70
     0
  9
$DIMBLK
  1

  9
$DIMASO
 70
     1
  9
$DIMSHO
 70
     1
  9
$DIMPOST
  1

  9
$DIMAPOST
  1

  9
$DIMALT
 70
     0
  9
$DIMALTD
 70
     2
  9
$DIMALTF
 40
25.4
  9
$DIMLFAC
 40
1.0
  9
$DIMTOFL
 70
     0
  9
$DIMTVP
 40
0.0
  9
$DIMTIX
 70
     0
  9
$DIMSOXD
 70
     0
  9
$DIMSAH
 70
     0
  9
$DIMBLK1
  1

  9
$DIMBLK2
  1

  9
$DIMSTYLE
  2
Standard
  9
$DIMCLRD
 70
     0
  9
$DIMCLRE
 70
     0
  9
$DIMCLRT
 70
     0
  9
$DIMTFAC
 40
1.0
  9
$DIMGAP
 40
0.09
  9
$DIMJUST
 70
     0
  9
$DIMSD1
 70
     0
  9
$DIMSD2
 70
     0
  9
$DIMTOLJ
 70
     1
  9
$DIMTZIN
 70
     0
  9
$DIMALTZ
 70
     0
  9
$DIMALTTZ
 70
     0
  9
$DIMUPT
 70
     0
  9
$DIMDEC
 70
     4
  9
$DIMTDEC
 70
     4
  9
$DIMALTU
 70
     2
  9
$DIMALTTD
 70
     2
  9
$DIMTXSTY
  7
Standard
  9
$DIMAUNIT
 70
     0
  9
$DIMADEC
 70
     0
  9
$DIMALTRND
 40
0.0
  9
$DIMAZIN
 70
     0
  9
$DIMDSEP
 70
    46
  9
$DIMATFIT
 70
     3
  9
$DIMFRAC
 70
     0
  9
$DIMLDRBLK
  1

  9
$DIMLUNIT
 70
     2
  9
$DIMLWD
 70
    -2
  9
$DIMLWE
 70
    -2
  9
$DIMTMOVE
 70
     0
  9
$LUNITS
 70
     2
  9
$LUPREC
 70
     4
  9
$SKETCHINC
 40
0.1
  9
$FILLETRAD
 40
0.5
  9
$AUNITS
 70
     0
  9
$AUPREC
 70
     0
  9
$MENU
  1
.
  9
$ELEVATION
 40
0.0
  9
$PELEVATION
 40
0.0
  9
$THICKNESS
 40
0.0
  9
$LIMCHECK
 70
     0
  9
$CHAMFERA
 40
0.5
  9
$CHAMFERB
 40
0.5
  9
$CHAMFERC
 40
1.0
  9
$CHAMFERD
 40
0.0
  9
$SKPOLY
 70
     0
  9
$TDCREATE
 40
2457653.403542037
  9
$TDUCREATE
 40
2457653.320208704
  9
$TDUPDATE
 40
2457653.403542049
  9
$TDUUPDATE
 40
2457653.320208715
  9
$TDINDWG
 40
0.0000000116
  9
$TDUSRTIMER
 40
0.0000000116
  9
$USRTIMER
 70
     1
  9
$ANGBASE
 50
0.0
  9
$ANGDIR
 70
     0
  9
$PDMODE
 70
     0
  9
$PDSIZE
 40
0.0
  9
$PLINEWID
 40
0.0
  9
$SPLFRAME
 70
     0
  9
$SPLINETYPE
 70
     6
  9
$SPLINESEGS
 70
     8
  9
$HANDSEED
  5
1C5
  9
$SURFTAB1
 70
     6
  9
$SURFTAB2
 70
     6
  9
$SURFTYPE
 70
     6
  9
$SURFU
 70
     6
  9
$SURFV
 70
     6
  9
$UCSBASE
  2

  9
$UCSNAME
  2

  9
$UCSORG
 10
0.0
 20
0.0
 30
0.0
  9
$UCSXDIR
 10
1.0
 20
0.0
 30
0.0
  9
$UCSYDIR
 10
0.0
 20
1.0
 30
0.0
  9
$UCSORTHOREF
  2

  9
$UCSORTHOVIEW
 70
     0
  9
$UCSORGTOP
 10
0.0
 20
0.0
 30
0.0
  9
$UCSORGBOTTOM
 10
0.0
 20
0.0
 30
0.0
  9
$UCSORGLEFT
 10
0.0
 20
0.0
 30
0.0
  9
$UCSORGRIGHT
 10
0.0
 20
0.0
 30
0.0
  9
$UCSORGFRONT
 10
0.0
 20
0.0
 30
0.0
  9
$UCSORGBACK
 10
0.0
 20
0.0
 30
0.0
  9
$PUCSBASE
  2

  9
$PUCSNAME
  2

  9
$PUCSORG
 10
0.0
 20
0.0
 30
0.0
  9
$PUCSXDIR
 10
1.0
 20
0.0
 30
0.0
  9
$PUCSYDIR
 10
0.0
 20
1.0
 30
0.0
  9
$PUCSORTHOREF
  2

  9
$PUCSORTHOVIEW
 70
     0
  9
$PUCSORGTOP
 10
0.0
 20
0.0
 30
0.0
  9
$PUCSORGBOTTOM
 10
0.0
 20
0.0
 30
0.0
  9
$PUCSORGLEFT
 10
0.0
 20
0.0
 30
0.0
  9
$PUCSORGRIGHT
 10
0.0
 20
0.0
 30
0.0
  9
$PUCSORGFRONT
 10
0.0
 20
0.0
 30
0.0
  9
$PUCSORGBACK
 10
0.0
 20
0.0
 30
0.0
  9
$USERI1
 70
     0
  9
$USERI2
 70
     0
  9
$USERI3
 70
     0
  9
$USERI4
 70
     0
  9
$USERI5
 70
     0
  9
$USERR1
 40
0.0
  9
$USERR2
 40
0.0
  9
$USERR3
 40
0.0
  9
$USERR4
 40
0.0
  9
$USERR5
 40
0.0
  9
$WORLDVIEW
 70
     1
  9
$SHADEDGE
 70
     3
  9
$SHADEDIF
 70
    70
  9
$TILEMODE
 70
     1
  9
$MAXACTVP
 70
    64
  9
$PINSBASE
 10
0.0
 20
0.0
 30
0.0
  9
$PLIMCHECK
 70
     0
  9
$PEXTMIN
 10
1.000000000000000E+20
 20
1.000000000000000E+20
 30
1.000000000000000E+20
  9
$PEXTMAX
 10
-1.000000000000000E+20
 20
-1.000000000000000E+20
 30
-1.000000000000000E+20
  9
$PLIMMIN
 10
0.0
 20
0.0
  9
$PLIMMAX
 10
12.0
 20
9.0
  9
$UNITMODE
 70
     0
  9
$VISRETAIN
 70
     1
  9
$PLINEGEN
 70
     0
  9
$PSLTSCALE
 70
     1
  9
$TREEDEPTH
 70
  3020
  9
$CMLSTYLE
  2
Standard
  9
$CMLJUST
 70
     0
  9
$CMLSCALE
 40
1.0
  9
$PROXYGRAPHICS
 70
     1
  9
$MEASUREMENT
 70
     0
  9
$CELWEIGHT
370
    -1
  9
$ENDCAPS
280
     0
  9
$JOINSTYLE
280
     0
  9
$LWDISPLAY
290
     0
  9
$INSUNITS
 70
     4
  9
$HYPERLINKBASE
  1

  9
$STYLESHEET
  1

  9
$XEDIT
290
     1
  9
$CEPSNTYPE
380
     0
  9
$PSTYLEMODE
290
     1
  9
$FINGERPRINTGUID
  2
{08E85A48-16DB-4DEE-9971-102298DA5615}
  9
$VERSIONGUID
  2
{FAEB1C32-E019-11D5-929B-00C0DF256EC4}
  9
$EXTNAMES
290
     1
  9
$PSVPSCALE
 40
0.0
  9
$OLESTARTUP
290
     0
  0
ENDSEC
  0
SECTION
  2
CLASSES
  0
CLASS
  1
ACDBDICTIONARYWDFLT
  2
AcDbDictionaryWithDefault
  3
ObjectDBX Classes
 90
        0
280
     0
281
     0
  0
CLASS
  1
VISUALSTYLE
  2
AcDbVisualStyle
  3
ObjectDBX Classes
 90
     4095
280
     0
281
     0
  0
CLASS
  1
MATERIAL
  2
AcDbMaterial
  3
ObjectDBX Classes
 90
     1153
280
     0
281
     0
  0
CLASS
  1
DICTIONARYVAR
  2
AcDbDictionaryVar
  3
ObjectDBX Classes
 90
        0
280
     0
281
     0
  0
CLASS
  1
ACDBPLACEHOLDER
  2
AcDbPlaceHolder
  3
ObjectDBX Classes
 90
        0
280
     0
281
     0
  0
CLASS
  1
LAYOUT
  2
AcDbLayout
  3
ObjectDBX Classes
 90
        0
280
     0
281
     0
  0
ENDSEC
  0
SECTION
  2
TABLES
  0
TABLE
  2
VPORT
  5
8
330
0
100
AcDbSymbolTable
 70
     1
  0
VPORT
  5
29
330
8
100
AcDbSymbolTableRecord
100
AcDbViewportTableRecord
  2
*Active
 70
     0
 10
0.0
 20
0.0
 11
1.0
 21
1.0
 12
10.42990654205607
 22
4.5
 13
0.0
 23
0.0
 14
0.5
 24
0.5
 15
0.5
 25
0.5
 16
0.0
 26
0.0
 36
1.0
 17
0.0
 27
0.0
 37
0.0
 40
9.0
 41
1.972972972850329
 42
50.0
 43
0.0
 44
0.0
 50
0.0
 51
0.0
 71
     0
 72
   100
 73
     1
 74
     3
 75
     0
 76
     0
 77
     0
 78
     0
281
     0
 65
     1
110
0.0
120
0.0
130
0.0
111
1.0
121
0.0
131
0.0
112
0.0
122
1.0
132
0.0
 79
     0
146
0.0
  0
ENDTAB
  0
TABLE
  2
LTYPE
  5
5
330
0
100
AcDbSymbolTable
 70
    65
  0
LTYPE
  5
14
330
5
100
AcDbSymbolTableRecord
100
AcDbLinetypeTableRecord
  2
ByBlock
 70
     0
  3

 72
    65
 73
     0
 40
0.0
  0
LTYPE
  5
15
330
5
100
AcDbSymbolTableRecord
100
AcDbLinetypeTableRecord
  2
ByLayer
 70
     0
  3

 72
    65
 73
     0
 40
0.0
  0
LTYPE
  5
16
330
5
100
AcDbSymbolTableRecord
100
AcDbLinetypeTableRecord
  2
Continuous
 70
     0
  3
Solid line
 72
    65
 73
     0
 40
0.0
  0
LTYPE
  5
E7
330
5
100
AcDbSymbolTableRecord
100
AcDbLinetypeTableRecord
  2
New Line1
 70
     0
  3

 72
    65
 73
     2
 40
0.8
 49
0.5
 74
     4
 75
     0
340
0
 46
1.0
 50
0.0
 44
0.0
 45
0.0
 49
-0.3
 74
     4
 75
     0
340
0
 46
1.0
 50
0.0
 44
0.0
 45
0.0
  0
LTYPE
  5
E9
330
5
100
AcDbSymbolTableRecord
100
AcDbLinetypeTableRecord
  2
New Line2
 70
     0
  3

 72
    65
 73
     2
 40
0.8
 49
0.5
 74
     4
 75
     0
340
0
 46
1.0
 50
0.0
 44
0.0
 45
0.0
 49
-0.3
 74
     4
 75
     0
340
0
 46
1.0
 50
0.0
 44
0.0
 45
0.0
  0
LTYPE
  5
ED
330
5
100
AcDbSymbolTableRecord
100
AcDbLinetypeTableRecord
  2
New Line3
 70
     0
  3

 72
    65
 73
     2
 40
0.8
 49
0.5
 74
     4
 75
     0
340
0
 46
1.0
 50
0.0
 44
0.0
 45
0.0
 49
-0.3
 74
     4
 75
     0
340
0
 46
1.0
 50
0.0
 44
0.0
 45
0.0
  0
LTYPE
  5
EF
330
5
100
AcDbSymbolTableRecord
100
AcDbLinetypeTableRecord
  2
New Line4
 70
     0
  3

 72
    65
 73
     2
 40
0.8
 49
0.5
 74
     4
 75
     0
340
0
 46
1.0
 50
0.0
 44
0.0
 45
0.0
 49
-0.3
 74
     4
 75
     0
340
0
 46
1.0
 50
0.0
 44
0.0
 45
0.0
  0
LTYPE
  5
F1
330
5
100
AcDbSymbolTableRecord
100
AcDbLinetypeTableRecord
  2
New Line5
 70
     0
  3

 72
    65
 73
     2
 40
0.8
 49
0.5
 74
     4
 75
     0
340
0
 46
1.0
 50
0.0
 44
0.0
 45
0.0
 49
-0.3
 74
     4
 75
     0
340
0
 46
1.0
 50
0.0
 44
0.0
 45
0.0
  0
LTYPE
  5
F3
330
5
100
AcDbSymbolTableRecord
100
AcDbLinetypeTableRecord
  2
New Line6
 70
     0
  3

 72
    65
 73
     2
 40
0.8
 49
0.5
 74
     4
 75
     0
340
0
 46
1.0
 50
0.0
 44
0.0
 45
0.0
 49
-0.3
 74
     4
 75
     0
340
0
 46
1.0
 50
0.0
 44
0.0
 45
0.0
  0
LTYPE
  5
F5
330
5
100
AcDbSymbolTableRecord
100
AcDbLinetypeTableRecord
  2
New Line7
 70
     0
  3

 72
    65
 73
     2
 40
0.8
 49
0.5
 74
     4
 75
     0
340
0
 46
1.0
 50
0.0
 44
0.0
 45
0.0
 49
-0.3
 74
     4
 75
     0
340
0
 46
1.0
 50
0.0
 44
0.0
 45
0.0
  0
LTYPE
  5
F7
330
5
100
AcDbSymbolTableRecord
100
AcDbLinetypeTableRecord
  2
New Line8
 70
     0
  3

 72
    65
 73
     2
 40
0.8
 49
0.5
 74
     4
 75
     0
340
0
 46
1.0
 50
0.0
 44
0.0
 45
0.0
 49
-0.3
 74
     4
 75
     0
340
0
 46
1.0
 50
0.0
 44
0.0
 45
0.0
  0
LTYPE
  5
F9
330
5
100
AcDbSymbolTableRecord
100
AcDbLinetypeTableRecord
  2
New Line9
 70
     0
  3

 72
    65
 73
     2
 40
0.8
 49
0.5
 74
     4
 75
     0
340
0
 46
1.0
 50
0.0
 44
0.0
 45
0.0
 49
-0.3
 74
     4
 75
     0
340
0
 46
1.0
 50
0.0
 44
0.0
 45
0.0
  0
LTYPE
  5
FB
330
5
100
AcDbSymbolTableRecord
100
AcDbLinetypeTableRecord
  2
New Line10
 70
     0
  3

 72
    65
 73
     2
 40
0.8
 49
0.5
 74
     4
 75
     0
340
0
 46
1.0
 50
0.0
 44
0.0
 45
0.0
 49
-0.3
 74
     4
 75
     0
340
0
 46
1.0
 50
0.0
 44
0.0
 45
0.0
  0
LTYPE
  5
FD
330
5
100
AcDbSymbolTableRecord
100
AcDbLinetypeTableRecord
  2
New Line11
 70
     0
  3

 72
    65
 73
     2
 40
0.8
 49
0.5
 74
     4
 75
     0
340
0
 46
1.0
 50
0.0
 44
0.0
 45
0.0
 49
-0.3
 74
     4
 75
     0
340
0
 46
1.0
 50
0.0
 44
0.0
 45
0.0
  0
LTYPE
  5
FF
330
5
100
AcDbSymbolTableRecord
100
AcDbLinetypeTableRecord
  2
New Line12
 70
     0
  3

 72
    65
 73
     2
 40
0.8
 49
0.5
 74
     4
 75
     0
340
0
 46
1.0
 50
0.0
 44
0.0
 45
0.0
 49
-0.3
 74
     4
 75
     0
340
0
 46
1.0
 50
0.0
 44
0.0
 45
0.0
  0
LTYPE
  5
101
330
5
100
AcDbSymbolTableRecord
100
AcDbLinetypeTableRecord
  2
New Line13
 70
     0
  3

 72
    65
 73
     2
 40
0.8
 49
0.5
 74
     4
 75
     0
340
0
 46
1.0
 50
0.0
 44
0.0
 45
0.0
 49
-0.3
 74
     4
 75
     0
340
0
 46
1.0
 50
0.0
 44
0.0
 45
0.0
  0
LTYPE
  5
103
330
5
100
AcDbSymbolTableRecord
100
AcDbLinetypeTableRecord
  2
New Line14
 70
     0
  3

 72
    65
 73
     2
 40
0.8
 49
0.5
 74
     4
 75
     0
340
0
 46
1.0
 50
0.0
 44
0.0
 45
0.0
 49
-0.3
 74
     4
 75
     0
340
0
 46
1.0
 50
0.0
 44
0.0
 45
0.0
  0
LTYPE
  5
105
330
5
100
AcDbSymbolTableRecord
100
AcDbLinetypeTableRecord
  2
New Line15
 70
     0
  3

 72
    65
 73
     2
 40
0.8
 49
0.5
 74
     4
 75
     0
340
0
 46
1.0
 50
0.0
 44
0.0
 45
0.0
 49
-0.3
 74
     4
 75
     0
340
0
 46
1.0
 50
0.0
 44
0.0
 45
0.0
  0
LTYPE
  5
107
330
5
100
AcDbSymbolTableRecord
100
AcDbLinetypeTableRecord
  2
New Line16
 70
     0
  3

 72
    65
 73
     2
 40
0.8
 49
0.5
 74
     4
 75
     0
340
0
 46
1.0
 50
0.0
 44
0.0
 45
0.0
 49
-0.3
 74
     4
 75
     0
340
0
 46
1.0
 50
0.0
 44
0.0
 45
0.0
  0
LTYPE
  5
109
330
5
100
AcDbSymbolTableRecord
100
AcDbLinetypeTableRecord
  2
New Line17
 70
     0
  3

 72
    65
 73
     2
 40
0.8
 49
0.5
 74
     4
 75
     0
340
0
 46
1.0
 50
0.0
 44
0.0
 45
0.0
 49
-0.3
 74
     4
 75
     0
340
0
 46
1.0
 50
0.0
 44
0.0
 45
0.0
  0
LTYPE
  5
10B
330
5
100
AcDbSymbolTableRecord
100
AcDbLinetypeTableRecord
  2
New Line18
 70
     0
  3

 72
    65
 73
     2
 40
0.8
 49
0.5
 74
     4
 75
     0
340
0
 46
1.0
 50
0.0
 44
0.0
 45
0.0
 49
-0.3
 74
     4
 75
     0
340
0
 46
1.0
 50
0.0
 44
0.0
 45
0.0
  0
LTYPE
  5
10D
330
5
100
AcDbSymbolTableRecord
100
AcDbLinetypeTableRecord
  2
New Line19
 70
     0
  3

 72
    65
 73
     2
 40
0.8
 49
0.5
 74
     4
 75
     0
340
0
 46
1.0
 50
0.0
 44
0.0
 45
0.0
 49
-0.3
 74
     4
 75
     0
340
0
 46
1.0
 50
0.0
 44
0.0
 45
0.0
  0
LTYPE
  5
10F
330
5
100
AcDbSymbolTableRecord
100
AcDbLinetypeTableRecord
  2
New Line20
 70
     0
  3

 72
    65
 73
     2
 40
0.8
 49
0.5
 74
     4
 75
     0
340
0
 46
1.0
 50
0.0
 44
0.0
 45
0.0
 49
-0.3
 74
     4
 75
     0
340
0
 46
1.0
 50
0.0
 44
0.0
 45
0.0
  0
LTYPE
  5
111
330
5
100
AcDbSymbolTableRecord
100
AcDbLinetypeTableRecord
  2
New Line21
 70
     0
  3

 72
    65
 73
     2
 40
0.8
 49
0.5
 74
     4
 75
     0
340
0
 46
1.0
 50
0.0
 44
0.0
 45
0.0
 49
-0.3
 74
     4
 75
     0
340
0
 46
1.0
 50
0.0
 44
0.0
 45
0.0
  0
LTYPE
  5
113
330
5
100
AcDbSymbolTableRecord
100
AcDbLinetypeTableRecord
  2
New Line22
 70
     0
  3

 72
    65
 73
     2
 40
0.8
 49
0.5
 74
     4
 75
     0
340
0
 46
1.0
 50
0.0
 44
0.0
 45
0.0
 49
-0.3
 74
     4
 75
     0
340
0
 46
1.0
 50
0.0
 44
0.0
 45
0.0
  0
LTYPE
  5
115
330
5
100
AcDbSymbolTableRecord
100
AcDbLinetypeTableRecord
  2
New Line23
 70
     0
  3

 72
    65
 73
     2
 40
0.8
 49
0.5
 74
     4
 75
     0
340
0
 46
1.0
 50
0.0
 44
0.0
 45
0.0
 49
-0.3
 74
     4
 75
     0
340
0
 46
1.0
 50
0.0
 44
0.0
 45
0.0
  0
LTYPE
  5
117
330
5
100
AcDbSymbolTableRecord
100
AcDbLinetypeTableRecord
  2
New Line24
 70
     0
  3

 72
    65
 73
     2
 40
0.8
 49
0.5
 74
     4
 75
     0
340
0
 46
1.0
 50
0.0
 44
0.0
 45
0.0
 49
-0.3
 74
     4
 75
     0
340
0
 46
1.0
 50
0.0
 44
0.0
 45
0.0
  0
LTYPE
  5
119
330
5
100
AcDbSymbolTableRecord
100
AcDbLinetypeTableRecord
  2
New Line25
 70
     0
  3

 72
    65
 73
     2
 40
0.8
 49
0.5
 74
     4
 75
     0
340
0
 46
1.0
 50
0.0
 44
0.0
 45
0.0
 49
-0.3
 74
     4
 75
     0
340
0
 46
1.0
 50
0.0
 44
0.0
 45
0.0
  0
LTYPE
  5
11B
330
5
100
AcDbSymbolTableRecord
100
AcDbLinetypeTableRecord
  2
New Line26
 70
     0
  3

 72
    65
 73
     2
 40
0.8
 49
0.5
 74
     4
 75
     0
340
0
 46
1.0
 50
0.0
 44
0.0
 45
0.0
 49
-0.3
 74
     4
 75
     0
340
0
 46
1.0
 50
0.0
 44
0.0
 45
0.0
  0
LTYPE
  5
13D
330
5
100
AcDbSymbolTableRecord
100
AcDbLinetypeTableRecord
  2
New Line27
 70
     0
  3

 72
    65
 73
     4
 40
1.2
 49
0.5
 74
     4
 75
     0
340
0
 46
1.0
 50
0.0
 44
0.0
 45
0.0
 49
-0.3
 74
     4
 75
     0
340
0
 46
1.0
 50
0.0
 44
0.0
 45
0.0
 49
0.1
 74
     4
 75
     0
340
0
 46
1.0
 50
0.0
 44
0.0
 45
0.0
 49
-0.3
 74
     4
 75
     0
340
0
 46
1.0
 50
0.0
 44
0.0
 45
0.0
  0
LTYPE
  5
13F
330
5
100
AcDbSymbolTableRecord
100
AcDbLinetypeTableRecord
  2
New Line28
 70
     0
  3

 72
    65
 73
     4
 40
1.2
 49
0.5
 74
     4
 75
     0
340
0
 46
1.0
 50
0.0
 44
0.0
 45
0.0
 49
-0.3
 74
     4
 75
     0
340
0
 46
1.0
 50
0.0
 44
0.0
 45
0.0
 49
0.1
 74
     4
 75
     0
340
0
 46
1.0
 50
0.0
 44
0.0
 45
0.0
 49
-0.3
 74
     4
 75
     0
340
0
 46
1.0
 50
0.0
 44
0.0
 45
0.0
  0
LTYPE
  5
141
330
5
100
AcDbSymbolTableRecord
100
AcDbLinetypeTableRecord
  2
New Line29
 70
     0
  3

 72
    65
 73
     4
 40
1.2
 49
0.5
 74
     4
 75
     0
340
0
 46
1.0
 50
0.0
 44
0.0
 45
0.0
 49
-0.3
 74
     4
 75
     0
340
0
 46
1.0
 50
0.0
 44
0.0
 45
0.0
 49
0.1
 74
     4
 75
     0
340
0
 46
1.0
 50
0.0
 44
0.0
 45
0.0
 49
-0.3
 74
     4
 75
     0
340
0
 46
1.0
 50
0.0
 44
0.0
 45
0.0
  0
LTYPE
  5
143
330
5
100
AcDbSymbolTableRecord
100
AcDbLinetypeTableRecord
  2
New Line30
 70
     0
  3

 72
    65
 73
     4
 40
1.2
 49
0.5
 74
     4
 75
     0
340
0
 46
1.0
 50
0.0
 44
0.0
 45
0.0
 49
-0.3
 74
     4
 75
     0
340
0
 46
1.0
 50
0.0
 44
0.0
 45
0.0
 49
0.1
 74
     4
 75
     0
340
0
 46
1.0
 50
0.0
 44
0.0
 45
0.0
 49
-0.3
 74
     4
 75
     0
340
0
 46
1.0
 50
0.0
 44
0.0
 45
0.0
  0
LTYPE
  5
145
330
5
100
AcDbSymbolTableRecord
100
AcDbLinetypeTableRecord
  2
New Line31
 70
     0
  3

 72
    65
 73
     4
 40
1.2
 49
0.5
 74
     4
 75
     0
340
0
 46
1.0
 50
0.0
 44
0.0
 45
0.0
 49
-0.3
 74
     4
 75
     0
340
0
 46
1.0
 50
0.0
 44
0.0
 45
0.0
 49
0.1
 74
     4
 75
     0
340
0
 46
1.0
 50
0.0
 44
0.0
 45
0.0
 49
-0.3
 74
     4
 75
     0
340
0
 46
1.0
 50
0.0
 44
0.0
 45
0.0
  0
LTYPE
  5
147
330
5
100
AcDbSymbolTableRecord
100
AcDbLinetypeTableRecord
  2
New Line32
 70
     0
  3

 72
    65
 73
     4
 40
1.2
 49
0.5
 74
     4
 75
     0
340
0
 46
1.0
 50
0.0
 44
0.0
 45
0.0
 49
-0.3
 74
     4
 75
     0
340
0
 46
1.0
 50
0.0
 44
0.0
 45
0.0
 49
0.1
 74
     4
 75
     0
340
0
 46
1.0
 50
0.0
 44
0.0
 45
0.0
 49
-0.3
 74
     4
 75
     0
340
0
 46
1.0
 50
0.0
 44
0.0
 45
0.0
  0
LTYPE
  5
149
330
5
100
AcDbSymbolTableRecord
100
AcDbLinetypeTableRecord
  2
New Line33
 70
     0
  3

 72
    65
 73
     4
 40
1.2
 49
0.5
 74
     4
 75
     0
340
0
 46
1.0
 50
0.0
 44
0.0
 45
0.0
 49
-0.3
 74
     4
 75
     0
340
0
 46
1.0
 50
0.0
 44
0.0
 45
0.0
 49
0.1
 74
     4
 75
     0
340
0
 46
1.0
 50
0.0
 44
0.0
 45
0.0
 49
-0.3
 74
     4
 75
     0
340
0
 46
1.0
 50
0.0
 44
0.0
 45
0.0
  0
LTYPE
  5
14B
330
5
100
AcDbSymbolTableRecord
100
AcDbLinetypeTableRecord
  2
New Line34
 70
     0
  3

 72
    65
 73
     4
 40
1.2
 49
0.5
 74
     4
 75
     0
340
0
 46
1.0
 50
0.0
 44
0.0
 45
0.0
 49
-0.3
 74
     4
 75
     0
340
0
 46
1.0
 50
0.0
 44
0.0
 45
0.0
 49
0.1
 74
     4
 75
     0
340
0
 46
1.0
 50
0.0
 44
0.0
 45
0.0
 49
-0.3
 74
     4
 75
     0
340
0
 46
1.0
 50
0.0
 44
0.0
 45
0.0
  0
LTYPE
  5
14E
330
5
100
AcDbSymbolTableRecord
100
AcDbLinetypeTableRecord
  2
New Line35
 70
     0
  3

 72
    65
 73
     4
 40
1.2
 49
0.5
 74
     4
 75
     0
340
0
 46
1.0
 50
0.0
 44
0.0
 45
0.0
 49
-0.3
 74
     4
 75
     0
340
0
 46
1.0
 50
0.0
 44
0.0
 45
0.0
 49
0.1
 74
     4
 75
     0
340
0
 46
1.0
 50
0.0
 44
0.0
 45
0.0
 49
-0.3
 74
     4
 75
     0
340
0
 46
1.0
 50
0.0
 44
0.0
 45
0.0
  0
LTYPE
  5
152
330
5
100
AcDbSymbolTableRecord
100
AcDbLinetypeTableRecord
  2
New Line36
 70
     0
  3

 72
    65
 73
     2
 40
0.8
 49
0.5
 74
     4
 75
     0
340
0
 46
1.0
 50
0.0
 44
0.0
 45
0.0
 49
-0.3
 74
     4
 75
     0
340
0
 46
1.0
 50
0.0
 44
0.0
 45
0.0
  0
LTYPE
  5
154
330
5
100
AcDbSymbolTableRecord
100
AcDbLinetypeTableRecord
  2
New Line37
 70
     0
  3

 72
    65
 73
     2
 40
0.8
 49
0.5
 74
     4
 75
     0
340
0
 46
1.0
 50
0.0
 44
0.0
 45
0.0
 49
-0.3
 74
     4
 75
     0
340
0
 46
1.0
 50
0.0
 44
0.0
 45
0.0
  0
LTYPE
  5
158
330
5
100
AcDbSymbolTableRecord
100
AcDbLinetypeTableRecord
  2
New Line38
 70
     0
  3

 72
    65
 73
     2
 40
0.8
 49
0.5
 74
     4
 75
     0
340
0
 46
1.0
 50
0.0
 44
0.0
 45
0.0
 49
-0.3
 74
     4
 75
     0
340
0
 46
1.0
 50
0.0
 44
0.0
 45
0.0
  0
LTYPE
  5
15A
330
5
100
AcDbSymbolTableRecord
100
AcDbLinetypeTableRecord
  2
New Line39
 70
     0
  3

 72
    65
 73
     2
 40
0.8
 49
0.5
 74
     4
 75
     0
340
0
 46
1.0
 50
0.0
 44
0.0
 45
0.0
 49
-0.3
 74
     4
 75
     0
340
0
 46
1.0
 50
0.0
 44
0.0
 45
0.0
  0
LTYPE
  5
15C
330
5
100
AcDbSymbolTableRecord
100
AcDbLinetypeTableRecord
  2
New Line40
 70
     0
  3

 72
    65
 73
     2
 40
0.8
 49
0.5
 74
     4
 75
     0
340
0
 46
1.0
 50
0.0
 44
0.0
 45
0.0
 49
-0.3
 74
     4
 75
     0
340
0
 46
1.0
 50
0.0
 44
0.0
 45
0.0
  0
LTYPE
  5
15E
330
5
100
AcDbSymbolTableRecord
100
AcDbLinetypeTableRecord
  2
New Line41
 70
     0
  3

 72
    65
 73
     2
 40
0.8
 49
0.5
 74
     4
 75
     0
340
0
 46
1.0
 50
0.0
 44
0.0
 45
0.0
 49
-0.3
 74
     4
 75
     0
340
0
 46
1.0
 50
0.0
 44
0.0
 45
0.0
  0
LTYPE
  5
160
330
5
100
AcDbSymbolTableRecord
100
AcDbLinetypeTableRecord
  2
New Line42
 70
     0
  3

 72
    65
 73
     2
 40
0.8
 49
0.5
 74
     4
 75
     0
340
0
 46
1.0
 50
0.0
 44
0.0
 45
0.0
 49
-0.3
 74
     4
 75
     0
340
0
 46
1.0
 50
0.0
 44
0.0
 45
0.0
  0
LTYPE
  5
162
330
5
100
AcDbSymbolTableRecord
100
AcDbLinetypeTableRecord
  2
New Line43
 70
     0
  3

 72
    65
 73
     2
 40
0.8
 49
0.5
 74
     4
 75
     0
340
0
 46
1.0
 50
0.0
 44
0.0
 45
0.0
 49
-0.3
 74
     4
 75
     0
340
0
 46
1.0
 50
0.0
 44
0.0
 45
0.0
  0
LTYPE
  5
164
330
5
100
AcDbSymbolTableRecord
100
AcDbLinetypeTableRecord
  2
New Line44
 70
     0
  3

 72
    65
 73
     2
 40
0.8
 49
0.5
 74
     4
 75
     0
340
0
 46
1.0
 50
0.0
 44
0.0
 45
0.0
 49
-0.3
 74
     4
 75
     0
340
0
 46
1.0
 50
0.0
 44
0.0
 45
0.0
  0
LTYPE
  5
166
330
5
100
AcDbSymbolTableRecord
100
AcDbLinetypeTableRecord
  2
New Line45
 70
     0
  3

 72
    65
 73
     2
 40
0.8
 49
0.5
 74
     4
 75
     0
340
0
 46
1.0
 50
0.0
 44
0.0
 45
0.0
 49
-0.3
 74
     4
 75
     0
340
0
 46
1.0
 50
0.0
 44
0.0
 45
0.0
  0
LTYPE
  5
168
330
5
100
AcDbSymbolTableRecord
100
AcDbLinetypeTableRecord
  2
New Line46
 70
     0
  3

 72
    65
 73
     2
 40
0.8
 49
0.5
 74
     4
 75
     0
340
0
 46
1.0
 50
0.0
 44
0.0
 45
0.0
 49
-0.3
 74
     4
 75
     0
340
0
 46
1.0
 50
0.0
 44
0.0
 45
0.0
  0
LTYPE
  5
16A
330
5
100
AcDbSymbolTableRecord
100
AcDbLinetypeTableRecord
  2
New Line47
 70
     0
  3

 72
    65
 73
     2
 40
0.8
 49
0.5
 74
     4
 75
     0
340
0
 46
1.0
 50
0.0
 44
0.0
 45
0.0
 49
-0.3
 74
     4
 75
     0
340
0
 46
1.0
 50
0.0
 44
0.0
 45
0.0
  0
LTYPE
  5
16C
330
5
100
AcDbSymbolTableRecord
100
AcDbLinetypeTableRecord
  2
New Line48
 70
     0
  3

 72
    65
 73
     2
 40
0.8
 49
0.5
 74
     4
 75
     0
340
0
 46
1.0
 50
0.0
 44
0.0
 45
0.0
 49
-0.3
 74
     4
 75
     0
340
0
 46
1.0
 50
0.0
 44
0.0
 45
0.0
  0
LTYPE
  5
16E
330
5
100
AcDbSymbolTableRecord
100
AcDbLinetypeTableRecord
  2
New Line49
 70
     0
  3

 72
    65
 73
     2
 40
0.8
 49
0.5
 74
     4
 75
     0
340
0
 46
1.0
 50
0.0
 44
0.0
 45
0.0
 49
-0.3
 74
     4
 75
     0
340
0
 46
1.0
 50
0.0
 44
0.0
 45
0.0
  0
LTYPE
  5
170
330
5
100
AcDbSymbolTableRecord
100
AcDbLinetypeTableRecord
  2
New Line50
 70
     0
  3

 72
    65
 73
     2
 40
0.8
 49
0.5
 74
     4
 75
     0
340
0
 46
1.0
 50
0.0
 44
0.0
 45
0.0
 49
-0.3
 74
     4
 75
     0
340
0
 46
1.0
 50
0.0
 44
0.0
 45
0.0
  0
LTYPE
  5
172
330
5
100
AcDbSymbolTableRecord
100
AcDbLinetypeTableRecord
  2
New Line51
 70
     0
  3

 72
    65
 73
     2
 40
0.8
 49
0.5
 74
     4
 75
     0
340
0
 46
1.0
 50
0.0
 44
0.0
 45
0.0
 49
-0.3
 74
     4
 75
     0
340
0
 46
1.0
 50
0.0
 44
0.0
 45
0.0
  0
LTYPE
  5
174
330
5
100
AcDbSymbolTableRecord
100
AcDbLinetypeTableRecord
  2
New Line52
 70
     0
  3

 72
    65
 73
     2
 40
0.8
 49
0.5
 74
     4
 75
     0
340
0
 46
1.0
 50
0.0
 44
0.0
 45
0.0
 49
-0.3
 74
     4
 75
     0
340
0
 46
1.0
 50
0.0
 44
0.0
 45
0.0
  0
LTYPE
  5
176
330
5
100
AcDbSymbolTableRecord
100
AcDbLinetypeTableRecord
  2
New Line53
 70
     0
  3

 72
    65
 73
     2
 40
0.8
 49
0.5
 74
     4
 75
     0
340
0
 46
1.0
 50
0.0
 44
0.0
 45
0.0
 49
-0.3
 74
     4
 75
     0
340
0
 46
1.0
 50
0.0
 44
0.0
 45
0.0
  0
LTYPE
  5
178
330
5
100
AcDbSymbolTableRecord
100
AcDbLinetypeTableRecord
  2
New Line54
 70
     0
  3

 72
    65
 73
     2
 40
0.8
 49
0.5
 74
     4
 75
     0
340
0
 46
1.0
 50
0.0
 44
0.0
 45
0.0
 49
-0.3
 74
     4
 75
     0
340
0
 46
1.0
 50
0.0
 44
0.0
 45
0.0
  0
LTYPE
  5
17A
330
5
100
AcDbSymbolTableRecord
100
AcDbLinetypeTableRecord
  2
New Line55
 70
     0
  3

 72
    65
 73
     2
 40
0.8
 49
0.5
 74
     4
 75
     0
340
0
 46
1.0
 50
0.0
 44
0.0
 45
0.0
 49
-0.3
 74
     4
 75
     0
340
0
 46
1.0
 50
0.0
 44
0.0
 45
0.0
  0
LTYPE
  5
17C
330
5
100
AcDbSymbolTableRecord
100
AcDbLinetypeTableRecord
  2
New Line56
 70
     0
  3

 72
    65
 73
     2
 40
0.8
 49
0.5
 74
     4
 75
     0
340
0
 46
1.0
 50
0.0
 44
0.0
 45
0.0
 49
-0.3
 74
     4
 75
     0
340
0
 46
1.0
 50
0.0
 44
0.0
 45
0.0
  0
LTYPE
  5
17E
330
5
100
AcDbSymbolTableRecord
100
AcDbLinetypeTableRecord
  2
New Line57
 70
     0
  3

 72
    65
 73
     2
 40
0.8
 49
0.5
 74
     4
 75
     0
340
0
 46
1.0
 50
0.0
 44
0.0
 45
0.0
 49
-0.3
 74
     4
 75
     0
340
0
 46
1.0
 50
0.0
 44
0.0
 45
0.0
  0
LTYPE
  5
180
330
5
100
AcDbSymbolTableRecord
100
AcDbLinetypeTableRecord
  2
New Line58
 70
     0
  3

 72
    65
 73
     2
 40
0.8
 49
0.5
 74
     4
 75
     0
340
0
 46
1.0
 50
0.0
 44
0.0
 45
0.0
 49
-0.3
 74
     4
 75
     0
340
0
 46
1.0
 50
0.0
 44
0.0
 45
0.0
  0
LTYPE
  5
182
330
5
100
AcDbSymbolTableRecord
100
AcDbLinetypeTableRecord
  2
New Line59
 70
     0
  3

 72
    65
 73
     2
 40
0.8
 49
0.5
 74
     4
 75
     0
340
0
 46
1.0
 50
0.0
 44
0.0
 45
0.0
 49
-0.3
 74
     4
 75
     0
340
0
 46
1.0
 50
0.0
 44
0.0
 45
0.0
  0
LTYPE
  5
184
330
5
100
AcDbSymbolTableRecord
100
AcDbLinetypeTableRecord
  2
New Line60
 70
     0
  3

 72
    65
 73
     2
 40
0.8
 49
0.5
 74
     4
 75
     0
340
0
 46
1.0
 50
0.0
 44
0.0
 45
0.0
 49
-0.3
 74
     4
 75
     0
340
0
 46
1.0
 50
0.0
 44
0.0
 45
0.0
  0
LTYPE
  5
186
330
5
100
AcDbSymbolTableRecord
100
AcDbLinetypeTableRecord
  2
New Line61
 70
     0
  3

 72
    65
 73
     2
 40
0.8
 49
0.5
 74
     4
 75
     0
340
0
 46
1.0
 50
0.0
 44
0.0
 45
0.0
 49
-0.3
 74
     4
 75
     0
340
0
 46
1.0
 50
0.0
 44
0.0
 45
0.0
  0
LTYPE
  5
189
330
5
100
AcDbSymbolTableRecord
100
AcDbLinetypeTableRecord
  2
New Line62
 70
     0
  3

 72
    65
 73
     4
 40
1.2
 49
0.5
 74
     4
 75
     0
340
0
 46
1.0
 50
0.0
 44
0.0
 45
0.0
 49
-0.3
 74
     4
 75
     0
340
0
 46
1.0
 50
0.0
 44
0.0
 45
0.0
 49
0.1
 74
     4
 75
     0
340
0
 46
1.0
 50
0.0
 44
0.0
 45
0.0
 49
-0.3
 74
     4
 75
     0
340
0
 46
1.0
 50
0.0
 44
0.0
 45
0.0
  0
LTYPE
  5
18B
330
5
100
AcDbSymbolTableRecord
100
AcDbLinetypeTableRecord
  2
New Line63
 70
     0
  3

 72
    65
 73
     4
 40
1.2
 49
0.5
 74
     4
 75
     0
340
0
 46
1.0
 50
0.0
 44
0.0
 45
0.0
 49
-0.3
 74
     4
 75
     0
340
0
 46
1.0
 50
0.0
 44
0.0
 45
0.0
 49
0.1
 74
     4
 75
     0
340
0
 46
1.0
 50
0.0
 44
0.0
 45
0.0
 49
-0.3
 74
     4
 75
     0
340
0
 46
1.0
 50
0.0
 44
0.0
 45
0.0
  0
LTYPE
  5
18D
330
5
100
AcDbSymbolTableRecord
100
AcDbLinetypeTableRecord
  2
New Line64
 70
     0
  3

 72
    65
 73
     4
 40
1.2
 49
0.5
 74
     4
 75
     0
340
0
 46
1.0
 50
0.0
 44
0.0
 45
0.0
 49
-0.3
 74
     4
 75
     0
340
0
 46
1.0
 50
0.0
 44
0.0
 45
0.0
 49
0.1
 74
     4
 75
     0
340
0
 46
1.0
 50
0.0
 44
0.0
 45
0.0
 49
-0.3
 74
     4
 75
     0
340
0
 46
1.0
 50
0.0
 44
0.0
 45
0.0
  0
ENDTAB
  0
TABLE
  2
LAYER
  5
2
330
0
100
AcDbSymbolTable
 70
     2
  0
LAYER
  5
10
330
2
100
AcDbSymbolTableRecord
100
AcDbLayerTableRecord
  2
0
 70
     0
 62
     7
  6
Continuous
370
    -3
390
F
  0
LAYER
  5
40
330
2
100
AcDbSymbolTableRecord
100
AcDbLayerTableRecord
  2
Standard layer
 70
     0
 62
     7
  6
Continuous
370
    -3
390
F
  0
ENDTAB
  0
TABLE
  2
STYLE
  5
3
330
0
100
AcDbSymbolTable
 70
     1
  0
STYLE
  5
11
330
3
100
AcDbSymbolTableRecord
100
AcDbTextStyleTableRecord
  2
Standard
 70
     0
 40
0.0
 41
1.0
 50
0.0
 71
     0
 42
0.2
  3
txt
  4

  0
ENDTAB
  0
TABLE
  2
VIEW
  5
6
330
0
100
AcDbSymbolTable
 70
     0
  0
ENDTAB
  0
TABLE
  2
UCS
  5
7
330
0
100
AcDbSymbolTable
 70
     0
  0
ENDTAB
  0
TABLE
  2
APPID
  5
9
330
0
100
AcDbSymbolTable
 70
     2
  0
APPID
  5
12
330
9
100
AcDbSymbolTableRecord
100
AcDbRegAppTableRecord
  2
ACAD
 70
     0
  0
APPID
  5
3F
330
9
100
AcDbSymbolTableRecord
100
AcDbRegAppTableRecord
  2
ODA
 70
     0
  0
ENDTAB
  0
TABLE
  2
DIMSTYLE
  5
A
330
0
100
AcDbSymbolTable
 70
     1
100
AcDbDimStyleTable
  0
DIMSTYLE
105
27
330
A
100
AcDbSymbolTableRecord
100
AcDbDimStyleTableRecord
  2
Standard
 70
     0
340
11
  0
ENDTAB
  0
TABLE
  2
BLOCK_RECORD
  5
1
330
0
100
AcDbSymbolTable
 70
     1
  0
BLOCK_RECORD
  5
1F
330
1
100
AcDbSymbolTableRecord
100
AcDbBlockTableRecord
  2
*Model_Space
340
22
  0
BLOCK_RECORD
  5
1B
330
1
100
AcDbSymbolTableRecord
100
AcDbBlockTableRecord
  2
*Paper_Space
340
1E
  0
BLOCK_RECORD
  5
23
330
1
100
AcDbSymbolTableRecord
100
AcDbBlockTableRecord
  2
*Paper_Space0
340
26
  0
ENDTAB
  0
ENDSEC
  0
SECTION
  2
BLOCKS
  0
BLOCK
  5
20
330
1F
100
AcDbEntity
  8
0
100
AcDbBlockBegin
  2
*Model_Space
 70
     0
 10
0.0
 20
0.0
 30
0.0
  3
*Model_Space
  1

  0
ENDBLK
  5
21
330
1F
100
AcDbEntity
  8
0
100
AcDbBlockEnd
  0
BLOCK
  5
1C
330
1B
100
AcDbEntity
 67
     1
  8
0
100
AcDbBlockBegin
  2
*Paper_Space
 70
     0
 10
0.0
 20
0.0
 30
0.0
  3
*Paper_Space
  1

  0
ENDBLK
  5
1D
330
1B
100
AcDbEntity
 67
     1
  8
0
100
AcDbBlockEnd
  0
BLOCK
  5
24
330
23
100
AcDbEntity
  8
0
100
AcDbBlockBegin
  2
*Paper_Space0
 70
     0
 10
0.0
 20
0.0
 30
0.0
  3
*Paper_Space0
  1

  0
ENDBLK
  5
25
330
23
100
AcDbEntity
  8
0
100
AcDbBlockEnd
  0
ENDSEC
  0
SECTION
  2
ENTITIES
  0
SPLINE
  5
41
330
1F
100
AcDbEntity
  8
Standard layer
 62
   250
370
    15
100
AcDbSpline
210
0.0
220
0.0
230
1.0
 70
    24
 71
     3
 72
     8
 73
     4
 74
     0
 42
0.0000000001
 43
0.0000000001
 40
0.0
 40
0.0
 40
0.0
 40
0.0
 40
1.0
 40
1.0
 40
1.0
 40
1.0
 10
-10.7144
 20
13.0818
 30
0.0
 10
-10.7144
 20
13.0818
 30
0.0
 10
-8.4167
 20
13.2437
 30
0.0
 10
-8.4167
 20
13.2437
 30
0.0
  0
SPLINE
  5
42
330
1F
100
AcDbEntity
  8
Standard layer
 62
   250
370
    15
100
AcDbSpline
210
0.0
220
0.0
230
1.0
 70
    24
 71
     3
 72
     8
 73
     4
 74
     0
 42
0.0000000001
 43
0.0000000001
 40
0.0
 40
0.0
 40
0.0
 40
0.0
 40
1.0
 40
1.0
 40
1.0
 40
1.0
 10
-10.6792
 20
20.2981
 30
0.0
 10
-10.6792
 20
20.2981
 30
0.0
 10
-8.3815
 20
20.46
 30
0.0
 10
-8.3815
 20
20.46
 30
0.0
  0
SPLINE
  5
43
330
1F
100
AcDbEntity
  8
Standard layer
 62
   250
370
    15
100
AcDbSpline
210
0.0
220
0.0
230
1.0
 70
    24
 71
     3
 72
     8
 73
     4
 74
     0
 42
0.0000000001
 43
0.0000000001
 40
0.0
 40
0.0
 40
0.0
 40
0.0
 40
1.0
 40
1.0
 40
1.0
 40
1.0
 10
-10.7265
 20
13.6498
 30
0.0
 10
-10.7265
 20
13.6498
 30
0.0
 10
-8.4288
 20
13.8117
 30
0.0
 10
-8.4288
 20
13.8117
 30
0.0
  0
SPLINE
  5
44
330
1F
100
AcDbEntity
  8
Standard layer
 62
   250
370
    15
100
AcDbSpline
210
0.0
220
0.0
230
1.0
 70
    24
 71
     3
 72
     8
 73
     4
 74
     0
 42
0.0000000001
 43
0.0000000001
 40
0.0
 40
0.0
 40
0.0
 40
0.0
 40
1.0
 40
1.0
 40
1.0
 40
1.0
 10
-10.7431
 20
10.6896
 30
0.0
 10
-10.7431
 20
10.6896
 30
0.0
 10
-8.4454
 20
10.8515
 30
0.0
 10
-8.4454
 20
10.8515
 30
0.0
  0
SPLINE
  5
45
330
1F
100
AcDbEntity
  8
Standard layer
 62
   250
370
    15
100
AcDbSpline
210
0.0
220
0.0
230
1.0
 70
    24
 71
     3
 72
     8
 73
     4
 74
     0
 42
0.0000000001
 43
0.0000000001
 40
0.0
 40
0.0
 40
0.0
 40
0.0
 40
1.0
 40
1.0
 40
1.0
 40
1.0
 10
-10.7013
 20
17.2499
 30
0.0
 10
-10.7013
 20
17.2499
 30
0.0
 10
-8.4036
 20
17.4118
 30
0.0
 10
-8.4036
 20
17.4118
 30
0.0
  0
SPLINE
  5
46
330
1F
100
AcDbEntity
  8
Standard layer
 62
   250
370
    15
100
AcDbSpline
210
0.0
220
0.0
230
1.0
 70
    24
 71
     3
 72
     8
 73
     4
 74
     0
 42
0.0000000001
 43
0.0000000001
 40
0.0
 40
0.0
 40
0.0
 40
0.0
 40
1.0
 40
1.0
 40
1.0
 40
1.0
 10
-10.6913
 20
20.8661
 30
0.0
 10
-10.6913
 20
20.8661
 30
0.0
 10
-8.3936
 20
21.028
 30
0.0
 10
-8.3936
 20
21.028
 30
0.0
  0
SPLINE
  5
47
330
1F
100
AcDbEntity
  8
Standard layer
 62
   250
370
    15
100
AcDbSpline
210
0.0
220
0.0
230
1.0
 70
    24
 71
     3
 72
     8
 73
     4
 74
     0
 42
0.0000000001
 43
0.0000000001
 40
0.0
 40
0.0
 40
0.0
 40
0.0
 40
1.0
 40
1.0
 40
1.0
 40
1.0
 10
-10.6673
 20
14.2909
 30
0.0
 10
-10.6673
 20
14.2909
 30
0.0
 10
-8.3696
 20
14.4528
 30
0.0
 10
-8.3696
 20
14.4528
 30
0.0
  0
SPLINE
  5
48
330
1F
100
AcDbEntity
  8
Standard layer
 62
   250
370
    15
100
AcDbSpline
210
0.0
220
0.0
230
1.0
 70
    24
 71
     3
 72
     8
 73
     4
 74
     0
 42
0.0000000001
 43
0.0000000001
 40
0.0
 40
0.0
 40
0.0
 40
0.0
 40
1.0
 40
1.0
 40
1.0
 40
1.0
 10
-10.6821
 20
17.891
 30
0.0
 10
-10.6821
 20
17.891
 30
0.0
 10
-8.3844
 20
18.0529
 30
0.0
 10
-8.3844
 20
18.0529
 30
0.0
  0
SPLINE
  5
49
330
1F
100
AcDbEntity
  8
Standard layer
 62
   250
370
    15
100
AcDbSpline
210
0.0
220
0.0
230
1.0
 70
    24
 71
     3
 72
     8
 73
     4
 74
     0
 42
0.0000000001
 43
0.0000000001
 40
0.0
 40
0.0
 40
0.0
 40
0.0
 40
1.0
 40
1.0
 40
1.0
 40
1.0
 10
-10.685
 20
11.2901
 30
0.0
 10
-10.685
 20
11.2901
 30
0.0
 10
-8.3873
 20
11.452
 30
0.0
 10
-8.3873
 20
11.452
 30
0.0
  0
SPLINE
  5
4A
330
1F
100
AcDbEntity
  8
Standard layer
 62
   250
370
    15
100
AcDbSpline
210
0.0
220
0.0
230
1.0
 70
    24
 71
     3
 72
     8
 73
     4
 74
     0
 42
0.0000000001
 43
0.0000000001
 40
0.0
 40
0.0
 40
0.0
 40
0.0
 40
1.0
 40
1.0
 40
1.0
 40
1.0
 10
-10.6898
 20
14.8902
 30
0.0
 10
-10.6898
 20
14.8902
 30
0.0
 10
-8.3921
 20
15.0521
 30
0.0
 10
-8.3921
 20
15.0521
 30
0.0
  0
SPLINE
  5
4B
330
1F
100
AcDbEntity
  8
Standard layer
 62
   250
370
    15
100
AcDbSpline
210
0.0
220
0.0
230
1.0
 70
    24
 71
     3
 72
     8
 73
     4
 74
     0
 42
0.0000000001
 43
0.0000000001
 40
0.0
 40
0.0
 40
0.0
 40
0.0
 40
1.0
 40
1.0
 40
1.0
 40
1.0
 10
-10.7046
 20
18.4903
 30
0.0
 10
-10.7046
 20
18.4903
 30
0.0
 10
-8.4069
 20
18.6522
 30
0.0
 10
-8.4069
 20
18.6522
 30
0.0
  0
SPLINE
  5
4C
330
1F
100
AcDbEntity
  8
Standard layer
 62
   250
370
    15
100
AcDbSpline
210
0.0
220
0.0
230
1.0
 70
    24
 71
     3
 72
     8
 73
     4
 74
     0
 42
0.0000000001
 43
0.0000000001
 40
0.0
 40
0.0
 40
0.0
 40
0.0
 40
1.0
 40
1.0
 40
1.0
 40
1.0
 10
-10.6659
 20
11.9
 30
0.0
 10
-10.6659
 20
11.9
 30
0.0
 10
-8.3682
 20
12.0619
 30
0.0
 10
-8.3682
 20
12.0619
 30
0.0
  0
SPLINE
  5
4D
330
1F
100
AcDbEntity
  8
Standard layer
 62
   250
370
    15
100
AcDbSpline
210
0.0
220
0.0
230
1.0
 70
    24
 71
     3
 72
     8
 73
     4
 74
     0
 42
0.0000000001
 43
0.0000000001
 40
0.0
 40
0.0
 40
0.0
 40
0.0
 40
1.0
 40
1.0
 40
1.0
 40
1.0
 10
-10.6707
 20
15.5001
 30
0.0
 10
-10.6707
 20
15.5001
 30
0.0
 10
-8.373
 20
15.662
 30
0.0
 10
-8.373
 20
15.662
 30
0.0
  0
SPLINE
  5
4E
330
1F
100
AcDbEntity
  8
Standard layer
 62
   250
370
    15
100
AcDbSpline
210
0.0
220
0.0
230
1.0
 70
    24
 71
     3
 72
     8
 73
     4
 74
     0
 42
0.0000000001
 43
0.0000000001
 40
0.0
 40
0.0
 40
0.0
 40
0.0
 40
1.0
 40
1.0
 40
1.0
 40
1.0
 10
-10.6855
 20
19.1002
 30
0.0
 10
-10.6855
 20
19.1002
 30
0.0
 10
-8.3878
 20
19.2621
 30
0.0
 10
-8.3878
 20
19.2621
 30
0.0
  0
SPLINE
  5
4F
330
1F
100
AcDbEntity
  8
Standard layer
 62
   250
370
    15
100
AcDbSpline
210
0.0
220
0.0
230
1.0
 70
    24
 71
     3
 72
     8
 73
     4
 74
     0
 42
0.0000000001
 43
0.0000000001
 40
0.0
 40
0.0
 40
0.0
 40
0.0
 40
1.0
 40
1.0
 40
1.0
 40
1.0
 10
-10.6779
 20
12.4993
 30
0.0
 10
-10.6779
 20
12.4993
 30
0.0
 10
-8.3802
 20
12.6612
 30
0.0
 10
-8.3802
 20
12.6612
 30
0.0
  0
SPLINE
  5
50
330
1F
100
AcDbEntity
  8
Standard layer
 62
   250
370
    15
100
AcDbSpline
210
0.0
220
0.0
230
1.0
 70
    24
 71
     3
 72
     8
 73
     4
 74
     0
 42
0.0000000001
 43
0.0000000001
 40
0.0
 40
0.0
 40
0.0
 40
0.0
 40
1.0
 40
1.0
 40
1.0
 40
1.0
 10
-10.6975
 20
19.6995
 30
0.0
 10
-10.6975
 20
19.6995
 30
0.0
 10
-8.3998
 20
19.8614
 30
0.0
 10
-8.3998
 20
19.8614
 30
0.0
  0
SPLINE
  5
51
330
1F
100
AcDbEntity
  8
Standard layer
 62
   250
370
    30
100
AcDbSpline
210
0.0
220
0.0
230
1.0
 70
     8
 71
     3
 72
    12
 73
     8
 74
     0
 42
0.0000000001
 43
0.0000000001
 40
0.0
 40
0.0
 40
0.0
 40
0.0
 40
0.3333333333333333
 40
0.3333333333333333
 40
0.3333333333333333
 40
0.3333333333333333
 40
1.0
 40
1.0
 40
1.0
 40
1.0
 10
-8.294
 20
16.221
 30
0.0
 10
-8.294
 20
16.221
 30
0.0
 10
-8.2939
 20
10.3276
 30
0.0
 10
-8.2939
 20
10.3276
 30
0.0
 10
-8.2939
 20
10.3276
 30
0.0
 10
-8.2939
 20
10.3276
 30
0.0
 10
-10.7994
 20
10.3359
 30
0.0
 10
-10.7994
 20
10.3359
 30
0.0
  0
SPLINE
  5
52
330
1F
100
AcDbEntity
  8
Standard layer
 62
   250
370
    30
100
AcDbSpline
210
0.0
220
0.0
230
1.0
 70
     8
 71
     3
 72
    16
 73
    12
 74
     0
 42
0.0000000001
 43
0.0000000001
 40
0.0
 40
0.0
 40
0.0
 40
0.0
 40
0.25
 40
0.25
 40
0.25
 40
0.25
 40
0.5
 40
0.5
 40
0.5
 40
0.5
 40
1.0
 40
1.0
 40
1.0
 40
1.0
 10
-10.791
 20
17.0115
 30
0.0
 10
-10.791
 20
17.0115
 30
0.0
 10
-10.7994
 20
21.2394
 30
0.0
 10
-10.7994
 20
21.2394
 30
0.0
 10
-10.7994
 20
21.2394
 30
0.0
 10
-10.7994
 20
21.2394
 30
0.0
 10
-8.3022
 20
21.2394
 30
0.0
 10
-8.3022
 20
21.2394
 30
0.0
 10
-8.3022
 20
21.2394
 30
0.0
 10
-8.3022
 20
21.2394
 30
0.0
 10
-8.3022
 20
16.9778
 30
0.0
 10
-8.3022
 20
16.9778
 30
0.0
  0
SPLINE
  5
53
330
1F
100
AcDbEntity
  8
Standard layer
 62
   250
370
    30
100
AcDbSpline
210
0.0
220
0.0
230
1.0
 70
    24
 71
     3
 72
     8
 73
     4
 74
     0
 42
0.0000000001
 43
0.0000000001
 40
0.0
 40
0.0
 40
0.0
 40
0.0
 40
1.0
 40
1.0
 40
1.0
 40
1.0
 10
-10.791
 20
10.3276
 30
0.0
 10
-10.791
 20
10.3276
 30
0.0
 10
-10.7994
 20
16.2049
 30
0.0
 10
-10.7994
 20
16.2049
 30
0.0
  0
SPLINE
  5
54
330
1F
100
AcDbEntity
  8
Standard layer
 62
   250
370
    30
100
AcDbSpline
210
0.0
220
0.0
230
1.0
 70
    24
 71
     3
 72
     8
 73
     4
 74
     0
 42
0.0000000001
 43
0.0000000001
 40
0.0
 40
0.0
 40
0.0
 40
0.0
 40
1.0
 40
1.0
 40
1.0
 40
1.0
 10
-18.5741
 20
29.7138
 30
0.0
 10
-18.5741
 20
29.7138
 30
0.0
 10
-18.5741
 20
30.6328
 30
0.0
 10
-18.5741
 20
30.6328
 30
0.0
  0
SPLINE
  5
55
330
1F
100
AcDbEntity
  8
Standard layer
 62
   250
370
    30
100
AcDbSpline
210
0.0
220
0.0
230
1.0
 70
    24
 71
     3
 72
     8
 73
     4
 74
     0
 42
0.0000000001
 43
0.0000000001
 40
0.0
 40
0.0
 40
0.0
 40
0.0
 40
1.0
 40
1.0
 40
1.0
 40
1.0
 10
-20.7249
 20
30.6328
 30
0.0
 10
-20.7249
 20
30.6328
 30
0.0
 10
-20.7249
 20
29.7138
 30
0.0
 10
-20.7249
 20
29.7138
 30
0.0
  0
SPLINE
  5
56
330
1F
100
AcDbEntity
  8
Standard layer
 62
   250
370
    30
100
AcDbSpline
210
0.0
220
0.0
230
1.0
 70
    24
 71
     3
 72
     8
 73
     4
 74
     0
 42
0.0000000001
 43
0.0000000001
 40
0.0
 40
0.0
 40
0.0
 40
0.0
 40
1.0
 40
1.0
 40
1.0
 40
1.0
 10
-18.0419
 20
30.8415
 30
0.0
 10
-18.0419
 20
30.8415
 30
0.0
 10
-21.2575
 20
30.8415
 30
0.0
 10
-21.2575
 20
30.8415
 30
0.0
  0
SPLINE
  5
57
330
1F
100
AcDbEntity
  8
Standard layer
 62
   250
370
    30
100
AcDbSpline
210
0.0
220
0.0
230
1.0
 70
     8
 71
     3
 72
    12
 73
     8
 74
     0
 42
0.0000000001
 43
0.0000000001
 40
0.0
 40
0.0
 40
0.0
 40
0.0
 40
0.3333333333333333
 40
0.3333333333333333
 40
0.3333333333333333
 40
0.3333333333333333
 40
1.0
 40
1.0
 40
1.0
 40
1.0
 10
-21.32
 20
26.3521
 30
0.0
 10
-21.32
 20
27.4032
 30
0.0
 10
-21.32
 20
28.4542
 30
0.0
 10
-21.32
 20
29.5052
 30
0.0
 10
-21.32
 20
29.5052
 30
0.0
 10
-20.9142
 20
29.9107
 30
0.0
 10
-21.2095
 20
29.7138
 30
0.0
 10
-20.2759
 20
29.7138
 30
0.0
  0
SPLINE
  5
58
330
1F
100
AcDbEntity
  8
Standard layer
 62
   250
370
    30
100
AcDbSpline
210
0.0
220
0.0
230
1.0
 70
    24
 71
     3
 72
    12
 73
     8
 74
     0
 42
0.0000000001
 43
0.0000000001
 40
0.0
 40
0.0
 40
0.0
 40
0.0
 40
0.3333333333333333
 40
0.3333333333333333
 40
0.3333333333333333
 40
0.3333333333333333
 40
1.0
 40
1.0
 40
1.0
 40
1.0
 10
-20.2759
 20
29.7138
 30
0.0
 10
-20.2759
 20
29.7138
 30
0.0
 10
-19.0231
 20
29.7138
 30
0.0
 10
-19.0231
 20
29.7138
 30
0.0
 10
-19.0231
 20
29.7138
 30
0.0
 10
-19.0231
 20
29.7138
 30
0.0
 10
-18.1879
 20
29.7138
 30
0.0
 10
-18.1879
 20
29.7138
 30
0.0
  0
SPLINE
  5
59
330
1F
100
AcDbEntity
  8
Standard layer
 62
   250
370
    30
100
AcDbSpline
210
0.0
220
0.0
230
1.0
 70
     8
 71
     3
 72
     8
 73
     4
 74
     0
 42
0.0000000001
 43
0.0000000001
 40
0.0
 40
0.0
 40
0.0
 40
0.0
 40
1.0
 40
1.0
 40
1.0
 40
1.0
 10
-18.1879
 20
29.7138
 30
0.0
 10
-17.7821
 20
29.6329
 30
0.0
 10
-17.9791
 20
28.6857
 30
0.0
 10
-17.9791
 20
28.6699
 30
0.0
  0
SPLINE
  5
5A
330
1F
100
AcDbEntity
  8
Standard layer
 62
   250
370
    30
100
AcDbSpline
210
0.0
220
0.0
230
1.0
 70
    24
 71
     3
 72
    12
 73
     8
 74
     0
 42
0.0000000001
 43
0.0000000001
 40
0.0
 40
0.0
 40
0.0
 40
0.0
 40
0.3333333333333333
 40
0.3333333333333333
 40
0.3333333333333333
 40
0.3333333333333333
 40
1.0
 40
1.0
 40
1.0
 40
1.0
 10
-17.9791
 20
28.6699
 30
0.0
 10
-17.9791
 20
28.6699
 30
0.0
 10
-17.9791
 20
27.1874
 30
0.0
 10
-17.9791
 20
27.1874
 30
0.0
 10
-17.9791
 20
27.1874
 30
0.0
 10
-17.9791
 20
27.1874
 30
0.0
 10
-17.9791
 20
26.3521
 30
0.0
 10
-17.9791
 20
26.3521
 30
0.0
  0
SPLINE
  5
5B
330
1F
100
AcDbEntity
  8
Standard layer
 62
   250
370
    30
100
AcDbSpline
210
0.0
220
0.0
230
1.0
 70
     8
 71
     3
 72
     8
 73
     4
 74
     0
 42
0.0000000001
 43
0.0000000001
 40
0.0
 40
0.0
 40
0.0
 40
0.0
 40
1.0
 40
1.0
 40
1.0
 40
1.0
 10
-21.2575
 20
30.8415
 30
0.0
 10
-20.8518
 20
30.4359
 30
0.0
 10
-21.1471
 20
30.6328
 30
0.0
 10
-20.2134
 20
30.6328
 30
0.0
  0
SPLINE
  5
5C
330
1F
100
AcDbEntity
  8
Standard layer
 62
   250
370
    30
100
AcDbSpline
210
0.0
220
0.0
230
1.0
 70
     8
 71
     3
 72
    16
 73
    12
 74
     0
 42
0.0000000001
 43
0.0000000001
 40
0.0
 40
0.0
 40
0.0
 40
0.0
 40
0.25
 40
0.25
 40
0.25
 40
0.25
 40
0.5
 40
0.5
 40
0.5
 40
0.5
 40
1.0
 40
1.0
 40
1.0
 40
1.0
 10
-20.2134
 20
30.6328
 30
0.0
 10
-20.2134
 20
30.6328
 30
0.0
 10
-19.0858
 20
30.6328
 30
0.0
 10
-19.0858
 20
30.6328
 30
0.0
 10
-19.0858
 20
30.6328
 30
0.0
 10
-19.0858
 20
30.6328
 30
0.0
 10
-18.2505
 20
30.6328
 30
0.0
 10
-18.2505
 20
30.6328
 30
0.0
 10
-18.2505
 20
30.6328
 30
0.0
 10
-18.2505
 20
30.6328
 30
0.0
 10
-18.0419
 20
30.8415
 30
0.0
 10
-18.0419
 20
30.8415
 30
0.0
  0
SPLINE
  5
5D
330
1F
100
AcDbEntity
  8
Standard layer
 62
   250
370
    30
100
AcDbSpline
210
0.0
220
0.0
230
1.0
 70
     8
 71
     3
 72
    24
 73
    20
 74
     0
 42
0.0000000001
 43
0.0000000001
 40
0.0
 40
0.0
 40
0.0
 40
0.0
 40
0.1666666666666667
 40
0.1666666666666667
 40
0.1666666666666667
 40
0.1666666666666667
 40
0.3333333333333333
 40
0.3333333333333333
 40
0.3333333333333333
 40
0.3333333333333333
 40
0.5
 40
0.5
 40
0.5
 40
0.5
 40
0.6666666666666666
 40
0.6666666666666666
 40
0.6666666666666666
 40
0.6666666666666666
 40
1.0
 40
1.0
 40
1.0
 40
1.0
 10
-21.2575
 20
30.8415
 30
0.0
 10
-21.2575
 20
30.8415
 30
0.0
 10
-20.6101
 20
31.4888
 30
0.0
 10
-20.6101
 20
31.4888
 30
0.0
 10
-20.6101
 20
31.4888
 30
0.0
 10
-20.6101
 20
31.4888
 30
0.0
 10
-19.775
 20
31.4888
 30
0.0
 10
-19.775
 20
31.4888
 30
0.0
 10
-19.775
 20
31.4888
 30
0.0
 10
-19.775
 20
31.4888
 30
0.0
 10
-19.5244
 20
31.4888
 30
0.0
 10
-19.5244
 20
31.4888
 30
0.0
 10
-19.5244
 20
31.4888
 30
0.0
 10
-19.5244
 20
31.4888
 30
0.0
 10
-18.6889
 20
31.4888
 30
0.0
 10
-18.6889
 20
31.4888
 30
0.0
 10
-18.6889
 20
31.4888
 30
0.0
 10
-18.6889
 20
31.4888
 30
0.0
 10
-18.0419
 20
30.8415
 30
0.0
 10
-18.0419
 20
30.8415
 30
0.0
  0
SPLINE
  5
5E
330
1F
100
AcDbEntity
  8
Standard layer
 62
   250
370
    30
100
AcDbSpline
210
0.0
220
0.0
230
1.0
 70
    24
 71
     3
 72
     8
 73
     4
 74
     0
 42
0.0000000001
 43
0.0000000001
 40
0.0
 40
0.0
 40
0.0
 40
0.0
 40
1.0
 40
1.0
 40
1.0
 40
1.0
 10
-5.3464
 20
23.3455
 30
0.0
 10
-5.3464
 20
23.3455
 30
0.0
 10
-23.6793
 20
23.3455
 30
0.0
 10
-23.6793
 20
23.3455
 30
0.0
  0
SPLINE
  5
5F
330
1F
100
AcDbEntity
  8
Standard layer
 62
   250
370
    30
100
AcDbSpline
210
0.0
220
0.0
230
1.0
 70
    24
 71
     3
 72
     8
 73
     4
 74
     0
 42
0.0000000001
 43
0.0000000001
 40
0.0
 40
0.0
 40
0.0
 40
0.0
 40
1.0
 40
1.0
 40
1.0
 40
1.0
 10
-23.9299
 20
23.3455
 30
0.0
 10
-23.9299
 20
23.3455
 30
0.0
 10
-5.5971
 20
23.3455
 30
0.0
 10
-5.5971
 20
23.3455
 30
0.0
  0
SPLINE
  5
60
330
1F
100
AcDbEntity
  8
Standard layer
 62
   250
370
    30
100
AcDbSpline
210
0.0
220
0.0
230
1.0
 70
     8
 71
     3
 72
    12
 73
     8
 74
     0
 42
0.0000000001
 43
0.0000000001
 40
0.0
 40
0.0
 40
0.0
 40
0.0
 40
0.3333333333333333
 40
0.3333333333333333
 40
0.3333333333333333
 40
0.3333333333333333
 40
1.0
 40
1.0
 40
1.0
 40
1.0
 10
-5.3464
 20
23.3455
 30
0.0
 10
-5.3464
 20
23.3455
 30
0.0
 10
-5.3608
 20
24.1805
 30
0.0
 10
-5.3608
 20
24.1805
 30
0.0
 10
-5.3608
 20
24.1805
 30
0.0
 10
-5.3608
 20
24.1805
 30
0.0
 10
-5.3699
 20
24.6966
 30
0.0
 10
-5.3699
 20
24.6966
 30
0.0
  0
SPLINE
  5
61
330
1F
100
AcDbEntity
  8
Standard layer
 62
   250
370
    30
100
AcDbSpline
210
0.0
220
0.0
230
1.0
 70
     8
 71
     3
 72
    12
 73
     8
 74
     0
 42
0.0000000001
 43
0.0000000001
 40
0.0
 40
0.0
 40
0.0
 40
0.0
 40
0.3333333333333333
 40
0.3333333333333333
 40
0.3333333333333333
 40
0.3333333333333333
 40
1.0
 40
1.0
 40
1.0
 40
1.0
 10
-5.3699
 20
24.6966
 30
0.0
 10
-5.3798
 20
25.2588
 30
0.0
 10
-5.2532
 20
26.0199
 30
0.0
 10
-5.8989
 20
26.2882
 30
0.0
 10
-5.8989
 20
26.2882
 30
0.0
 10
-6.0009
 20
26.3304
 30
0.0
 10
-6.1107
 20
26.3521
 30
0.0
 10
-6.2207
 20
26.3521
 30
0.0
  0
SPLINE
  5
62
330
1F
100
AcDbEntity
  8
Standard layer
 62
   250
370
    30
100
AcDbSpline
210
0.0
220
0.0
230
1.0
 70
    24
 71
     3
 72
    16
 73
    12
 74
     0
 42
0.0000000001
 43
0.0000000001
 40
0.0
 40
0.0
 40
0.0
 40
0.0
 40
0.25
 40
0.25
 40
0.25
 40
0.25
 40
0.5
 40
0.5
 40
0.5
 40
0.5
 40
1.0
 40
1.0
 40
1.0
 40
1.0
 10
-6.2207
 20
26.3521
 30
0.0
 10
-6.2207
 20
26.3521
 30
0.0
 10
-7.0559
 20
26.3521
 30
0.0
 10
-7.0559
 20
26.3521
 30
0.0
 10
-7.0559
 20
26.3521
 30
0.0
 10
-7.0559
 20
26.3521
 30
0.0
 10
-22.2204
 20
26.3521
 30
0.0
 10
-22.2204
 20
26.3521
 30
0.0
 10
-22.2204
 20
26.3521
 30
0.0
 10
-22.2204
 20
26.3521
 30
0.0
 10
-23.0557
 20
26.3521
 30
0.0
 10
-23.0557
 20
26.3521
 30
0.0
  0
SPLINE
  5
63
330
1F
100
AcDbEntity
  8
Standard layer
 62
   250
370
    30
100
AcDbSpline
210
0.0
220
0.0
230
1.0
 70
     8
 71
     3
 72
    12
 73
     8
 74
     0
 42
0.0000000001
 43
0.0000000001
 40
0.0
 40
0.0
 40
0.0
 40
0.0
 40
0.3333333333333333
 40
0.3333333333333333
 40
0.3333333333333333
 40
0.3333333333333333
 40
1.0
 40
1.0
 40
1.0
 40
1.0
 10
-23.0557
 20
26.3521
 30
0.0
 10
-23.167
 20
26.3493
 30
0.0
 10
-23.2742
 20
26.331
 30
0.0
 10
-23.3775
 20
26.2882
 30
0.0
 10
-23.3775
 20
26.2882
 30
0.0
 10
-24.0226
 20
26.02
 30
0.0
 10
-23.8967
 20
25.2608
 30
0.0
 10
-23.9065
 20
24.6988
 30
0.0
  0
SPLINE
  5
64
330
1F
100
AcDbEntity
  8
Standard layer
 62
   250
370
    30
100
AcDbSpline
210
0.0
220
0.0
230
1.0
 70
     8
 71
     3
 72
    12
 73
     8
 74
     0
 42
0.0000000001
 43
0.0000000001
 40
0.0
 40
0.0
 40
0.0
 40
0.0
 40
0.3333333333333333
 40
0.3333333333333333
 40
0.3333333333333333
 40
0.3333333333333333
 40
1.0
 40
1.0
 40
1.0
 40
1.0
 10
-23.9065
 20
24.6988
 30
0.0
 10
-23.9065
 20
24.6988
 30
0.0
 10
-23.9157
 20
24.1805
 30
0.0
 10
-23.9157
 20
24.1805
 30
0.0
 10
-23.9157
 20
24.1805
 30
0.0
 10
-23.9157
 20
24.1805
 30
0.0
 10
-23.9299
 20
23.3455
 30
0.0
 10
-23.9299
 20
23.3455
 30
0.0
  0
SPLINE
  5
65
330
1F
100
AcDbEntity
  8
Standard layer
 62
   250
370
    30
100
AcDbSpline
210
0.0
220
0.0
230
1.0
 70
     8
 71
     3
 72
    12
 73
     8
 74
     0
 42
0.0000000001
 43
0.0000000001
 40
0.0
 40
0.0
 40
0.0
 40
0.0
 40
0.3333333333333333
 40
0.3333333333333333
 40
0.3333333333333333
 40
0.3333333333333333
 40
1.0
 40
1.0
 40
1.0
 40
1.0
 10
-15.4632
 20
23.3072
 30
0.0
 10
-15.2081
 20
23.2793
 30
0.0
 10
-14.8547
 20
23.3036
 30
0.0
 10
-14.6381
 20
23.3036
 30
0.0
 10
-14.6381
 20
23.3036
 30
0.0
 10
-14.0053
 20
23.3036
 30
0.0
 10
-13.3771
 20
23.3037
 30
0.0
 10
-12.7435
 20
23.3037
 30
0.0
  0
SPLINE
  5
66
330
1F
100
AcDbEntity
  8
Standard layer
 62
   250
370
    30
100
AcDbSpline
210
0.0
220
0.0
230
1.0
 70
     8
 71
     3
 72
    12
 73
     8
 74
     0
 42
0.0000000001
 43
0.0000000001
 40
0.0
 40
0.0
 40
0.0
 40
0.0
 40
0.3333333333333333
 40
0.3333333333333333
 40
0.3333333333333333
 40
0.3333333333333333
 40
1.0
 40
1.0
 40
1.0
 40
1.0
 10
-12.7435
 20
23.3037
 30
0.0
 10
-12.7435
 20
23.3037
 30
0.0
 10
-6.4947
 20
23.3036
 30
0.0
 10
-6.4947
 20
23.3036
 30
0.0
 10
-6.4947
 20
23.3036
 30
0.0
 10
-6.4947
 20
23.3036
 30
0.0
 10
-5.6597
 20
23.3036
 30
0.0
 10
-5.6597
 20
23.3036
 30
0.0
  0
SPLINE
  5
67
330
1F
100
AcDbEntity
  8
Standard layer
 62
   250
370
    30
100
AcDbSpline
210
0.0
220
0.0
230
1.0
 70
     8
 71
     3
 72
    32
 73
    28
 74
     0
 42
0.0000000001
 43
0.0000000001
 40
0.0
 40
0.0
 40
0.0
 40
0.0
 40
0.125
 40
0.125
 40
0.125
 40
0.125
 40
0.25
 40
0.25
 40
0.25
 40
0.25
 40
0.375
 40
0.375
 40
0.375
 40
0.375
 40
0.5
 40
0.5
 40
0.5
 40
0.5
 40
0.625
 40
0.625
 40
0.625
 40
0.625
 40
0.75
 40
0.75
 40
0.75
 40
0.75
 40
1.0
 40
1.0
 40
1.0
 40
1.0
 10
-15.4631
 20
23.3001
 30
0.0
 10
-15.4631
 20
23.3001
 30
0.0
 10
-15.4775
 20
23.2997
 30
0.0
 10
-15.4775
 20
23.2997
 30
0.0
 10
-15.4775
 20
23.2997
 30
0.0
 10
-15.4775
 20
23.2997
 30
0.0
 10
-15.5886
 20
23.3023
 30
0.0
 10
-15.5886
 20
23.3023
 30
0.0
 10
-15.5886
 20
23.3023
 30
0.0
 10
-15.5886
 20
23.3023
 30
0.0
 10
-15.6593
 20
23.3008
 30
0.0
 10
-15.6593
 20
23.3008
 30
0.0
 10
-15.6593
 20
23.3008
 30
0.0
 10
-15.6593
 20
23.3008
 30
0.0
 10
-15.6963
 20
23.3036
 30
0.0
 10
-15.6963
 20
23.3036
 30
0.0
 10
-15.6963
 20
23.3036
 30
0.0
 10
-15.6963
 20
23.3036
 30
0.0
 10
-16.5315
 20
23.3036
 30
0.0
 10
-16.5315
 20
23.3036
 30
0.0
 10
-16.5315
 20
23.3036
 30
0.0
 10
-16.5315
 20
23.3036
 30
0.0
 10
-22.7817
 20
23.3036
 30
0.0
 10
-22.7817
 20
23.3036
 30
0.0
 10
-22.7817
 20
23.3036
 30
0.0
 10
-22.7817
 20
23.3036
 30
0.0
 10
-23.6169
 20
23.3036
 30
0.0
 10
-23.6169
 20
23.3036
 30
0.0
  0
SPLINE
  5
68
330
1F
100
AcDbEntity
  8
Standard layer
 62
   250
370
    30
100
AcDbSpline
210
0.0
220
0.0
230
1.0
 70
    24
 71
     3
 72
     8
 73
     4
 74
     0
 42
0.0000000001
 43
0.0000000001
 40
0.0
 40
0.0
 40
0.0
 40
0.0
 40
1.0
 40
1.0
 40
1.0
 40
1.0
 10
-8.3028
 20
21.2991
 30
0.0
 10
-8.3028
 20
21.2991
 30
0.0
 10
-8.3028
 20
23.3036
 30
0.0
 10
-8.3028
 20
23.3036
 30
0.0
  0
SPLINE
  5
69
330
1F
100
AcDbEntity
  8
Standard layer
 62
   250
370
    30
100
AcDbSpline
210
0.0
220
0.0
230
1.0
 70
    24
 71
     3
 72
     8
 73
     4
 74
     0
 42
0.0000000001
 43
0.0000000001
 40
0.0
 40
0.0
 40
0.0
 40
0.0
 40
1.0
 40
1.0
 40
1.0
 40
1.0
 10
-10.7957
 20
23.3036
 30
0.0
 10
-10.7957
 20
23.3036
 30
0.0
 10
-10.7957
 20
21.2991
 30
0.0
 10
-10.7957
 20
21.2991
 30
0.0
  0
SPLINE
  5
6A
330
1F
100
AcDbEntity
  8
Standard layer
 62
   250
370
    30
100
AcDbSpline
210
0.0
220
0.0
230
1.0
 70
    24
 71
     3
 72
     8
 73
     4
 74
     0
 42
0.0000000001
 43
0.0000000001
 40
0.0
 40
0.0
 40
0.0
 40
0.0
 40
1.0
 40
1.0
 40
1.0
 40
1.0
 10
-14.6128
 20
3.8481
 30
0.0
 10
-14.6128
 20
3.8481
 30
0.0
 10
-14.7262
 20
10.3448
 30
0.0
 10
-14.7262
 20
10.3448
 30
0.0
  0
SPLINE
  5
6B
330
1F
100
AcDbEntity
  8
Standard layer
 62
   250
370
    30
100
AcDbSpline
210
0.0
220
0.0
230
1.0
 70
    24
 71
     3
 72
     8
 73
     4
 74
     0
 42
0.0000000001
 43
0.0000000001
 40
0.0
 40
0.0
 40
0.0
 40
0.0
 40
1.0
 40
1.0
 40
1.0
 40
1.0
 10
-14.7262
 20
10.3448
 30
0.0
 10
-14.7262
 20
10.3448
 30
0.0
 10
-4.2711
 20
10.3448
 30
0.0
 10
-4.2711
 20
10.3448
 30
0.0
  0
SPLINE
  5
6C
330
1F
100
AcDbEntity
  8
Standard layer
 62
   250
370
    30
100
AcDbSpline
210
0.0
220
0.0
230
1.0
 70
    24
 71
     3
 72
     8
 73
     4
 74
     0
 42
0.0000000001
 43
0.0000000001
 40
0.0
 40
0.0
 40
0.0
 40
0.0
 40
1.0
 40
1.0
 40
1.0
 40
1.0
 10
-4.3844
 20
3.8481
 30
0.0
 10
-4.3844
 20
3.8481
 30
0.0
 10
-4.2711
 20
10.3448
 30
0.0
 10
-4.2711
 20
10.3448
 30
0.0
  0
SPLINE
  5
6D
330
1F
100
AcDbEntity
  8
Standard layer
 62
   250
370
    30
100
AcDbSpline
210
0.0
220
0.0
230
1.0
 70
    24
 71
     3
 72
     8
 73
     4
 74
     0
 42
0.0000000001
 43
0.0000000001
 40
0.0
 40
0.0
 40
0.0
 40
0.0
 40
1.0
 40
1.0
 40
1.0
 40
1.0
 10
-7.5092
 20
3.026
 30
0.0
 10
-7.5092
 20
3.026
 30
0.0
 10
-11.5367
 20
3.0263
 30
0.0
 10
-11.5367
 20
3.0263
 30
0.0
  0
SPLINE
  5
6E
330
1F
100
AcDbEntity
  8
Standard layer
 62
   250
370
    30
100
AcDbSpline
210
0.0
220
0.0
230
1.0
 70
    24
 71
     3
 72
     8
 73
     4
 74
     0
 42
0.0000000001
 43
0.0000000001
 40
0.0
 40
0.0
 40
0.0
 40
0.0
 40
1.0
 40
1.0
 40
1.0
 40
1.0
 10
-11.5397
 20
3.026
 30
0.0
 10
-11.5397
 20
3.026
 30
0.0
 10
-12.0867
 20
3.026
 30
0.0
 10
-12.0867
 20
3.026
 30
0.0
  0
SPLINE
  5
6F
330
1F
100
AcDbEntity
  8
Standard layer
 62
   250
370
    30
100
AcDbSpline
210
0.0
220
0.0
230
1.0
 70
    24
 71
     3
 72
     8
 73
     4
 74
     0
 42
0.0000000001
 43
0.0000000001
 40
0.0
 40
0.0
 40
0.0
 40
0.0
 40
1.0
 40
1.0
 40
1.0
 40
1.0
 10
-7.6825
 20
3.026
 30
0.0
 10
-7.6825
 20
3.026
 30
0.0
 10
-7.5086
 20
3.026
 30
0.0
 10
-7.5086
 20
3.026
 30
0.0
  0
SPLINE
  5
70
330
1F
100
AcDbEntity
  8
Standard layer
 62
   250
370
    30
100
AcDbSpline
210
0.0
220
0.0
230
1.0
 70
     8
 71
     3
 72
    16
 73
    12
 74
     0
 42
0.0000000001
 43
0.0000000001
 40
0.0
 40
0.0
 40
0.0
 40
0.0
 40
0.25
 40
0.25
 40
0.25
 40
0.25
 40
0.5
 40
0.5
 40
0.5
 40
0.5
 40
1.0
 40
1.0
 40
1.0
 40
1.0
 10
-14.6059
 20
3.8481
 30
0.0
 10
-14.6059
 20
3.8481
 30
0.0
 10
-14.6194
 20
4.6843
 30
0.0
 10
-14.6194
 20
4.6843
 30
0.0
 10
-14.6194
 20
4.6843
 30
0.0
 10
-14.6194
 20
4.6843
 30
0.0
 10
-14.6711
 20
7.8431
 30
0.0
 10
-14.6711
 20
7.8431
 30
0.0
 10
-14.6711
 20
7.8431
 30
0.0
 10
-14.6711
 20
7.8431
 30
0.0
 10
-14.6848
 20
8.6793
 30
0.0
 10
-14.6848
 20
8.6793
 30
0.0
  0
SPLINE
  5
71
330
1F
100
AcDbEntity
  8
Standard layer
 62
   250
370
    30
100
AcDbSpline
210
0.0
220
0.0
230
1.0
 70
     8
 71
     3
 72
    12
 73
     8
 74
     0
 42
0.0000000001
 43
0.0000000001
 40
0.0
 40
0.0
 40
0.0
 40
0.0
 40
0.3333333333333333
 40
0.3333333333333333
 40
0.3333333333333333
 40
0.3333333333333333
 40
1.0
 40
1.0
 40
1.0
 40
1.0
 10
-14.6848
 20
8.6793
 30
0.0
 10
-14.6875
 20
8.841
 30
0.0
 10
-14.691
 20
9.0063
 30
0.0
 10
-14.6672
 20
9.1666
 30
0.0
 10
-14.6672
 20
9.1666
 30
0.0
 10
-14.6622
 20
9.1993
 30
0.0
 10
-14.6521
 20
9.2917
 30
0.0
 10
-14.6026
 20
9.2919
 30
0.0
  0
SPLINE
  5
72
330
1F
100
AcDbEntity
  8
Standard layer
 62
   250
370
    30
100
AcDbSpline
210
0.0
220
0.0
230
1.0
 70
     8
 71
     3
 72
    32
 73
    28
 74
     0
 42
0.0000000001
 43
0.0000000001
 40
0.0
 40
0.0
 40
0.0
 40
0.0
 40
0.125
 40
0.125
 40
0.125
 40
0.125
 40
0.25
 40
0.25
 40
0.25
 40
0.25
 40
0.375
 40
0.375
 40
0.375
 40
0.375
 40
0.5
 40
0.5
 40
0.5
 40
0.5
 40
0.625
 40
0.625
 40
0.625
 40
0.625
 40
0.75
 40
0.75
 40
0.75
 40
0.75
 40
1.0
 40
1.0
 40
1.0
 40
1.0
 10
-14.6026
 20
9.2919
 30
0.0
 10
-14.6026
 20
9.2919
 30
0.0
 10
-13.7664
 20
9.2911
 30
0.0
 10
-13.7664
 20
9.2911
 30
0.0
 10
-13.7664
 20
9.2911
 30
0.0
 10
-13.7664
 20
9.2911
 30
0.0
 10
-10.3352
 20
9.2883
 30
0.0
 10
-10.3352
 20
9.2883
 30
0.0
 10
-10.3352
 20
9.2883
 30
0.0
 10
-10.3352
 20
9.2883
 30
0.0
 10
-8.6887
 20
9.2922
 30
0.0
 10
-8.6887
 20
9.2922
 30
0.0
 10
-8.6887
 20
9.2922
 30
0.0
 10
-8.6887
 20
9.2922
 30
0.0
 10
-7.8523
 20
9.2922
 30
0.0
 10
-7.8523
 20
9.2922
 30
0.0
 10
-7.8523
 20
9.2922
 30
0.0
 10
-7.8523
 20
9.2922
 30
0.0
 10
-5.2311
 20
9.2919
 30
0.0
 10
-5.2311
 20
9.2919
 30
0.0
 10
-5.2311
 20
9.2919
 30
0.0
 10
-5.2311
 20
9.2919
 30
0.0
 10
-4.3946
 20
9.2919
 30
0.0
 10
-4.3946
 20
9.2919
 30
0.0
 10
-4.3946
 20
9.2919
 30
0.0
 10
-4.3946
 20
9.2919
 30
0.0
 10
-4.369
 20
9.2798
 30
0.0
 10
-4.369
 20
9.2798
 30
0.0
  0
SPLINE
  5
73
330
1F
100
AcDbEntity
  8
Standard layer
 62
   250
370
    30
100
AcDbSpline
210
0.0
220
0.0
230
1.0
 70
     8
 71
     3
 72
     8
 73
     4
 74
     0
 42
0.0000000001
 43
0.0000000001
 40
0.0
 40
0.0
 40
0.0
 40
0.0
 40
1.0
 40
1.0
 40
1.0
 40
1.0
 10
-4.369
 20
9.2798
 30
0.0
 10
-4.264
 20
9.1411
 30
0.0
 10
-4.3102
 20
8.8322
 30
0.0
 10
-4.3127
 20
8.673
 30
0.0
  0
SPLINE
  5
74
330
1F
100
AcDbEntity
  8
Standard layer
 62
   250
370
    30
100
AcDbSpline
210
0.0
220
0.0
230
1.0
 70
     8
 71
     3
 72
    16
 73
    12
 74
     0
 42
0.0000000001
 43
0.0000000001
 40
0.0
 40
0.0
 40
0.0
 40
0.0
 40
0.25
 40
0.25
 40
0.25
 40
0.25
 40
0.5
 40
0.5
 40
0.5
 40
0.5
 40
1.0
 40
1.0
 40
1.0
 40
1.0
 10
-4.3127
 20
8.673
 30
0.0
 10
-4.3127
 20
8.673
 30
0.0
 10
-4.3263
 20
7.8368
 30
0.0
 10
-4.3263
 20
7.8368
 30
0.0
 10
-4.3263
 20
7.8368
 30
0.0
 10
-4.3263
 20
7.8368
 30
0.0
 10
-4.3777
 20
4.6843
 30
0.0
 10
-4.3777
 20
4.6843
 30
0.0
 10
-4.3777
 20
4.6843
 30
0.0
 10
-4.3777
 20
4.6843
 30
0.0
 10
-4.3915
 20
3.8481
 30
0.0
 10
-4.3915
 20
3.8481
 30
0.0
  0
SPLINE
  5
75
330
1F
100
AcDbEntity
  8
Standard layer
 62
   250
370
    30
100
AcDbSpline
210
0.0
220
0.0
230
1.0
 70
     8
 71
     3
 72
    12
 73
     8
 74
     0
 42
0.0000000001
 43
0.0000000001
 40
0.0
 40
0.0
 40
0.0
 40
0.0
 40
0.3333333333333333
 40
0.3333333333333333
 40
0.3333333333333333
 40
0.3333333333333333
 40
1.0
 40
1.0
 40
1.0
 40
1.0
 10
-4.3128
 20
8.673
 30
0.0
 10
-4.3128
 20
8.673
 30
0.0
 10
-4.3652
 20
8.6733
 30
0.0
 10
-4.3652
 20
8.6733
 30
0.0
 10
-4.3652
 20
8.6733
 30
0.0
 10
-4.3652
 20
8.6733
 30
0.0
 10
-4.5213
 20
8.6712
 30
0.0
 10
-4.5213
 20
8.6712
 30
0.0
  0
SPLINE
  5
76
330
1F
100
AcDbEntity
  8
Standard layer
 62
   250
370
    30
100
AcDbSpline
210
0.0
220
0.0
230
1.0
 70
     8
 71
     3
 72
     8
 73
     4
 74
     0
 42
0.0000000001
 43
0.0000000001
 40
0.0
 40
0.0
 40
0.0
 40
0.0
 40
1.0
 40
1.0
 40
1.0
 40
1.0
 10
-4.5213
 20
8.6712
 30
0.0
 10
-5.0178
 20
8.6719
 30
0.0
 10
-5.5143
 20
8.6737
 30
0.0
 10
-6.011
 20
8.6744
 30
0.0
  0
SPLINE
  5
77
330
1F
100
AcDbEntity
  8
Standard layer
 62
   250
370
    30
100
AcDbSpline
210
0.0
220
0.0
230
1.0
 70
     8
 71
     3
 72
    16
 73
    12
 74
     0
 42
0.0000000001
 43
0.0000000001
 40
0.0
 40
0.0
 40
0.0
 40
0.0
 40
0.25
 40
0.25
 40
0.25
 40
0.25
 40
0.5
 40
0.5
 40
0.5
 40
0.5
 40
1.0
 40
1.0
 40
1.0
 40
1.0
 10
-6.011
 20
8.6744
 30
0.0
 10
-6.011
 20
8.6744
 30
0.0
 10
-6.8473
 20
8.6755
 30
0.0
 10
-6.8473
 20
8.6755
 30
0.0
 10
-6.8473
 20
8.6755
 30
0.0
 10
-6.8473
 20
8.6755
 30
0.0
 10
-6.8739
 20
8.6803
 30
0.0
 10
-6.8739
 20
8.6803
 30
0.0
 10
-6.8739
 20
8.6803
 30
0.0
 10
-6.8739
 20
8.6803
 30
0.0
 10
-6.8863
 20
8.68
 30
0.0
 10
-6.8863
 20
8.68
 30
0.0
  0
SPLINE
  5
78
330
1F
100
AcDbEntity
  8
Standard layer
 62
   250
370
    30
100
AcDbSpline
210
0.0
220
0.0
230
1.0
 70
     8
 71
     3
 72
    16
 73
    12
 74
     0
 42
0.0000000001
 43
0.0000000001
 40
0.0
 40
0.0
 40
0.0
 40
0.0
 40
0.25
 40
0.25
 40
0.25
 40
0.25
 40
0.5
 40
0.5
 40
0.5
 40
0.5
 40
1.0
 40
1.0
 40
1.0
 40
1.0
 10
-14.6848
 20
8.6793
 30
0.0
 10
-14.6848
 20
8.6793
 30
0.0
 10
-14.6296
 20
8.6733
 30
0.0
 10
-14.6296
 20
8.6733
 30
0.0
 10
-14.6296
 20
8.6733
 30
0.0
 10
-14.6296
 20
8.6733
 30
0.0
 10
-14.4659
 20
8.6755
 30
0.0
 10
-14.4659
 20
8.6755
 30
0.0
 10
-14.4659
 20
8.6755
 30
0.0
 10
-14.4659
 20
8.6755
 30
0.0
 10
-13.6293
 20
8.6768
 30
0.0
 10
-13.6293
 20
8.6768
 30
0.0
  0
SPLINE
  5
79
330
1F
100
AcDbEntity
  8
Standard layer
 62
   250
370
    30
100
AcDbSpline
210
0.0
220
0.0
230
1.0
 70
     8
 71
     3
 72
    12
 73
     8
 74
     0
 42
0.0000000001
 43
0.0000000001
 40
0.0
 40
0.0
 40
0.0
 40
0.0
 40
0.3333333333333333
 40
0.3333333333333333
 40
0.3333333333333333
 40
0.3333333333333333
 40
1.0
 40
1.0
 40
1.0
 40
1.0
 10
-13.6293
 20
8.6768
 30
0.0
 10
-13.0814
 20
8.6775
 30
0.0
 10
-12.5332
 20
8.6772
 30
0.0
 10
-11.9849
 20
8.6808
 30
0.0
 10
-11.9849
 20
8.6808
 30
0.0
 10
-10.2446
 20
8.6917
 30
0.0
 10
-8.4996
 20
8.674
 30
0.0
 10
-6.7575
 20
8.6758
 30
0.0
  0
SPLINE
  5
7A
330
1F
100
AcDbEntity
  8
Standard layer
 62
   250
370
    30
100
AcDbSpline
210
0.0
220
0.0
230
1.0
 70
     8
 71
     3
 72
     8
 73
     4
 74
     0
 42
0.0000000001
 43
0.0000000001
 40
0.0
 40
0.0
 40
0.0
 40
0.0
 40
1.0
 40
1.0
 40
1.0
 40
1.0
 10
-6.8497
 20
8.6827
 30
0.0
 10
-6.8984
 20
6.799
 30
0.0
 10
-6.8457
 20
4.9096
 30
0.0
 10
-6.9164
 20
3.026
 30
0.0
  0
SPLINE
  5
7B
330
1F
100
AcDbEntity
  8
Standard layer
 62
   250
370
    30
100
AcDbSpline
210
0.0
220
0.0
230
1.0
 70
     8
 71
     3
 72
    24
 73
    20
 74
     0
 42
0.0000000001
 43
0.0000000001
 40
0.0
 40
0.0
 40
0.0
 40
0.0
 40
0.1666666666666667
 40
0.1666666666666667
 40
0.1666666666666667
 40
0.1666666666666667
 40
0.3333333333333333
 40
0.3333333333333333
 40
0.3333333333333333
 40
0.3333333333333333
 40
0.5
 40
0.5
 40
0.5
 40
0.5
 40
0.6666666666666666
 40
0.6666666666666666
 40
0.6666666666666666
 40
0.6666666666666666
 40
1.0
 40
1.0
 40
1.0
 40
1.0
 10
-12.1426
 20
8.7485
 30
0.0
 10
-12.1426
 20
8.7485
 30
0.0
 10
-12.1466
 20
8.6793
 30
0.0
 10
-12.1466
 20
8.6793
 30
0.0
 10
-12.1466
 20
8.6793
 30
0.0
 10
-12.1466
 20
8.6793
 30
0.0
 10
-12.1429
 20
8.258
 30
0.0
 10
-12.1429
 20
8.258
 30
0.0
 10
-12.1429
 20
8.258
 30
0.0
 10
-12.1429
 20
8.258
 30
0.0
 10
-12.1395
 20
7.8371
 30
0.0
 10
-12.1395
 20
7.8371
 30
0.0
 10
-12.1395
 20
7.8371
 30
0.0
 10
-12.1395
 20
7.8371
 30
0.0
 10
-12.1286
 20
7.0005
 30
0.0
 10
-12.1286
 20
7.0005
 30
0.0
 10
-12.1286
 20
7.0005
 30
0.0
 10
-12.1286
 20
7.0005
 30
0.0
 10
-12.0935
 20
4.2733
 30
0.0
 10
-12.0935
 20
4.2733
 30
0.0
  0
SPLINE
  5
7C
330
1F
100
AcDbEntity
  8
Standard layer
 62
   250
370
    30
100
AcDbSpline
210
0.0
220
0.0
230
1.0
 70
     8
 71
     3
 72
     8
 73
     4
 74
     0
 42
0.0000000001
 43
0.0000000001
 40
0.0
 40
0.0
 40
0.0
 40
0.0
 40
1.0
 40
1.0
 40
1.0
 40
1.0
 10
-12.0935
 20
4.2733
 30
0.0
 10
-12.0886
 20
3.8845
 30
0.0
 10
-12.0571
 20
3.4313
 30
0.0
 10
-12.0867
 20
3.026
 30
0.0
  0
SPLINE
  5
7D
330
1F
100
AcDbEntity
  8
Standard layer
 62
   250
370
    30
100
AcDbSpline
210
0.0
220
0.0
230
1.0
 70
     8
 71
     3
 72
    12
 73
     8
 74
     0
 42
0.0000000001
 43
0.0000000001
 40
0.0
 40
0.0
 40
0.0
 40
0.0
 40
0.3333333333333333
 40
0.3333333333333333
 40
0.3333333333333333
 40
0.3333333333333333
 40
1.0
 40
1.0
 40
1.0
 40
1.0
 10
-11.5835
 20
3.0263
 30
0.0
 10
-11.5835
 20
3.0263
 30
0.0
 10
-12.4197
 20
3.0263
 30
0.0
 10
-12.4197
 20
3.0263
 30
0.0
 10
-12.4197
 20
3.0263
 30
0.0
 10
-12.4197
 20
3.0263
 30
0.0
 10
-12.9336
 20
3.026
 30
0.0
 10
-12.9336
 20
3.026
 30
0.0
  0
SPLINE
  5
7E
330
1F
100
AcDbEntity
  8
Standard layer
 62
   250
370
    30
100
AcDbSpline
210
0.0
220
0.0
230
1.0
 70
     8
 71
     3
 72
    16
 73
    12
 74
     0
 42
0.0000000001
 43
0.0000000001
 40
0.0
 40
0.0
 40
0.0
 40
0.0
 40
0.25
 40
0.25
 40
0.25
 40
0.25
 40
0.5
 40
0.5
 40
0.5
 40
0.5
 40
1.0
 40
1.0
 40
1.0
 40
1.0
 10
-12.9336
 20
3.026
 30
0.0
 10
-13.4231
 20
3.026
 30
0.0
 10
-14.1003
 20
2.8904
 30
0.0
 10
-14.4417
 20
3.3643
 30
0.0
 10
-14.4417
 20
3.3643
 30
0.0
 10
-14.4918
 20
3.4338
 30
0.0
 10
-14.5253
 20
3.5033
 30
0.0
 10
-14.5579
 20
3.5824
 30
0.0
 10
-14.5579
 20
3.5824
 30
0.0
 10
-14.5925
 20
3.6668
 30
0.0
 10
-14.6
 20
3.7584
 30
0.0
 10
-14.6059
 20
3.8481
 30
0.0
  0
SPLINE
  5
7F
330
1F
100
AcDbEntity
  8
Standard layer
 62
   250
370
    30
100
AcDbSpline
210
0.0
220
0.0
230
1.0
 70
     8
 71
     3
 72
    16
 73
    12
 74
     0
 42
0.0000000001
 43
0.0000000001
 40
0.0
 40
0.0
 40
0.0
 40
0.0
 40
0.25
 40
0.25
 40
0.25
 40
0.25
 40
0.5
 40
0.5
 40
0.5
 40
0.5
 40
1.0
 40
1.0
 40
1.0
 40
1.0
 10
-4.3915
 20
3.8481
 30
0.0
 10
-4.3974
 20
3.7584
 30
0.0
 10
-4.4049
 20
3.6665
 30
0.0
 10
-4.4396
 20
3.5824
 30
0.0
 10
-4.4396
 20
3.5824
 30
0.0
 10
-4.4723
 20
3.503
 30
0.0
 10
-4.5061
 20
3.4335
 30
0.0
 10
-4.5563
 20
3.3636
 30
0.0
 10
-4.5563
 20
3.3636
 30
0.0
 10
-4.8967
 20
2.8909
 30
0.0
 10
-5.5732
 20
3.026
 30
0.0
 10
-6.0611
 20
3.026
 30
0.0
  0
SPLINE
  5
80
330
1F
100
AcDbEntity
  8
Standard layer
 62
   250
370
    30
100
AcDbSpline
210
0.0
220
0.0
230
1.0
 70
    24
 71
     3
 72
    12
 73
     8
 74
     0
 42
0.0000000001
 43
0.0000000001
 40
0.0
 40
0.0
 40
0.0
 40
0.0
 40
0.3333333333333333
 40
0.3333333333333333
 40
0.3333333333333333
 40
0.3333333333333333
 40
1.0
 40
1.0
 40
1.0
 40
1.0
 10
-6.0611
 20
3.026
 30
0.0
 10
-6.0611
 20
3.026
 30
0.0
 10
-6.6213
 20
3.026
 30
0.0
 10
-6.6213
 20
3.026
 30
0.0
 10
-6.6213
 20
3.026
 30
0.0
 10
-6.6213
 20
3.026
 30
0.0
 10
-7.4578
 20
3.026
 30
0.0
 10
-7.4578
 20
3.026
 30
0.0
  0
SPLINE
  5
81
330
1F
100
AcDbEntity
  8
Standard layer
 62
   250
370
    15
100
AcDbSpline
210
0.0
220
0.0
230
1.0
 70
    24
 71
     3
 72
     8
 73
     4
 74
     0
 42
0.0000000001
 43
0.0000000001
 40
0.0
 40
0.0
 40
0.0
 40
0.0
 40
1.0
 40
1.0
 40
1.0
 40
1.0
 10
-10.6482
 20
-4.083
 30
0.0
 10
-10.6482
 20
-4.083
 30
0.0
 10
-8.3505
 20
-3.9211
 30
0.0
 10
-8.3505
 20
-3.9211
 30
0.0
  0
SPLINE
  5
82
330
1F
100
AcDbEntity
  8
Standard layer
 62
   250
370
    15
100
AcDbSpline
210
0.0
220
0.0
230
1.0
 70
    24
 71
     3
 72
     8
 73
     4
 74
     0
 42
0.0000000001
 43
0.0000000001
 40
0.0
 40
0.0
 40
0.0
 40
0.0
 40
1.0
 40
1.0
 40
1.0
 40
1.0
 10
-10.623
 20
-0.4829
 30
0.0
 10
-10.623
 20
-0.4829
 30
0.0
 10
-8.3253
 20
-0.321
 30
0.0
 10
-8.3253
 20
-0.321
 30
0.0
  0
SPLINE
  5
83
330
1F
100
AcDbEntity
  8
Standard layer
 62
   250
370
    15
100
AcDbSpline
210
0.0
220
0.0
230
1.0
 70
    24
 71
     3
 72
     8
 73
     4
 74
     0
 42
0.0000000001
 43
0.0000000001
 40
0.0
 40
0.0
 40
0.0
 40
0.0
 40
1.0
 40
1.0
 40
1.0
 40
1.0
 10
-10.6603
 20
-3.515
 30
0.0
 10
-10.6603
 20
-3.515
 30
0.0
 10
-8.3626
 20
-3.3531
 30
0.0
 10
-8.3626
 20
-3.3531
 30
0.0
  0
SPLINE
  5
84
330
1F
100
AcDbEntity
  8
Standard layer
 62
   250
370
    15
100
AcDbSpline
210
0.0
220
0.0
230
1.0
 70
    24
 71
     3
 72
     8
 73
     4
 74
     0
 42
0.0000000001
 43
0.0000000001
 40
0.0
 40
0.0
 40
0.0
 40
0.0
 40
1.0
 40
1.0
 40
1.0
 40
1.0
 10
-10.6351
 20
0.0851
 30
0.0
 10
-10.6351
 20
0.0851
 30
0.0
 10
-8.3374
 20
0.247
 30
0.0
 10
-8.3374
 20
0.247
 30
0.0
  0
SPLINE
  5
85
330
1F
100
AcDbEntity
  8
Standard layer
 62
   250
370
    15
100
AcDbSpline
210
0.0
220
0.0
230
1.0
 70
    24
 71
     3
 72
     8
 73
     4
 74
     0
 42
0.0000000001
 43
0.0000000001
 40
0.0
 40
0.0
 40
0.0
 40
0.0
 40
1.0
 40
1.0
 40
1.0
 40
1.0
 10
-10.6011
 20
-2.8739
 30
0.0
 10
-10.6011
 20
-2.8739
 30
0.0
 10
-8.3034
 20
-2.712
 30
0.0
 10
-8.3034
 20
-2.712
 30
0.0
  0
SPLINE
  5
86
330
1F
100
AcDbEntity
  8
Standard layer
 62
   250
370
    15
100
AcDbSpline
210
0.0
220
0.0
230
1.0
 70
    24
 71
     3
 72
     8
 73
     4
 74
     0
 42
0.0000000001
 43
0.0000000001
 40
0.0
 40
0.0
 40
0.0
 40
0.0
 40
1.0
 40
1.0
 40
1.0
 40
1.0
 10
-10.6159
 20
0.7262
 30
0.0
 10
-10.6159
 20
0.7262
 30
0.0
 10
-8.3182
 20
0.8881
 30
0.0
 10
-8.3182
 20
0.8881
 30
0.0
  0
SPLINE
  5
87
330
1F
100
AcDbEntity
  8
Standard layer
 62
   250
370
    15
100
AcDbSpline
210
0.0
220
0.0
230
1.0
 70
    24
 71
     3
 72
     8
 73
     4
 74
     0
 42
0.0000000001
 43
0.0000000001
 40
0.0
 40
0.0
 40
0.0
 40
0.0
 40
1.0
 40
1.0
 40
1.0
 40
1.0
 10
-10.6236
 20
-2.2746
 30
0.0
 10
-10.6236
 20
-2.2746
 30
0.0
 10
-8.3259
 20
-2.1127
 30
0.0
 10
-8.3259
 20
-2.1127
 30
0.0
  0
SPLINE
  5
88
330
1F
100
AcDbEntity
  8
Standard layer
 62
   250
370
    15
100
AcDbSpline
210
0.0
220
0.0
230
1.0
 70
    24
 71
     3
 72
     8
 73
     4
 74
     0
 42
0.0000000001
 43
0.0000000001
 40
0.0
 40
0.0
 40
0.0
 40
0.0
 40
1.0
 40
1.0
 40
1.0
 40
1.0
 10
-10.6384
 20
1.3255
 30
0.0
 10
-10.6384
 20
1.3255
 30
0.0
 10
-8.3407
 20
1.4874
 30
0.0
 10
-8.3407
 20
1.4874
 30
0.0
  0
SPLINE
  5
89
330
1F
100
AcDbEntity
  8
Standard layer
 62
   250
370
    15
100
AcDbSpline
210
0.0
220
0.0
230
1.0
 70
    24
 71
     3
 72
     8
 73
     4
 74
     0
 42
0.0000000001
 43
0.0000000001
 40
0.0
 40
0.0
 40
0.0
 40
0.0
 40
1.0
 40
1.0
 40
1.0
 40
1.0
 10
-10.5997
 20
-5.2648
 30
0.0
 10
-10.5997
 20
-5.2648
 30
0.0
 10
-8.302
 20
-5.1029
 30
0.0
 10
-8.302
 20
-5.1029
 30
0.0
  0
SPLINE
  5
8A
330
1F
100
AcDbEntity
  8
Standard layer
 62
   250
370
    15
100
AcDbSpline
210
0.0
220
0.0
230
1.0
 70
    24
 71
     3
 72
     8
 73
     4
 74
     0
 42
0.0000000001
 43
0.0000000001
 40
0.0
 40
0.0
 40
0.0
 40
0.0
 40
1.0
 40
1.0
 40
1.0
 40
1.0
 10
-10.6045
 20
-1.6647
 30
0.0
 10
-10.6045
 20
-1.6647
 30
0.0
 10
-8.3068
 20
-1.5028
 30
0.0
 10
-8.3068
 20
-1.5028
 30
0.0
  0
SPLINE
  5
8B
330
1F
100
AcDbEntity
  8
Standard layer
 62
   250
370
    15
100
AcDbSpline
210
0.0
220
0.0
230
1.0
 70
    24
 71
     3
 72
     8
 73
     4
 74
     0
 42
0.0000000001
 43
0.0000000001
 40
0.0
 40
0.0
 40
0.0
 40
0.0
 40
1.0
 40
1.0
 40
1.0
 40
1.0
 10
-10.6193
 20
1.9354
 30
0.0
 10
-10.6193
 20
1.9354
 30
0.0
 10
-8.3216
 20
2.0973
 30
0.0
 10
-8.3216
 20
2.0973
 30
0.0
  0
SPLINE
  5
8C
330
1F
100
AcDbEntity
  8
Standard layer
 62
   250
370
    15
100
AcDbSpline
210
0.0
220
0.0
230
1.0
 70
    24
 71
     3
 72
     8
 73
     4
 74
     0
 42
0.0000000001
 43
0.0000000001
 40
0.0
 40
0.0
 40
0.0
 40
0.0
 40
1.0
 40
1.0
 40
1.0
 40
1.0
 10
-10.6117
 20
-4.6655
 30
0.0
 10
-10.6117
 20
-4.6655
 30
0.0
 10
-8.314
 20
-4.5036
 30
0.0
 10
-8.314
 20
-4.5036
 30
0.0
  0
SPLINE
  5
8D
330
1F
100
AcDbEntity
  8
Standard layer
 62
   250
370
    15
100
AcDbSpline
210
0.0
220
0.0
230
1.0
 70
    24
 71
     3
 72
     8
 73
     4
 74
     0
 42
0.0000000001
 43
0.0000000001
 40
0.0
 40
0.0
 40
0.0
 40
0.0
 40
1.0
 40
1.0
 40
1.0
 40
1.0
 10
-10.5865
 20
-1.0654
 30
0.0
 10
-10.5865
 20
-1.0654
 30
0.0
 10
-8.2888
 20
-0.9035
 30
0.0
 10
-8.2888
 20
-0.9035
 30
0.0
  0
SPLINE
  5
8E
330
1F
100
AcDbEntity
  8
Standard layer
 62
   250
370
    15
100
AcDbSpline
210
0.0
220
0.0
230
1.0
 70
    24
 71
     3
 72
     8
 73
     4
 74
     0
 42
0.0000000001
 43
0.0000000001
 40
0.0
 40
0.0
 40
0.0
 40
0.0
 40
1.0
 40
1.0
 40
1.0
 40
1.0
 10
-10.6313
 20
2.5347
 30
0.0
 10
-10.6313
 20
2.5347
 30
0.0
 10
-8.3336
 20
2.6966
 30
0.0
 10
-8.3336
 20
2.6966
 30
0.0
  0
SPLINE
  5
8F
330
1F
100
AcDbEntity
  8
Standard layer
 62
   250
370
    30
100
AcDbSpline
210
0.0
220
0.0
230
1.0
 70
    24
 71
     3
 72
     8
 73
     4
 74
     0
 42
0.0000000001
 43
0.0000000001
 40
0.0
 40
0.0
 40
0.0
 40
0.0
 40
1.0
 40
1.0
 40
1.0
 40
1.0
 10
-10.4362
 20
-6.0173
 30
0.0
 10
-10.4362
 20
-6.0173
 30
0.0
 10
-10.8006
 20
-5.6523
 30
0.0
 10
-10.8006
 20
-5.6523
 30
0.0
  0
SPLINE
  5
90
330
1F
100
AcDbEntity
  8
Standard layer
 62
   250
370
    30
100
AcDbSpline
210
0.0
220
0.0
230
1.0
 70
     8
 71
     3
 72
    12
 73
     8
 74
     0
 42
0.0000000001
 43
0.0000000001
 40
0.0
 40
0.0
 40
0.0
 40
0.0
 40
0.3333333333333333
 40
0.3333333333333333
 40
0.3333333333333333
 40
0.3333333333333333
 40
1.0
 40
1.0
 40
1.0
 40
1.0
 10
-10.3922
 20
-6.0462
 30
0.0
 10
-10.3922
 20
-6.0462
 30
0.0
 10
-8.5443
 20
-6.0173
 30
0.0
 10
-8.5443
 20
-6.0173
 30
0.0
 10
-8.5443
 20
-6.0173
 30
0.0
 10
-8.5443
 20
-6.0173
 30
0.0
 10
-8.3027
 20
-5.7822
 30
0.0
 10
-8.3027
 20
-5.7822
 30
0.0
  0
SPLINE
  5
91
330
1F
100
AcDbEntity
  8
Standard layer
 62
   250
370
    30
100
AcDbSpline
210
0.0
220
0.0
230
1.0
 70
    11
 71
     3
 72
    20
 73
    16
 74
     0
 42
0.0000000001
 43
0.0000000001
 40
0.0
 40
0.0
 40
0.0
 40
0.0
 40
0.2
 40
0.2
 40
0.2
 40
0.2
 40
0.4
 40
0.4
 40
0.4
 40
0.4
 40
0.6
 40
0.6
 40
0.6
 40
0.6
 40
1.0
 40
1.0
 40
1.0
 40
1.0
 10
-10.7952
 20
3.0265
 30
0.0
 10
-10.7952
 20
3.0265
 30
0.0
 10
-8.3022
 20
3.0265
 30
0.0
 10
-8.3022
 20
3.0265
 30
0.0
 10
-8.3022
 20
3.0265
 30
0.0
 10
-8.3022
 20
3.0265
 30
0.0
 10
-8.3022
 20
-5.6634
 30
0.0
 10
-8.3022
 20
-5.6634
 30
0.0
 10
-8.3022
 20
-5.6634
 30
0.0
 10
-8.3022
 20
-5.6634
 30
0.0
 10
-10.7952
 20
-5.6634
 30
0.0
 10
-10.7952
 20
-5.6634
 30
0.0
 10
-10.7952
 20
-5.6634
 30
0.0
 10
-10.7952
 20
-5.6634
 30
0.0
 10
-10.7952
 20
3.0265
 30
0.0
 10
-10.7952
 20
3.0265
 30
0.0
  0
SPLINE
  5
92
330
1F
100
AcDbEntity
  8
Standard layer
 62
   250
370
    30
100
AcDbSpline
210
0.0
220
0.0
230
1.0
 70
    11
 71
     3
 72
    20
 73
    16
 74
     0
 42
0.0000000001
 43
0.0000000001
 40
0.0
 40
0.0
 40
0.0
 40
0.0
 40
0.2
 40
0.2
 40
0.2
 40
0.2
 40
0.4
 40
0.4
 40
0.4
 40
0.4
 40
0.6
 40
0.6
 40
0.6
 40
0.6
 40
1.0
 40
1.0
 40
1.0
 40
1.0
 10
-14.7908
 20
16.9744
 30
0.0
 10
-14.7908
 20
16.9744
 30
0.0
 10
-4.2735
 20
16.9744
 30
0.0
 10
-4.2735
 20
16.9744
 30
0.0
 10
-4.2735
 20
16.9744
 30
0.0
 10
-4.2735
 20
16.9744
 30
0.0
 10
-4.2735
 20
16.1972
 30
0.0
 10
-4.2735
 20
16.1972
 30
0.0
 10
-4.2735
 20
16.1972
 30
0.0
 10
-4.2735
 20
16.1972
 30
0.0
 10
-14.7908
 20
16.1972
 30
0.0
 10
-14.7908
 20
16.1972
 30
0.0
 10
-14.7908
 20
16.1972
 30
0.0
 10
-14.7908
 20
16.1972
 30
0.0
 10
-14.7908
 20
16.9744
 30
0.0
 10
-14.7908
 20
16.9744
 30
0.0
  0
SPLINE
  5
93
330
1F
100
AcDbEntity
  8
Standard layer
 62
   250
370
    15
100
AcDbSpline
210
0.0
220
0.0
230
1.0
 70
    24
 71
     3
 72
     8
 73
     4
 74
     0
 42
0.0000000001
 43
0.0000000001
 40
0.0
 40
0.0
 40
0.0
 40
0.0
 40
1.0
 40
1.0
 40
1.0
 40
1.0
 10
11.3622
 20
12.9495
 30
0.0
 10
11.3622
 20
12.9495
 30
0.0
 10
13.6599
 20
13.1114
 30
0.0
 10
13.6599
 20
13.1114
 30
0.0
  0
SPLINE
  5
94
330
1F
100
AcDbEntity
  8
Standard layer
 62
   250
370
    15
100
AcDbSpline
210
0.0
220
0.0
230
1.0
 70
    24
 71
     3
 72
     8
 73
     4
 74
     0
 42
0.0000000001
 43
0.0000000001
 40
0.0
 40
0.0
 40
0.0
 40
0.0
 40
1.0
 40
1.0
 40
1.0
 40
1.0
 10
11.3938
 20
20.1658
 30
0.0
 10
11.3938
 20
20.1658
 30
0.0
 10
13.6915
 20
20.3277
 30
0.0
 10
13.6915
 20
20.3277
 30
0.0
  0
SPLINE
  5
95
330
1F
100
AcDbEntity
  8
Standard layer
 62
   250
370
    15
100
AcDbSpline
210
0.0
220
0.0
230
1.0
 70
    24
 71
     3
 72
     8
 73
     4
 74
     0
 42
0.0000000001
 43
0.0000000001
 40
0.0
 40
0.0
 40
0.0
 40
0.0
 40
1.0
 40
1.0
 40
1.0
 40
1.0
 10
11.3501
 20
13.5175
 30
0.0
 10
11.3501
 20
13.5175
 30
0.0
 10
13.6478
 20
13.6794
 30
0.0
 10
13.6478
 20
13.6794
 30
0.0
  0
SPLINE
  5
96
330
1F
100
AcDbEntity
  8
Standard layer
 62
   250
370
    15
100
AcDbSpline
210
0.0
220
0.0
230
1.0
 70
    24
 71
     3
 72
     8
 73
     4
 74
     0
 42
0.0000000001
 43
0.0000000001
 40
0.0
 40
0.0
 40
0.0
 40
0.0
 40
1.0
 40
1.0
 40
1.0
 40
1.0
 10
11.3335
 20
10.5573
 30
0.0
 10
11.3335
 20
10.5573
 30
0.0
 10
13.6312
 20
10.7192
 30
0.0
 10
13.6312
 20
10.7192
 30
0.0
  0
SPLINE
  5
97
330
1F
100
AcDbEntity
  8
Standard layer
 62
   250
370
    15
100
AcDbSpline
210
0.0
220
0.0
230
1.0
 70
    24
 71
     3
 72
     8
 73
     4
 74
     0
 42
0.0000000001
 43
0.0000000001
 40
0.0
 40
0.0
 40
0.0
 40
0.0
 40
1.0
 40
1.0
 40
1.0
 40
1.0
 10
11.3717
 20
17.1176
 30
0.0
 10
11.3717
 20
17.1176
 30
0.0
 10
13.6694
 20
17.2795
 30
0.0
 10
13.6694
 20
17.2795
 30
0.0
  0
SPLINE
  5
98
330
1F
100
AcDbEntity
  8
Standard layer
 62
   250
370
    15
100
AcDbSpline
210
0.0
220
0.0
230
1.0
 70
    24
 71
     3
 72
     8
 73
     4
 74
     0
 42
0.0000000001
 43
0.0000000001
 40
0.0
 40
0.0
 40
0.0
 40
0.0
 40
1.0
 40
1.0
 40
1.0
 40
1.0
 10
11.3817
 20
20.7338
 30
0.0
 10
11.3817
 20
20.7338
 30
0.0
 10
13.6794
 20
20.8957
 30
0.0
 10
13.6794
 20
20.8957
 30
0.0
  0
SPLINE
  5
99
330
1F
100
AcDbEntity
  8
Standard layer
 62
   250
370
    15
100
AcDbSpline
210
0.0
220
0.0
230
1.0
 70
    24
 71
     3
 72
     8
 73
     4
 74
     0
 42
0.0000000001
 43
0.0000000001
 40
0.0
 40
0.0
 40
0.0
 40
0.0
 40
1.0
 40
1.0
 40
1.0
 40
1.0
 10
11.4093
 20
14.1586
 30
0.0
 10
11.4093
 20
14.1586
 30
0.0
 10
13.707
 20
14.3205
 30
0.0
 10
13.707
 20
14.3205
 30
0.0
  0
SPLINE
  5
9A
330
1F
100
AcDbEntity
  8
Standard layer
 62
   250
370
    15
100
AcDbSpline
210
0.0
220
0.0
230
1.0
 70
    24
 71
     3
 72
     8
 73
     4
 74
     0
 42
0.0000000001
 43
0.0000000001
 40
0.0
 40
0.0
 40
0.0
 40
0.0
 40
1.0
 40
1.0
 40
1.0
 40
1.0
 10
11.3909
 20
17.7587
 30
0.0
 10
11.3909
 20
17.7587
 30
0.0
 10
13.6886
 20
17.9206
 30
0.0
 10
13.6886
 20
17.9206
 30
0.0
  0
SPLINE
  5
9B
330
1F
100
AcDbEntity
  8
Standard layer
 62
   250
370
    15
100
AcDbSpline
210
0.0
220
0.0
230
1.0
 70
    24
 71
     3
 72
     8
 73
     4
 74
     0
 42
0.0000000001
 43
0.0000000001
 40
0.0
 40
0.0
 40
0.0
 40
0.0
 40
1.0
 40
1.0
 40
1.0
 40
1.0
 10
11.3916
 20
11.1578
 30
0.0
 10
11.3916
 20
11.1578
 30
0.0
 10
13.6893
 20
11.3197
 30
0.0
 10
13.6893
 20
11.3197
 30
0.0
  0
SPLINE
  5
9C
330
1F
100
AcDbEntity
  8
Standard layer
 62
   250
370
    15
100
AcDbSpline
210
0.0
220
0.0
230
1.0
 70
    24
 71
     3
 72
     8
 73
     4
 74
     0
 42
0.0000000001
 43
0.0000000001
 40
0.0
 40
0.0
 40
0.0
 40
0.0
 40
1.0
 40
1.0
 40
1.0
 40
1.0
 10
11.3868
 20
14.7579
 30
0.0
 10
11.3868
 20
14.7579
 30
0.0
 10
13.6845
 20
14.9198
 30
0.0
 10
13.6845
 20
14.9198
 30
0.0
  0
SPLINE
  5
9D
330
1F
100
AcDbEntity
  8
Standard layer
 62
   250
370
    15
100
AcDbSpline
210
0.0
220
0.0
230
1.0
 70
    24
 71
     3
 72
     8
 73
     4
 74
     0
 42
0.0000000001
 43
0.0000000001
 40
0.0
 40
0.0
 40
0.0
 40
0.0
 40
1.0
 40
1.0
 40
1.0
 40
1.0
 10
11.3684
 20
18.358
 30
0.0
 10
11.3684
 20
18.358
 30
0.0
 10
13.6661
 20
18.5199
 30
0.0
 10
13.6661
 20
18.5199
 30
0.0
  0
SPLINE
  5
9E
330
1F
100
AcDbEntity
  8
Standard layer
 62
   250
370
    15
100
AcDbSpline
210
0.0
220
0.0
230
1.0
 70
    24
 71
     3
 72
     8
 73
     4
 74
     0
 42
0.0000000001
 43
0.0000000001
 40
0.0
 40
0.0
 40
0.0
 40
0.0
 40
1.0
 40
1.0
 40
1.0
 40
1.0
 10
11.4107
 20
11.7677
 30
0.0
 10
11.4107
 20
11.7677
 30
0.0
 10
13.7084
 20
11.9296
 30
0.0
 10
13.7084
 20
11.9296
 30
0.0
  0
SPLINE
  5
9F
330
1F
100
AcDbEntity
  8
Standard layer
 62
   250
370
    15
100
AcDbSpline
210
0.0
220
0.0
230
1.0
 70
    24
 71
     3
 72
     8
 73
     4
 74
     0
 42
0.0000000001
 43
0.0000000001
 40
0.0
 40
0.0
 40
0.0
 40
0.0
 40
1.0
 40
1.0
 40
1.0
 40
1.0
 10
11.4059
 20
15.3678
 30
0.0
 10
11.4059
 20
15.3678
 30
0.0
 10
13.7036
 20
15.5297
 30
0.0
 10
13.7036
 20
15.5297
 30
0.0
  0
SPLINE
  5
A0
330
1F
100
AcDbEntity
  8
Standard layer
 62
   250
370
    15
100
AcDbSpline
210
0.0
220
0.0
230
1.0
 70
    24
 71
     3
 72
     8
 73
     4
 74
     0
 42
0.0000000001
 43
0.0000000001
 40
0.0
 40
0.0
 40
0.0
 40
0.0
 40
1.0
 40
1.0
 40
1.0
 40
1.0
 10
11.3875
 20
18.9679
 30
0.0
 10
11.3875
 20
18.9679
 30
0.0
 10
13.6852
 20
19.1298
 30
0.0
 10
13.6852
 20
19.1298
 30
0.0
  0
SPLINE
  5
A1
330
1F
100
AcDbEntity
  8
Standard layer
 62
   250
370
    15
100
AcDbSpline
210
0.0
220
0.0
230
1.0
 70
    24
 71
     3
 72
     8
 73
     4
 74
     0
 42
0.0000000001
 43
0.0000000001
 40
0.0
 40
0.0
 40
0.0
 40
0.0
 40
1.0
 40
1.0
 40
1.0
 40
1.0
 10
11.3987
 20
12.367
 30
0.0
 10
11.3987
 20
12.367
 30
0.0
 10
13.6964
 20
12.5289
 30
0.0
 10
13.6964
 20
12.5289
 30
0.0
  0
SPLINE
  5
A2
330
1F
100
AcDbEntity
  8
Standard layer
 62
   250
370
    15
100
AcDbSpline
210
0.0
220
0.0
230
1.0
 70
    24
 71
     3
 72
     8
 73
     4
 74
     0
 42
0.0000000001
 43
0.0000000001
 40
0.0
 40
0.0
 40
0.0
 40
0.0
 40
1.0
 40
1.0
 40
1.0
 40
1.0
 10
11.3755
 20
19.5672
 30
0.0
 10
11.3755
 20
19.5672
 30
0.0
 10
13.6732
 20
19.7291
 30
0.0
 10
13.6732
 20
19.7291
 30
0.0
  0
SPLINE
  5
A3
330
1F
100
AcDbEntity
  8
Standard layer
 62
   250
370
    30
100
AcDbSpline
210
0.0
220
0.0
230
1.0
 70
     8
 71
     3
 72
    12
 73
     8
 74
     0
 42
0.0000000001
 43
0.0000000001
 40
0.0
 40
0.0
 40
0.0
 40
0.0
 40
0.3333333333333333
 40
0.3333333333333333
 40
0.3333333333333333
 40
0.3333333333333333
 40
1.0
 40
1.0
 40
1.0
 40
1.0
 10
13.7826
 20
16.0887
 30
0.0
 10
13.7826
 20
16.0887
 30
0.0
 10
13.7827
 20
10.1953
 30
0.0
 10
13.7827
 20
10.1953
 30
0.0
 10
13.7827
 20
10.1953
 30
0.0
 10
13.7827
 20
10.1953
 30
0.0
 10
11.2772
 20
10.2036
 30
0.0
 10
11.2772
 20
10.2036
 30
0.0
  0
SPLINE
  5
A4
330
1F
100
AcDbEntity
  8
Standard layer
 62
   250
370
    30
100
AcDbSpline
210
0.0
220
0.0
230
1.0
 70
     8
 71
     3
 72
    16
 73
    12
 74
     0
 42
0.0000000001
 43
0.0000000001
 40
0.0
 40
0.0
 40
0.0
 40
0.0
 40
0.25
 40
0.25
 40
0.25
 40
0.25
 40
0.5
 40
0.5
 40
0.5
 40
0.5
 40
1.0
 40
1.0
 40
1.0
 40
1.0
 10
13.778
 20
16.8792
 30
0.0
 10
13.778
 20
16.8792
 30
0.0
 10
13.7864
 20
21.1071
 30
0.0
 10
13.7864
 20
21.1071
 30
0.0
 10
13.7864
 20
21.1071
 30
0.0
 10
13.7864
 20
21.1071
 30
0.0
 10
11.2892
 20
21.1071
 30
0.0
 10
11.2892
 20
21.1071
 30
0.0
 10
11.2892
 20
21.1071
 30
0.0
 10
11.2892
 20
21.1071
 30
0.0
 10
11.2892
 20
16.8455
 30
0.0
 10
11.2892
 20
16.8455
 30
0.0
  0
SPLINE
  5
A5
330
1F
100
AcDbEntity
  8
Standard layer
 62
   250
370
    30
100
AcDbSpline
210
0.0
220
0.0
230
1.0
 70
    24
 71
     3
 72
     8
 73
     4
 74
     0
 42
0.0000000001
 43
0.0000000001
 40
0.0
 40
0.0
 40
0.0
 40
0.0
 40
1.0
 40
1.0
 40
1.0
 40
1.0
 10
11.2856
 20
10.1953
 30
0.0
 10
11.2856
 20
10.1953
 30
0.0
 10
11.2772
 20
16.0726
 30
0.0
 10
11.2772
 20
16.0726
 30
0.0
  0
SPLINE
  5
A6
330
1F
100
AcDbEntity
  8
Standard layer
 62
   250
370
    30
100
AcDbSpline
210
0.0
220
0.0
230
1.0
 70
    24
 71
     3
 72
     8
 73
     4
 74
     0
 42
0.0000000001
 43
0.0000000001
 40
0.0
 40
0.0
 40
0.0
 40
0.0
 40
1.0
 40
1.0
 40
1.0
 40
1.0
 10
21.5611
 20
29.5815
 30
0.0
 10
21.5611
 20
29.5815
 30
0.0
 10
21.5611
 20
30.5005
 30
0.0
 10
21.5611
 20
30.5005
 30
0.0
  0
SPLINE
  5
A7
330
1F
100
AcDbEntity
  8
Standard layer
 62
   250
370
    30
100
AcDbSpline
210
0.0
220
0.0
230
1.0
 70
    24
 71
     3
 72
     8
 73
     4
 74
     0
 42
0.0000000001
 43
0.0000000001
 40
0.0
 40
0.0
 40
0.0
 40
0.0
 40
1.0
 40
1.0
 40
1.0
 40
1.0
 10
23.7119
 20
30.5005
 30
0.0
 10
23.7119
 20
30.5005
 30
0.0
 10
23.7119
 20
29.5815
 30
0.0
 10
23.7119
 20
29.5815
 30
0.0
  0
SPLINE
  5
A8
330
1F
100
AcDbEntity
  8
Standard layer
 62
   250
370
    30
100
AcDbSpline
210
0.0
220
0.0
230
1.0
 70
    24
 71
     3
 72
     8
 73
     4
 74
     0
 42
0.0000000001
 43
0.0000000001
 40
0.0
 40
0.0
 40
0.0
 40
0.0
 40
1.0
 40
1.0
 40
1.0
 40
1.0
 10
21.0289
 20
30.7092
 30
0.0
 10
21.0289
 20
30.7092
 30
0.0
 10
24.2445
 20
30.7092
 30
0.0
 10
24.2445
 20
30.7092
 30
0.0
  0
SPLINE
  5
A9
330
1F
100
AcDbEntity
  8
Standard layer
 62
   250
370
    30
100
AcDbSpline
210
0.0
220
0.0
230
1.0
 70
     8
 71
     3
 72
    12
 73
     8
 74
     0
 42
0.0000000001
 43
0.0000000001
 40
0.0
 40
0.0
 40
0.0
 40
0.0
 40
0.3333333333333333
 40
0.3333333333333333
 40
0.3333333333333333
 40
0.3333333333333333
 40
1.0
 40
1.0
 40
1.0
 40
1.0
 10
24.307
 20
26.2198
 30
0.0
 10
24.307
 20
27.2709
 30
0.0
 10
24.307
 20
28.3219
 30
0.0
 10
24.307
 20
29.3729
 30
0.0
 10
24.307
 20
29.3729
 30
0.0
 10
23.9012
 20
29.7784
 30
0.0
 10
24.1965
 20
29.5815
 30
0.0
 10
23.2629
 20
29.5815
 30
0.0
  0
SPLINE
  5
AA
330
1F
100
AcDbEntity
  8
Standard layer
 62
   250
370
    30
100
AcDbSpline
210
0.0
220
0.0
230
1.0
 70
    24
 71
     3
 72
    12
 73
     8
 74
     0
 42
0.0000000001
 43
0.0000000001
 40
0.0
 40
0.0
 40
0.0
 40
0.0
 40
0.3333333333333333
 40
0.3333333333333333
 40
0.3333333333333333
 40
0.3333333333333333
 40
1.0
 40
1.0
 40
1.0
 40
1.0
 10
23.2629
 20
29.5815
 30
0.0
 10
23.2629
 20
29.5815
 30
0.0
 10
22.0101
 20
29.5815
 30
0.0
 10
22.0101
 20
29.5815
 30
0.0
 10
22.0101
 20
29.5815
 30
0.0
 10
22.0101
 20
29.5815
 30
0.0
 10
21.1749
 20
29.5815
 30
0.0
 10
21.1749
 20
29.5815
 30
0.0
  0
SPLINE
  5
AB
330
1F
100
AcDbEntity
  8
Standard layer
 62
   250
370
    30
100
AcDbSpline
210
0.0
220
0.0
230
1.0
 70
     8
 71
     3
 72
     8
 73
     4
 74
     0
 42
0.0000000001
 43
0.0000000001
 40
0.0
 40
0.0
 40
0.0
 40
0.0
 40
1.0
 40
1.0
 40
1.0
 40
1.0
 10
21.1749
 20
29.5815
 30
0.0
 10
20.7691
 20
29.5006
 30
0.0
 10
20.9661
 20
28.5534
 30
0.0
 10
20.9661
 20
28.5376
 30
0.0
  0
SPLINE
  5
AC
330
1F
100
AcDbEntity
  8
Standard layer
 62
   250
370
    30
100
AcDbSpline
210
0.0
220
0.0
230
1.0
 70
    24
 71
     3
 72
    12
 73
     8
 74
     0
 42
0.0000000001
 43
0.0000000001
 40
0.0
 40
0.0
 40
0.0
 40
0.0
 40
0.3333333333333333
 40
0.3333333333333333
 40
0.3333333333333333
 40
0.3333333333333333
 40
1.0
 40
1.0
 40
1.0
 40
1.0
 10
20.9661
 20
28.5376
 30
0.0
 10
20.9661
 20
28.5376
 30
0.0
 10
20.9661
 20
27.0551
 30
0.0
 10
20.9661
 20
27.0551
 30
0.0
 10
20.9661
 20
27.0551
 30
0.0
 10
20.9661
 20
27.0551
 30
0.0
 10
20.9661
 20
26.2198
 30
0.0
 10
20.9661
 20
26.2198
 30
0.0
  0
SPLINE
  5
AD
330
1F
100
AcDbEntity
  8
Standard layer
 62
   250
370
    30
100
AcDbSpline
210
0.0
220
0.0
230
1.0
 70
     8
 71
     3
 72
     8
 73
     4
 74
     0
 42
0.0000000001
 43
0.0000000001
 40
0.0
 40
0.0
 40
0.0
 40
0.0
 40
1.0
 40
1.0
 40
1.0
 40
1.0
 10
24.2445
 20
30.7092
 30
0.0
 10
23.8388
 20
30.3036
 30
0.0
 10
24.1341
 20
30.5005
 30
0.0
 10
23.2004
 20
30.5005
 30
0.0
  0
SPLINE
  5
AE
330
1F
100
AcDbEntity
  8
Standard layer
 62
   250
370
    30
100
AcDbSpline
210
0.0
220
0.0
230
1.0
 70
     8
 71
     3
 72
    16
 73
    12
 74
     0
 42
0.0000000001
 43
0.0000000001
 40
0.0
 40
0.0
 40
0.0
 40
0.0
 40
0.25
 40
0.25
 40
0.25
 40
0.25
 40
0.5
 40
0.5
 40
0.5
 40
0.5
 40
1.0
 40
1.0
 40
1.0
 40
1.0
 10
23.2004
 20
30.5005
 30
0.0
 10
23.2004
 20
30.5005
 30
0.0
 10
22.0728
 20
30.5005
 30
0.0
 10
22.0728
 20
30.5005
 30
0.0
 10
22.0728
 20
30.5005
 30
0.0
 10
22.0728
 20
30.5005
 30
0.0
 10
21.2375
 20
30.5005
 30
0.0
 10
21.2375
 20
30.5005
 30
0.0
 10
21.2375
 20
30.5005
 30
0.0
 10
21.2375
 20
30.5005
 30
0.0
 10
21.0289
 20
30.7092
 30
0.0
 10
21.0289
 20
30.7092
 30
0.0
  0
SPLINE
  5
AF
330
1F
100
AcDbEntity
  8
Standard layer
 62
   250
370
    30
100
AcDbSpline
210
0.0
220
0.0
230
1.0
 70
     8
 71
     3
 72
    24
 73
    20
 74
     0
 42
0.0000000001
 43
0.0000000001
 40
0.0
 40
0.0
 40
0.0
 40
0.0
 40
0.1666666666666667
 40
0.1666666666666667
 40
0.1666666666666667
 40
0.1666666666666667
 40
0.3333333333333333
 40
0.3333333333333333
 40
0.3333333333333333
 40
0.3333333333333333
 40
0.5
 40
0.5
 40
0.5
 40
0.5
 40
0.6666666666666666
 40
0.6666666666666666
 40
0.6666666666666666
 40
0.6666666666666666
 40
1.0
 40
1.0
 40
1.0
 40
1.0
 10
24.2445
 20
30.7092
 30
0.0
 10
24.2445
 20
30.7092
 30
0.0
 10
23.5971
 20
31.3565
 30
0.0
 10
23.5971
 20
31.3565
 30
0.0
 10
23.5971
 20
31.3565
 30
0.0
 10
23.5971
 20
31.3565
 30
0.0
 10
22.762
 20
31.3565
 30
0.0
 10
22.762
 20
31.3565
 30
0.0
 10
22.762
 20
31.3565
 30
0.0
 10
22.762
 20
31.3565
 30
0.0
 10
22.5114
 20
31.3565
 30
0.0
 10
22.5114
 20
31.3565
 30
0.0
 10
22.5114
 20
31.3565
 30
0.0
 10
22.5114
 20
31.3565
 30
0.0
 10
21.6759
 20
31.3565
 30
0.0
 10
21.6759
 20
31.3565
 30
0.0
 10
21.6759
 20
31.3565
 30
0.0
 10
21.6759
 20
31.3565
 30
0.0
 10
21.0289
 20
30.7092
 30
0.0
 10
21.0289
 20
30.7092
 30
0.0
  0
SPLINE
  5
B0
330
1F
100
AcDbEntity
  8
Standard layer
 62
   250
370
    30
100
AcDbSpline
210
0.0
220
0.0
230
1.0
 70
    24
 71
     3
 72
     8
 73
     4
 74
     0
 42
0.0000000001
 43
0.0000000001
 40
0.0
 40
0.0
 40
0.0
 40
0.0
 40
1.0
 40
1.0
 40
1.0
 40
1.0
 10
8.3334
 20
23.2132
 30
0.0
 10
8.3334
 20
23.2132
 30
0.0
 10
26.6663
 20
23.2132
 30
0.0
 10
26.6663
 20
23.2132
 30
0.0
  0
SPLINE
  5
B1
330
1F
100
AcDbEntity
  8
Standard layer
 62
   250
370
    30
100
AcDbSpline
210
0.0
220
0.0
230
1.0
 70
    24
 71
     3
 72
     8
 73
     4
 74
     0
 42
0.0000000001
 43
0.0000000001
 40
0.0
 40
0.0
 40
0.0
 40
0.0
 40
1.0
 40
1.0
 40
1.0
 40
1.0
 10
26.9169
 20
23.2132
 30
0.0
 10
26.9169
 20
23.2132
 30
0.0
 10
8.5841
 20
23.2132
 30
0.0
 10
8.5841
 20
23.2132
 30
0.0
  0
SPLINE
  5
B2
330
1F
100
AcDbEntity
  8
Standard layer
 62
   250
370
    30
100
AcDbSpline
210
0.0
220
0.0
230
1.0
 70
     8
 71
     3
 72
    12
 73
     8
 74
     0
 42
0.0000000001
 43
0.0000000001
 40
0.0
 40
0.0
 40
0.0
 40
0.0
 40
0.3333333333333333
 40
0.3333333333333333
 40
0.3333333333333333
 40
0.3333333333333333
 40
1.0
 40
1.0
 40
1.0
 40
1.0
 10
8.3334
 20
23.2132
 30
0.0
 10
8.3334
 20
23.2132
 30
0.0
 10
8.3478
 20
24.0482
 30
0.0
 10
8.3478
 20
24.0482
 30
0.0
 10
8.3478
 20
24.0482
 30
0.0
 10
8.3478
 20
24.0482
 30
0.0
 10
8.3569
 20
24.5643
 30
0.0
 10
8.3569
 20
24.5643
 30
0.0
  0
SPLINE
  5
B3
330
1F
100
AcDbEntity
  8
Standard layer
 62
   250
370
    30
100
AcDbSpline
210
0.0
220
0.0
230
1.0
 70
     8
 71
     3
 72
    12
 73
     8
 74
     0
 42
0.0000000001
 43
0.0000000001
 40
0.0
 40
0.0
 40
0.0
 40
0.0
 40
0.3333333333333333
 40
0.3333333333333333
 40
0.3333333333333333
 40
0.3333333333333333
 40
1.0
 40
1.0
 40
1.0
 40
1.0
 10
8.3569
 20
24.5643
 30
0.0
 10
8.3668
 20
25.1265
 30
0.0
 10
8.2402
 20
25.8876
 30
0.0
 10
8.8859
 20
26.1559
 30
0.0
 10
8.8859
 20
26.1559
 30
0.0
 10
8.9879
 20
26.1981
 30
0.0
 10
9.0977
 20
26.2198
 30
0.0
 10
9.2077
 20
26.2198
 30
0.0
  0
SPLINE
  5
B4
330
1F
100
AcDbEntity
  8
Standard layer
 62
   250
370
    30
100
AcDbSpline
210
0.0
220
0.0
230
1.0
 70
    24
 71
     3
 72
    16
 73
    12
 74
     0
 42
0.0000000001
 43
0.0000000001
 40
0.0
 40
0.0
 40
0.0
 40
0.0
 40
0.25
 40
0.25
 40
0.25
 40
0.25
 40
0.5
 40
0.5
 40
0.5
 40
0.5
 40
1.0
 40
1.0
 40
1.0
 40
1.0
 10
9.2077
 20
26.2198
 30
0.0
 10
9.2077
 20
26.2198
 30
0.0
 10
10.0429
 20
26.2198
 30
0.0
 10
10.0429
 20
26.2198
 30
0.0
 10
10.0429
 20
26.2198
 30
0.0
 10
10.0429
 20
26.2198
 30
0.0
 10
25.2074
 20
26.2198
 30
0.0
 10
25.2074
 20
26.2198
 30
0.0
 10
25.2074
 20
26.2198
 30
0.0
 10
25.2074
 20
26.2198
 30
0.0
 10
26.0427
 20
26.2198
 30
0.0
 10
26.0427
 20
26.2198
 30
0.0
  0
SPLINE
  5
B5
330
1F
100
AcDbEntity
  8
Standard layer
 62
   250
370
    30
100
AcDbSpline
210
0.0
220
0.0
230
1.0
 70
     8
 71
     3
 72
    12
 73
     8
 74
     0
 42
0.0000000001
 43
0.0000000001
 40
0.0
 40
0.0
 40
0.0
 40
0.0
 40
0.3333333333333333
 40
0.3333333333333333
 40
0.3333333333333333
 40
0.3333333333333333
 40
1.0
 40
1.0
 40
1.0
 40
1.0
 10
26.0427
 20
26.2198
 30
0.0
 10
26.154
 20
26.217
 30
0.0
 10
26.2612
 20
26.1987
 30
0.0
 10
26.3645
 20
26.1559
 30
0.0
 10
26.3645
 20
26.1559
 30
0.0
 10
27.0096
 20
25.8877
 30
0.0
 10
26.8837
 20
25.1285
 30
0.0
 10
26.8935
 20
24.5665
 30
0.0
  0
SPLINE
  5
B6
330
1F
100
AcDbEntity
  8
Standard layer
 62
   250
370
    30
100
AcDbSpline
210
0.0
220
0.0
230
1.0
 70
     8
 71
     3
 72
    12
 73
     8
 74
     0
 42
0.0000000001
 43
0.0000000001
 40
0.0
 40
0.0
 40
0.0
 40
0.0
 40
0.3333333333333333
 40
0.3333333333333333
 40
0.3333333333333333
 40
0.3333333333333333
 40
1.0
 40
1.0
 40
1.0
 40
1.0
 10
26.8935
 20
24.5665
 30
0.0
 10
26.8935
 20
24.5665
 30
0.0
 10
26.9027
 20
24.0482
 30
0.0
 10
26.9027
 20
24.0482
 30
0.0
 10
26.9027
 20
24.0482
 30
0.0
 10
26.9027
 20
24.0482
 30
0.0
 10
26.9169
 20
23.2132
 30
0.0
 10
26.9169
 20
23.2132
 30
0.0
  0
SPLINE
  5
B7
330
1F
100
AcDbEntity
  8
Standard layer
 62
   250
370
    30
100
AcDbSpline
210
0.0
220
0.0
230
1.0
 70
     8
 71
     3
 72
    12
 73
     8
 74
     0
 42
0.0000000001
 43
0.0000000001
 40
0.0
 40
0.0
 40
0.0
 40
0.0
 40
0.3333333333333333
 40
0.3333333333333333
 40
0.3333333333333333
 40
0.3333333333333333
 40
1.0
 40
1.0
 40
1.0
 40
1.0
 10
18.4502
 20
23.1749
 30
0.0
 10
18.1951
 20
23.147
 30
0.0
 10
17.8417
 20
23.1713
 30
0.0
 10
17.6251
 20
23.1713
 30
0.0
 10
17.6251
 20
23.1713
 30
0.0
 10
16.9923
 20
23.1713
 30
0.0
 10
16.3641
 20
23.1714
 30
0.0
 10
15.7305
 20
23.1714
 30
0.0
  0
SPLINE
  5
B8
330
1F
100
AcDbEntity
  8
Standard layer
 62
   250
370
    30
100
AcDbSpline
210
0.0
220
0.0
230
1.0
 70
     8
 71
     3
 72
    12
 73
     8
 74
     0
 42
0.0000000001
 43
0.0000000001
 40
0.0
 40
0.0
 40
0.0
 40
0.0
 40
0.3333333333333333
 40
0.3333333333333333
 40
0.3333333333333333
 40
0.3333333333333333
 40
1.0
 40
1.0
 40
1.0
 40
1.0
 10
15.7305
 20
23.1714
 30
0.0
 10
15.7305
 20
23.1714
 30
0.0
 10
9.4817
 20
23.1713
 30
0.0
 10
9.4817
 20
23.1713
 30
0.0
 10
9.4817
 20
23.1713
 30
0.0
 10
9.4817
 20
23.1713
 30
0.0
 10
8.6467
 20
23.1713
 30
0.0
 10
8.6467
 20
23.1713
 30
0.0
  0
SPLINE
  5
B9
330
1F
100
AcDbEntity
  8
Standard layer
 62
   250
370
    30
100
AcDbSpline
210
0.0
220
0.0
230
1.0
 70
     8
 71
     3
 72
    32
 73
    28
 74
     0
 42
0.0000000001
 43
0.0000000001
 40
0.0
 40
0.0
 40
0.0
 40
0.0
 40
0.125
 40
0.125
 40
0.125
 40
0.125
 40
0.25
 40
0.25
 40
0.25
 40
0.25
 40
0.375
 40
0.375
 40
0.375
 40
0.375
 40
0.5
 40
0.5
 40
0.5
 40
0.5
 40
0.625
 40
0.625
 40
0.625
 40
0.625
 40
0.75
 40
0.75
 40
0.75
 40
0.75
 40
1.0
 40
1.0
 40
1.0
 40
1.0
 10
18.4501
 20
23.1678
 30
0.0
 10
18.4501
 20
23.1678
 30
0.0
 10
18.4645
 20
23.1674
 30
0.0
 10
18.4645
 20
23.1674
 30
0.0
 10
18.4645
 20
23.1674
 30
0.0
 10
18.4645
 20
23.1674
 30
0.0
 10
18.5756
 20
23.17
 30
0.0
 10
18.5756
 20
23.17
 30
0.0
 10
18.5756
 20
23.17
 30
0.0
 10
18.5756
 20
23.17
 30
0.0
 10
18.6463
 20
23.1685
 30
0.0
 10
18.6463
 20
23.1685
 30
0.0
 10
18.6463
 20
23.1685
 30
0.0
 10
18.6463
 20
23.1685
 30
0.0
 10
18.6833
 20
23.1713
 30
0.0
 10
18.6833
 20
23.1713
 30
0.0
 10
18.6833
 20
23.1713
 30
0.0
 10
18.6833
 20
23.1713
 30
0.0
 10
19.5185
 20
23.1713
 30
0.0
 10
19.5185
 20
23.1713
 30
0.0
 10
19.5185
 20
23.1713
 30
0.0
 10
19.5185
 20
23.1713
 30
0.0
 10
25.7687
 20
23.1713
 30
0.0
 10
25.7687
 20
23.1713
 30
0.0
 10
25.7687
 20
23.1713
 30
0.0
 10
25.7687
 20
23.1713
 30
0.0
 10
26.6039
 20
23.1713
 30
0.0
 10
26.6039
 20
23.1713
 30
0.0
  0
SPLINE
  5
BA
330
1F
100
AcDbEntity
  8
Standard layer
 62
   250
370
    30
100
AcDbSpline
210
0.0
220
0.0
230
1.0
 70
    24
 71
     3
 72
     8
 73
     4
 74
     0
 42
0.0000000001
 43
0.0000000001
 40
0.0
 40
0.0
 40
0.0
 40
0.0
 40
1.0
 40
1.0
 40
1.0
 40
1.0
 10
11.2898
 20
21.1668
 30
0.0
 10
11.2898
 20
21.1668
 30
0.0
 10
11.2898
 20
23.1713
 30
0.0
 10
11.2898
 20
23.1713
 30
0.0
  0
SPLINE
  5
BB
330
1F
100
AcDbEntity
  8
Standard layer
 62
   250
370
    30
100
AcDbSpline
210
0.0
220
0.0
230
1.0
 70
    24
 71
     3
 72
     8
 73
     4
 74
     0
 42
0.0000000001
 43
0.0000000001
 40
0.0
 40
0.0
 40
0.0
 40
0.0
 40
1.0
 40
1.0
 40
1.0
 40
1.0
 10
13.7827
 20
23.1713
 30
0.0
 10
13.7827
 20
23.1713
 30
0.0
 10
13.7827
 20
21.1668
 30
0.0
 10
13.7827
 20
21.1668
 30
0.0
  0
SPLINE
  5
BC
330
1F
100
AcDbEntity
  8
Standard layer
 62
   250
370
    30
100
AcDbSpline
210
0.0
220
0.0
230
1.0
 70
    24
 71
     3
 72
     8
 73
     4
 74
     0
 42
0.0000000001
 43
0.0000000001
 40
0.0
 40
0.0
 40
0.0
 40
0.0
 40
1.0
 40
1.0
 40
1.0
 40
1.0
 10
17.5998
 20
3.7158
 30
0.0
 10
17.5998
 20
3.7158
 30
0.0
 10
17.7132
 20
10.2125
 30
0.0
 10
17.7132
 20
10.2125
 30
0.0
  0
SPLINE
  5
BD
330
1F
100
AcDbEntity
  8
Standard layer
 62
   250
370
    30
100
AcDbSpline
210
0.0
220
0.0
230
1.0
 70
    24
 71
     3
 72
     8
 73
     4
 74
     0
 42
0.0000000001
 43
0.0000000001
 40
0.0
 40
0.0
 40
0.0
 40
0.0
 40
1.0
 40
1.0
 40
1.0
 40
1.0
 10
17.7132
 20
10.2125
 30
0.0
 10
17.7132
 20
10.2125
 30
0.0
 10
7.2581
 20
10.2125
 30
0.0
 10
7.2581
 20
10.2125
 30
0.0
  0
SPLINE
  5
BE
330
1F
100
AcDbEntity
  8
Standard layer
 62
   250
370
    30
100
AcDbSpline
210
0.0
220
0.0
230
1.0
 70
    24
 71
     3
 72
     8
 73
     4
 74
     0
 42
0.0000000001
 43
0.0000000001
 40
0.0
 40
0.0
 40
0.0
 40
0.0
 40
1.0
 40
1.0
 40
1.0
 40
1.0
 10
7.3714
 20
3.7158
 30
0.0
 10
7.3714
 20
3.7158
 30
0.0
 10
7.2581
 20
10.2125
 30
0.0
 10
7.2581
 20
10.2125
 30
0.0
  0
SPLINE
  5
BF
330
1F
100
AcDbEntity
  8
Standard layer
 62
   250
370
    30
100
AcDbSpline
210
0.0
220
0.0
230
1.0
 70
    24
 71
     3
 72
     8
 73
     4
 74
     0
 42
0.0000000001
 43
0.0000000001
 40
0.0
 40
0.0
 40
0.0
 40
0.0
 40
1.0
 40
1.0
 40
1.0
 40
1.0
 10
10.4962
 20
2.8937
 30
0.0
 10
10.4962
 20
2.8937
 30
0.0
 10
14.5237
 20
2.894
 30
0.0
 10
14.5237
 20
2.894
 30
0.0
  0
SPLINE
  5
C0
330
1F
100
AcDbEntity
  8
Standard layer
 62
   250
370
    30
100
AcDbSpline
210
0.0
220
0.0
230
1.0
 70
    24
 71
     3
 72
     8
 73
     4
 74
     0
 42
0.0000000001
 43
0.0000000001
 40
0.0
 40
0.0
 40
0.0
 40
0.0
 40
1.0
 40
1.0
 40
1.0
 40
1.0
 10
14.5267
 20
2.8937
 30
0.0
 10
14.5267
 20
2.8937
 30
0.0
 10
15.0737
 20
2.8937
 30
0.0
 10
15.0737
 20
2.8937
 30
0.0
  0
SPLINE
  5
C1
330
1F
100
AcDbEntity
  8
Standard layer
 62
   250
370
    30
100
AcDbSpline
210
0.0
220
0.0
230
1.0
 70
    24
 71
     3
 72
     8
 73
     4
 74
     0
 42
0.0000000001
 43
0.0000000001
 40
0.0
 40
0.0
 40
0.0
 40
0.0
 40
1.0
 40
1.0
 40
1.0
 40
1.0
 10
10.6695
 20
2.8937
 30
0.0
 10
10.6695
 20
2.8937
 30
0.0
 10
10.4956
 20
2.8937
 30
0.0
 10
10.4956
 20
2.8937
 30
0.0
  0
SPLINE
  5
C2
330
1F
100
AcDbEntity
  8
Standard layer
 62
   250
370
    30
100
AcDbSpline
210
0.0
220
0.0
230
1.0
 70
     8
 71
     3
 72
    16
 73
    12
 74
     0
 42
0.0000000001
 43
0.0000000001
 40
0.0
 40
0.0
 40
0.0
 40
0.0
 40
0.25
 40
0.25
 40
0.25
 40
0.25
 40
0.5
 40
0.5
 40
0.5
 40
0.5
 40
1.0
 40
1.0
 40
1.0
 40
1.0
 10
17.5929
 20
3.7158
 30
0.0
 10
17.5929
 20
3.7158
 30
0.0
 10
17.6064
 20
4.552
 30
0.0
 10
17.6064
 20
4.552
 30
0.0
 10
17.6064
 20
4.552
 30
0.0
 10
17.6064
 20
4.552
 30
0.0
 10
17.6581
 20
7.7108
 30
0.0
 10
17.6581
 20
7.7108
 30
0.0
 10
17.6581
 20
7.7108
 30
0.0
 10
17.6581
 20
7.7108
 30
0.0
 10
17.6718
 20
8.547
 30
0.0
 10
17.6718
 20
8.547
 30
0.0
  0
SPLINE
  5
C3
330
1F
100
AcDbEntity
  8
Standard layer
 62
   250
370
    30
100
AcDbSpline
210
0.0
220
0.0
230
1.0
 70
     8
 71
     3
 72
    12
 73
     8
 74
     0
 42
0.0000000001
 43
0.0000000001
 40
0.0
 40
0.0
 40
0.0
 40
0.0
 40
0.3333333333333333
 40
0.3333333333333333
 40
0.3333333333333333
 40
0.3333333333333333
 40
1.0
 40
1.0
 40
1.0
 40
1.0
 10
17.6718
 20
8.547
 30
0.0
 10
17.6745
 20
8.7087
 30
0.0
 10
17.678
 20
8.874
 30
0.0
 10
17.6542
 20
9.0343
 30
0.0
 10
17.6542
 20
9.0343
 30
0.0
 10
17.6492
 20
9.067
 30
0.0
 10
17.6391
 20
9.1594
 30
0.0
 10
17.5896
 20
9.1596
 30
0.0
  0
SPLINE
  5
C4
330
1F
100
AcDbEntity
  8
Standard layer
 62
   250
370
    30
100
AcDbSpline
210
0.0
220
0.0
230
1.0
 70
     8
 71
     3
 72
    32
 73
    28
 74
     0
 42
0.0000000001
 43
0.0000000001
 40
0.0
 40
0.0
 40
0.0
 40
0.0
 40
0.125
 40
0.125
 40
0.125
 40
0.125
 40
0.25
 40
0.25
 40
0.25
 40
0.25
 40
0.375
 40
0.375
 40
0.375
 40
0.375
 40
0.5
 40
0.5
 40
0.5
 40
0.5
 40
0.625
 40
0.625
 40
0.625
 40
0.625
 40
0.75
 40
0.75
 40
0.75
 40
0.75
 40
1.0
 40
1.0
 40
1.0
 40
1.0
 10
17.5896
 20
9.1596
 30
0.0
 10
17.5896
 20
9.1596
 30
0.0
 10
16.7534
 20
9.1588
 30
0.0
 10
16.7534
 20
9.1588
 30
0.0
 10
16.7534
 20
9.1588
 30
0.0
 10
16.7534
 20
9.1588
 30
0.0
 10
13.3222
 20
9.156
 30
0.0
 10
13.3222
 20
9.156
 30
0.0
 10
13.3222
 20
9.156
 30
0.0
 10
13.3222
 20
9.156
 30
0.0
 10
11.6757
 20
9.1599
 30
0.0
 10
11.6757
 20
9.1599
 30
0.0
 10
11.6757
 20
9.1599
 30
0.0
 10
11.6757
 20
9.1599
 30
0.0
 10
10.8393
 20
9.1599
 30
0.0
 10
10.8393
 20
9.1599
 30
0.0
 10
10.8393
 20
9.1599
 30
0.0
 10
10.8393
 20
9.1599
 30
0.0
 10
8.2181
 20
9.1596
 30
0.0
 10
8.2181
 20
9.1596
 30
0.0
 10
8.2181
 20
9.1596
 30
0.0
 10
8.2181
 20
9.1596
 30
0.0
 10
7.3816
 20
9.1596
 30
0.0
 10
7.3816
 20
9.1596
 30
0.0
 10
7.3816
 20
9.1596
 30
0.0
 10
7.3816
 20
9.1596
 30
0.0
 10
7.356
 20
9.1475
 30
0.0
 10
7.356
 20
9.1475
 30
0.0
  0
SPLINE
  5
C5
330
1F
100
AcDbEntity
  8
Standard layer
 62
   250
370
    30
100
AcDbSpline
210
0.0
220
0.0
230
1.0
 70
     8
 71
     3
 72
     8
 73
     4
 74
     0
 42
0.0000000001
 43
0.0000000001
 40
0.0
 40
0.0
 40
0.0
 40
0.0
 40
1.0
 40
1.0
 40
1.0
 40
1.0
 10
7.356
 20
9.1475
 30
0.0
 10
7.251
 20
9.0088
 30
0.0
 10
7.2972
 20
8.6999
 30
0.0
 10
7.2997
 20
8.5407
 30
0.0
  0
SPLINE
  5
C6
330
1F
100
AcDbEntity
  8
Standard layer
 62
   250
370
    30
100
AcDbSpline
210
0.0
220
0.0
230
1.0
 70
     8
 71
     3
 72
    16
 73
    12
 74
     0
 42
0.0000000001
 43
0.0000000001
 40
0.0
 40
0.0
 40
0.0
 40
0.0
 40
0.25
 40
0.25
 40
0.25
 40
0.25
 40
0.5
 40
0.5
 40
0.5
 40
0.5
 40
1.0
 40
1.0
 40
1.0
 40
1.0
 10
7.2997
 20
8.5407
 30
0.0
 10
7.2997
 20
8.5407
 30
0.0
 10
7.3133
 20
7.7045
 30
0.0
 10
7.3133
 20
7.7045
 30
0.0
 10
7.3133
 20
7.7045
 30
0.0
 10
7.3133
 20
7.7045
 30
0.0
 10
7.3647
 20
4.552
 30
0.0
 10
7.3647
 20
4.552
 30
0.0
 10
7.3647
 20
4.552
 30
0.0
 10
7.3647
 20
4.552
 30
0.0
 10
7.3785
 20
3.7158
 30
0.0
 10
7.3785
 20
3.7158
 30
0.0
  0
SPLINE
  5
C7
330
1F
100
AcDbEntity
  8
Standard layer
 62
   250
370
    30
100
AcDbSpline
210
0.0
220
0.0
230
1.0
 70
     8
 71
     3
 72
    12
 73
     8
 74
     0
 42
0.0000000001
 43
0.0000000001
 40
0.0
 40
0.0
 40
0.0
 40
0.0
 40
0.3333333333333333
 40
0.3333333333333333
 40
0.3333333333333333
 40
0.3333333333333333
 40
1.0
 40
1.0
 40
1.0
 40
1.0
 10
7.2998
 20
8.5407
 30
0.0
 10
7.2998
 20
8.5407
 30
0.0
 10
7.3522
 20
8.541
 30
0.0
 10
7.3522
 20
8.541
 30
0.0
 10
7.3522
 20
8.541
 30
0.0
 10
7.3522
 20
8.541
 30
0.0
 10
7.5083
 20
8.5389
 30
0.0
 10
7.5083
 20
8.5389
 30
0.0
  0
SPLINE
  5
C8
330
1F
100
AcDbEntity
  8
Standard layer
 62
   250
370
    30
100
AcDbSpline
210
0.0
220
0.0
230
1.0
 70
     8
 71
     3
 72
     8
 73
     4
 74
     0
 42
0.0000000001
 43
0.0000000001
 40
0.0
 40
0.0
 40
0.0
 40
0.0
 40
1.0
 40
1.0
 40
1.0
 40
1.0
 10
7.5083
 20
8.5389
 30
0.0
 10
8.0048
 20
8.5396
 30
0.0
 10
8.5013
 20
8.5414
 30
0.0
 10
8.998
 20
8.5421
 30
0.0
  0
SPLINE
  5
C9
330
1F
100
AcDbEntity
  8
Standard layer
 62
   250
370
    30
100
AcDbSpline
210
0.0
220
0.0
230
1.0
 70
     8
 71
     3
 72
    16
 73
    12
 74
     0
 42
0.0000000001
 43
0.0000000001
 40
0.0
 40
0.0
 40
0.0
 40
0.0
 40
0.25
 40
0.25
 40
0.25
 40
0.25
 40
0.5
 40
0.5
 40
0.5
 40
0.5
 40
1.0
 40
1.0
 40
1.0
 40
1.0
 10
8.998
 20
8.5421
 30
0.0
 10
8.998
 20
8.5421
 30
0.0
 10
9.8343
 20
8.5432
 30
0.0
 10
9.8343
 20
8.5432
 30
0.0
 10
9.8343
 20
8.5432
 30
0.0
 10
9.8343
 20
8.5432
 30
0.0
 10
9.8609
 20
8.548
 30
0.0
 10
9.8609
 20
8.548
 30
0.0
 10
9.8609
 20
8.548
 30
0.0
 10
9.8609
 20
8.548
 30
0.0
 10
9.8733
 20
8.5477
 30
0.0
 10
9.8733
 20
8.5477
 30
0.0
  0
SPLINE
  5
CA
330
1F
100
AcDbEntity
  8
Standard layer
 62
   250
370
    30
100
AcDbSpline
210
0.0
220
0.0
230
1.0
 70
     8
 71
     3
 72
    16
 73
    12
 74
     0
 42
0.0000000001
 43
0.0000000001
 40
0.0
 40
0.0
 40
0.0
 40
0.0
 40
0.25
 40
0.25
 40
0.25
 40
0.25
 40
0.5
 40
0.5
 40
0.5
 40
0.5
 40
1.0
 40
1.0
 40
1.0
 40
1.0
 10
17.6718
 20
8.547
 30
0.0
 10
17.6718
 20
8.547
 30
0.0
 10
17.6166
 20
8.541
 30
0.0
 10
17.6166
 20
8.541
 30
0.0
 10
17.6166
 20
8.541
 30
0.0
 10
17.6166
 20
8.541
 30
0.0
 10
17.4529
 20
8.5432
 30
0.0
 10
17.4529
 20
8.5432
 30
0.0
 10
17.4529
 20
8.5432
 30
0.0
 10
17.4529
 20
8.5432
 30
0.0
 10
16.6163
 20
8.5445
 30
0.0
 10
16.6163
 20
8.5445
 30
0.0
  0
SPLINE
  5
CB
330
1F
100
AcDbEntity
  8
Standard layer
 62
   250
370
    30
100
AcDbSpline
210
0.0
220
0.0
230
1.0
 70
     8
 71
     3
 72
    12
 73
     8
 74
     0
 42
0.0000000001
 43
0.0000000001
 40
0.0
 40
0.0
 40
0.0
 40
0.0
 40
0.3333333333333333
 40
0.3333333333333333
 40
0.3333333333333333
 40
0.3333333333333333
 40
1.0
 40
1.0
 40
1.0
 40
1.0
 10
16.6163
 20
8.5445
 30
0.0
 10
16.0684
 20
8.5452
 30
0.0
 10
15.5202
 20
8.5449
 30
0.0
 10
14.9719
 20
8.5485
 30
0.0
 10
14.9719
 20
8.5485
 30
0.0
 10
13.2316
 20
8.5594
 30
0.0
 10
11.4866
 20
8.5417
 30
0.0
 10
9.7445
 20
8.5435
 30
0.0
  0
SPLINE
  5
CC
330
1F
100
AcDbEntity
  8
Standard layer
 62
   250
370
    30
100
AcDbSpline
210
0.0
220
0.0
230
1.0
 70
     8
 71
     3
 72
     8
 73
     4
 74
     0
 42
0.0000000001
 43
0.0000000001
 40
0.0
 40
0.0
 40
0.0
 40
0.0
 40
1.0
 40
1.0
 40
1.0
 40
1.0
 10
9.8367
 20
8.5504
 30
0.0
 10
9.8854
 20
6.6667
 30
0.0
 10
9.8327
 20
4.7773
 30
0.0
 10
9.9034
 20
2.8937
 30
0.0
  0
SPLINE
  5
CD
330
1F
100
AcDbEntity
  8
Standard layer
 62
   250
370
    30
100
AcDbSpline
210
0.0
220
0.0
230
1.0
 70
     8
 71
     3
 72
    24
 73
    20
 74
     0
 42
0.0000000001
 43
0.0000000001
 40
0.0
 40
0.0
 40
0.0
 40
0.0
 40
0.1666666666666667
 40
0.1666666666666667
 40
0.1666666666666667
 40
0.1666666666666667
 40
0.3333333333333333
 40
0.3333333333333333
 40
0.3333333333333333
 40
0.3333333333333333
 40
0.5
 40
0.5
 40
0.5
 40
0.5
 40
0.6666666666666666
 40
0.6666666666666666
 40
0.6666666666666666
 40
0.6666666666666666
 40
1.0
 40
1.0
 40
1.0
 40
1.0
 10
15.1296
 20
8.6162
 30
0.0
 10
15.1296
 20
8.6162
 30
0.0
 10
15.1336
 20
8.547
 30
0.0
 10
15.1336
 20
8.547
 30
0.0
 10
15.1336
 20
8.547
 30
0.0
 10
15.1336
 20
8.547
 30
0.0
 10
15.1299
 20
8.1257
 30
0.0
 10
15.1299
 20
8.1257
 30
0.0
 10
15.1299
 20
8.1257
 30
0.0
 10
15.1299
 20
8.1257
 30
0.0
 10
15.1265
 20
7.7048
 30
0.0
 10
15.1265
 20
7.7048
 30
0.0
 10
15.1265
 20
7.7048
 30
0.0
 10
15.1265
 20
7.7048
 30
0.0
 10
15.1156
 20
6.8682
 30
0.0
 10
15.1156
 20
6.8682
 30
0.0
 10
15.1156
 20
6.8682
 30
0.0
 10
15.1156
 20
6.8682
 30
0.0
 10
15.0805
 20
4.141
 30
0.0
 10
15.0805
 20
4.141
 30
0.0
  0
SPLINE
  5
CE
330
1F
100
AcDbEntity
  8
Standard layer
 62
   250
370
    30
100
AcDbSpline
210
0.0
220
0.0
230
1.0
 70
     8
 71
     3
 72
     8
 73
     4
 74
     0
 42
0.0000000001
 43
0.0000000001
 40
0.0
 40
0.0
 40
0.0
 40
0.0
 40
1.0
 40
1.0
 40
1.0
 40
1.0
 10
15.0805
 20
4.141
 30
0.0
 10
15.0756
 20
3.7522
 30
0.0
 10
15.0441
 20
3.299
 30
0.0
 10
15.0737
 20
2.8937
 30
0.0
  0
SPLINE
  5
CF
330
1F
100
AcDbEntity
  8
Standard layer
 62
   250
370
    30
100
AcDbSpline
210
0.0
220
0.0
230
1.0
 70
     8
 71
     3
 72
    12
 73
     8
 74
     0
 42
0.0000000001
 43
0.0000000001
 40
0.0
 40
0.0
 40
0.0
 40
0.0
 40
0.3333333333333333
 40
0.3333333333333333
 40
0.3333333333333333
 40
0.3333333333333333
 40
1.0
 40
1.0
 40
1.0
 40
1.0
 10
14.5705
 20
2.894
 30
0.0
 10
14.5705
 20
2.894
 30
0.0
 10
15.4067
 20
2.894
 30
0.0
 10
15.4067
 20
2.894
 30
0.0
 10
15.4067
 20
2.894
 30
0.0
 10
15.4067
 20
2.894
 30
0.0
 10
15.9206
 20
2.8937
 30
0.0
 10
15.9206
 20
2.8937
 30
0.0
  0
SPLINE
  5
D0
330
1F
100
AcDbEntity
  8
Standard layer
 62
   250
370
    30
100
AcDbSpline
210
0.0
220
0.0
230
1.0
 70
     8
 71
     3
 72
    16
 73
    12
 74
     0
 42
0.0000000001
 43
0.0000000001
 40
0.0
 40
0.0
 40
0.0
 40
0.0
 40
0.25
 40
0.25
 40
0.25
 40
0.25
 40
0.5
 40
0.5
 40
0.5
 40
0.5
 40
1.0
 40
1.0
 40
1.0
 40
1.0
 10
15.9206
 20
2.8937
 30
0.0
 10
16.4101
 20
2.8937
 30
0.0
 10
17.0873
 20
2.7581
 30
0.0
 10
17.4287
 20
3.232
 30
0.0
 10
17.4287
 20
3.232
 30
0.0
 10
17.4788
 20
3.3015
 30
0.0
 10
17.5123
 20
3.371
 30
0.0
 10
17.5449
 20
3.4501
 30
0.0
 10
17.5449
 20
3.4501
 30
0.0
 10
17.5795
 20
3.5345
 30
0.0
 10
17.587
 20
3.6261
 30
0.0
 10
17.5929
 20
3.7158
 30
0.0
  0
SPLINE
  5
D1
330
1F
100
AcDbEntity
  8
Standard layer
 62
   250
370
    30
100
AcDbSpline
210
0.0
220
0.0
230
1.0
 70
     8
 71
     3
 72
    16
 73
    12
 74
     0
 42
0.0000000001
 43
0.0000000001
 40
0.0
 40
0.0
 40
0.0
 40
0.0
 40
0.25
 40
0.25
 40
0.25
 40
0.25
 40
0.5
 40
0.5
 40
0.5
 40
0.5
 40
1.0
 40
1.0
 40
1.0
 40
1.0
 10
7.3785
 20
3.7158
 30
0.0
 10
7.3844
 20
3.6261
 30
0.0
 10
7.3919
 20
3.5342
 30
0.0
 10
7.4266
 20
3.4501
 30
0.0
 10
7.4266
 20
3.4501
 30
0.0
 10
7.4593
 20
3.3707
 30
0.0
 10
7.4931
 20
3.3012
 30
0.0
 10
7.5433
 20
3.2313
 30
0.0
 10
7.5433
 20
3.2313
 30
0.0
 10
7.8837
 20
2.7586
 30
0.0
 10
8.5602
 20
2.8937
 30
0.0
 10
9.0481
 20
2.8937
 30
0.0
  0
SPLINE
  5
D2
330
1F
100
AcDbEntity
  8
Standard layer
 62
   250
370
    30
100
AcDbSpline
210
0.0
220
0.0
230
1.0
 70
    24
 71
     3
 72
    12
 73
     8
 74
     0
 42
0.0000000001
 43
0.0000000001
 40
0.0
 40
0.0
 40
0.0
 40
0.0
 40
0.3333333333333333
 40
0.3333333333333333
 40
0.3333333333333333
 40
0.3333333333333333
 40
1.0
 40
1.0
 40
1.0
 40
1.0
 10
9.0481
 20
2.8937
 30
0.0
 10
9.0481
 20
2.8937
 30
0.0
 10
9.6083
 20
2.8937
 30
0.0
 10
9.6083
 20
2.8937
 30
0.0
 10
9.6083
 20
2.8937
 30
0.0
 10
9.6083
 20
2.8937
 30
0.0
 10
10.4448
 20
2.8937
 30
0.0
 10
10.4448
 20
2.8937
 30
0.0
  0
SPLINE
  5
D3
330
1F
100
AcDbEntity
  8
Standard layer
 62
   250
370
    15
100
AcDbSpline
210
0.0
220
0.0
230
1.0
 70
    24
 71
     3
 72
     8
 73
     4
 74
     0
 42
0.0000000001
 43
0.0000000001
 40
0.0
 40
0.0
 40
0.0
 40
0.0
 40
1.0
 40
1.0
 40
1.0
 40
1.0
 10
11.4282
 20
-4.2153
 30
0.0
 10
11.4282
 20
-4.2153
 30
0.0
 10
13.7259
 20
-4.0534
 30
0.0
 10
13.7259
 20
-4.0534
 30
0.0
  0
SPLINE
  5
D4
330
1F
100
AcDbEntity
  8
Standard layer
 62
   250
370
    15
100
AcDbSpline
210
0.0
220
0.0
230
1.0
 70
    24
 71
     3
 72
     8
 73
     4
 74
     0
 42
0.0000000001
 43
0.0000000001
 40
0.0
 40
0.0
 40
0.0
 40
0.0
 40
1.0
 40
1.0
 40
1.0
 40
1.0
 10
11.4534
 20
-0.6152
 30
0.0
 10
11.4534
 20
-0.6152
 30
0.0
 10
13.7511
 20
-0.4533
 30
0.0
 10
13.7511
 20
-0.4533
 30
0.0
  0
SPLINE
  5
D5
330
1F
100
AcDbEntity
  8
Standard layer
 62
   250
370
    15
100
AcDbSpline
210
0.0
220
0.0
230
1.0
 70
    24
 71
     3
 72
     8
 73
     4
 74
     0
 42
0.0000000001
 43
0.0000000001
 40
0.0
 40
0.0
 40
0.0
 40
0.0
 40
1.0
 40
1.0
 40
1.0
 40
1.0
 10
11.4161
 20
-3.6473
 30
0.0
 10
11.4161
 20
-3.6473
 30
0.0
 10
13.7138
 20
-3.4854
 30
0.0
 10
13.7138
 20
-3.4854
 30
0.0
  0
SPLINE
  5
D6
330
1F
100
AcDbEntity
  8
Standard layer
 62
   250
370
    15
100
AcDbSpline
210
0.0
220
0.0
230
1.0
 70
    24
 71
     3
 72
     8
 73
     4
 74
     0
 42
0.0000000001
 43
0.0000000001
 40
0.0
 40
0.0
 40
0.0
 40
0.0
 40
1.0
 40
1.0
 40
1.0
 40
1.0
 10
11.4413
 20
-0.0472
 30
0.0
 10
11.4413
 20
-0.0472
 30
0.0
 10
13.739
 20
0.1147
 30
0.0
 10
13.739
 20
0.1147
 30
0.0
  0
SPLINE
  5
D7
330
1F
100
AcDbEntity
  8
Standard layer
 62
   250
370
    15
100
AcDbSpline
210
0.0
220
0.0
230
1.0
 70
    24
 71
     3
 72
     8
 73
     4
 74
     0
 42
0.0000000001
 43
0.0000000001
 40
0.0
 40
0.0
 40
0.0
 40
0.0
 40
1.0
 40
1.0
 40
1.0
 40
1.0
 10
11.4753
 20
-3.0062
 30
0.0
 10
11.4753
 20
-3.0062
 30
0.0
 10
13.773
 20
-2.8443
 30
0.0
 10
13.773
 20
-2.8443
 30
0.0
  0
SPLINE
  5
D8
330
1F
100
AcDbEntity
  8
Standard layer
 62
   250
370
    15
100
AcDbSpline
210
0.0
220
0.0
230
1.0
 70
    24
 71
     3
 72
     8
 73
     4
 74
     0
 42
0.0000000001
 43
0.0000000001
 40
0.0
 40
0.0
 40
0.0
 40
0.0
 40
1.0
 40
1.0
 40
1.0
 40
1.0
 10
11.4605
 20
0.5939
 30
0.0
 10
11.4605
 20
0.5939
 30
0.0
 10
13.7582
 20
0.7558
 30
0.0
 10
13.7582
 20
0.7558
 30
0.0
  0
SPLINE
  5
D9
330
1F
100
AcDbEntity
  8
Standard layer
 62
   250
370
    15
100
AcDbSpline
210
0.0
220
0.0
230
1.0
 70
    24
 71
     3
 72
     8
 73
     4
 74
     0
 42
0.0000000001
 43
0.0000000001
 40
0.0
 40
0.0
 40
0.0
 40
0.0
 40
1.0
 40
1.0
 40
1.0
 40
1.0
 10
11.4528
 20
-2.4069
 30
0.0
 10
11.4528
 20
-2.4069
 30
0.0
 10
13.7505
 20
-2.245
 30
0.0
 10
13.7505
 20
-2.245
 30
0.0
  0
SPLINE
  5
DA
330
1F
100
AcDbEntity
  8
Standard layer
 62
   250
370
    15
100
AcDbSpline
210
0.0
220
0.0
230
1.0
 70
    24
 71
     3
 72
     8
 73
     4
 74
     0
 42
0.0000000001
 43
0.0000000001
 40
0.0
 40
0.0
 40
0.0
 40
0.0
 40
1.0
 40
1.0
 40
1.0
 40
1.0
 10
11.438
 20
1.1932
 30
0.0
 10
11.438
 20
1.1932
 30
0.0
 10
13.7357
 20
1.3551
 30
0.0
 10
13.7357
 20
1.3551
 30
0.0
  0
SPLINE
  5
DB
330
1F
100
AcDbEntity
  8
Standard layer
 62
   250
370
    15
100
AcDbSpline
210
0.0
220
0.0
230
1.0
 70
    24
 71
     3
 72
     8
 73
     4
 74
     0
 42
0.0000000001
 43
0.0000000001
 40
0.0
 40
0.0
 40
0.0
 40
0.0
 40
1.0
 40
1.0
 40
1.0
 40
1.0
 10
11.4767
 20
-5.3971
 30
0.0
 10
11.4767
 20
-5.3971
 30
0.0
 10
13.7744
 20
-5.2352
 30
0.0
 10
13.7744
 20
-5.2352
 30
0.0
  0
SPLINE
  5
DC
330
1F
100
AcDbEntity
  8
Standard layer
 62
   250
370
    15
100
AcDbSpline
210
0.0
220
0.0
230
1.0
 70
    24
 71
     3
 72
     8
 73
     4
 74
     0
 42
0.0000000001
 43
0.0000000001
 40
0.0
 40
0.0
 40
0.0
 40
0.0
 40
1.0
 40
1.0
 40
1.0
 40
1.0
 10
11.4719
 20
-1.797
 30
0.0
 10
11.4719
 20
-1.797
 30
0.0
 10
13.7696
 20
-1.6351
 30
0.0
 10
13.7696
 20
-1.6351
 30
0.0
  0
SPLINE
  5
DD
330
1F
100
AcDbEntity
  8
Standard layer
 62
   250
370
    15
100
AcDbSpline
210
0.0
220
0.0
230
1.0
 70
    24
 71
     3
 72
     8
 73
     4
 74
     0
 42
0.0000000001
 43
0.0000000001
 40
0.0
 40
0.0
 40
0.0
 40
0.0
 40
1.0
 40
1.0
 40
1.0
 40
1.0
 10
11.4571
 20
1.8031
 30
0.0
 10
11.4571
 20
1.8031
 30
0.0
 10
13.7548
 20
1.965
 30
0.0
 10
13.7548
 20
1.965
 30
0.0
  0
SPLINE
  5
DE
330
1F
100
AcDbEntity
  8
Standard layer
 62
   250
370
    15
100
AcDbSpline
210
0.0
220
0.0
230
1.0
 70
    24
 71
     3
 72
     8
 73
     4
 74
     0
 42
0.0000000001
 43
0.0000000001
 40
0.0
 40
0.0
 40
0.0
 40
0.0
 40
1.0
 40
1.0
 40
1.0
 40
1.0
 10
11.4647
 20
-4.7978
 30
0.0
 10
11.4647
 20
-4.7978
 30
0.0
 10
13.7624
 20
-4.6359
 30
0.0
 10
13.7624
 20
-4.6359
 30
0.0
  0
SPLINE
  5
DF
330
1F
100
AcDbEntity
  8
Standard layer
 62
   250
370
    15
100
AcDbSpline
210
0.0
220
0.0
230
1.0
 70
    24
 71
     3
 72
     8
 73
     4
 74
     0
 42
0.0000000001
 43
0.0000000001
 40
0.0
 40
0.0
 40
0.0
 40
0.0
 40
1.0
 40
1.0
 40
1.0
 40
1.0
 10
11.4899
 20
-1.1977
 30
0.0
 10
11.4899
 20
-1.1977
 30
0.0
 10
13.7876
 20
-1.0358
 30
0.0
 10
13.7876
 20
-1.0358
 30
0.0
  0
SPLINE
  5
E0
330
1F
100
AcDbEntity
  8
Standard layer
 62
   250
370
    15
100
AcDbSpline
210
0.0
220
0.0
230
1.0
 70
    24
 71
     3
 72
     8
 73
     4
 74
     0
 42
0.0000000001
 43
0.0000000001
 40
0.0
 40
0.0
 40
0.0
 40
0.0
 40
1.0
 40
1.0
 40
1.0
 40
1.0
 10
11.4451
 20
2.4024
 30
0.0
 10
11.4451
 20
2.4024
 30
0.0
 10
13.7428
 20
2.5643
 30
0.0
 10
13.7428
 20
2.5643
 30
0.0
  0
SPLINE
  5
E1
330
1F
100
AcDbEntity
  8
Standard layer
 62
   250
370
    30
100
AcDbSpline
210
0.0
220
0.0
230
1.0
 70
    24
 71
     3
 72
     8
 73
     4
 74
     0
 42
0.0000000001
 43
0.0000000001
 40
0.0
 40
0.0
 40
0.0
 40
0.0
 40
1.0
 40
1.0
 40
1.0
 40
1.0
 10
11.6402
 20
-6.1496
 30
0.0
 10
11.6402
 20
-6.1496
 30
0.0
 10
11.2758
 20
-5.7846
 30
0.0
 10
11.2758
 20
-5.7846
 30
0.0
  0
SPLINE
  5
E2
330
1F
100
AcDbEntity
  8
Standard layer
 62
   250
370
    30
100
AcDbSpline
210
0.0
220
0.0
230
1.0
 70
     8
 71
     3
 72
    12
 73
     8
 74
     0
 42
0.0000000001
 43
0.0000000001
 40
0.0
 40
0.0
 40
0.0
 40
0.0
 40
0.3333333333333333
 40
0.3333333333333333
 40
0.3333333333333333
 40
0.3333333333333333
 40
1.0
 40
1.0
 40
1.0
 40
1.0
 10
11.6842
 20
-6.1785
 30
0.0
 10
11.6842
 20
-6.1785
 30
0.0
 10
13.5321
 20
-6.1496
 30
0.0
 10
13.5321
 20
-6.1496
 30
0.0
 10
13.5321
 20
-6.1496
 30
0.0
 10
13.5321
 20
-6.1496
 30
0.0
 10
13.7737
 20
-5.9145
 30
0.0
 10
13.7737
 20
-5.9145
 30
0.0
  0
SPLINE
  5
E3
330
1F
100
AcDbEntity
  8
Standard layer
 62
   250
370
    30
100
AcDbSpline
210
0.0
220
0.0
230
1.0
 70
    11
 71
     3
 72
    20
 73
    16
 74
     0
 42
0.0000000001
 43
0.0000000001
 40
0.0
 40
0.0
 40
0.0
 40
0.0
 40
0.2
 40
0.2
 40
0.2
 40
0.2
 40
0.4
 40
0.4
 40
0.4
 40
0.4
 40
0.6
 40
0.6
 40
0.6
 40
0.6
 40
1.0
 40
1.0
 40
1.0
 40
1.0
 10
11.2812
 20
2.8942
 30
0.0
 10
11.2812
 20
2.8942
 30
0.0
 10
13.7742
 20
2.8942
 30
0.0
 10
13.7742
 20
2.8942
 30
0.0
 10
13.7742
 20
2.8942
 30
0.0
 10
13.7742
 20
2.8942
 30
0.0
 10
13.7742
 20
-5.7957
 30
0.0
 10
13.7742
 20
-5.7957
 30
0.0
 10
13.7742
 20
-5.7957
 30
0.0
 10
13.7742
 20
-5.7957
 30
0.0
 10
11.2812
 20
-5.7957
 30
0.0
 10
11.2812
 20
-5.7957
 30
0.0
 10
11.2812
 20
-5.7957
 30
0.0
 10
11.2812
 20
-5.7957
 30
0.0
 10
11.2812
 20
2.8942
 30
0.0
 10
11.2812
 20
2.8942
 30
0.0
  0
SPLINE
  5
E4
330
1F
100
AcDbEntity
  8
Standard layer
 62
   250
370
    30
100
AcDbSpline
210
0.0
220
0.0
230
1.0
 70
    11
 71
     3
 72
    20
 73
    16
 74
     0
 42
0.0000000001
 43
0.0000000001
 40
0.0
 40
0.0
 40
0.0
 40
0.0
 40
0.2
 40
0.2
 40
0.2
 40
0.2
 40
0.4
 40
0.4
 40
0.4
 40
0.4
 40
0.6
 40
0.6
 40
0.6
 40
0.6
 40
1.0
 40
1.0
 40
1.0
 40
1.0
 10
17.7778
 20
16.8421
 30
0.0
 10
17.7778
 20
16.8421
 30
0.0
 10
7.2605
 20
16.8421
 30
0.0
 10
7.2605
 20
16.8421
 30
0.0
 10
7.2605
 20
16.8421
 30
0.0
 10
7.2605
 20
16.8421
 30
0.0
 10
7.2605
 20
16.0649
 30
0.0
 10
7.2605
 20
16.0649
 30
0.0
 10
7.2605
 20
16.0649
 30
0.0
 10
7.2605
 20
16.0649
 30
0.0
 10
17.7778
 20
16.0649
 30
0.0
 10
17.7778
 20
16.0649
 30
0.0
 10
17.7778
 20
16.0649
 30
0.0
 10
17.7778
 20
16.0649
 30
0.0
 10
17.7778
 20
16.8421
 30
0.0
 10
17.7778
 20
16.8421
 30
0.0
  0
SPLINE
  5
E5
330
1F
100
AcDbEntity
  8
Standard layer
 62
   250
370
    30
100
AcDbSpline
210
0.0
220
0.0
230
1.0
 70
    11
 71
     3
 72
    20
 73
    16
 74
     0
 42
0.0000000001
 43
0.0000000001
 40
0.0
 40
0.0
 40
0.0
 40
0.0
 40
0.2
 40
0.2
 40
0.2
 40
0.2
 40
0.4
 40
0.4
 40
0.4
 40
0.4
 40
0.6
 40
0.6
 40
0.6
 40
0.6
 40
1.0
 40
1.0
 40
1.0
 40
1.0
 10
-5.1981
 20
-22.5485
 30
0.0
 10
-5.1981
 20
-17.397
 30
0.0
 10
-9.3742
 20
-13.2209
 30
0.0
 10
-14.5257
 20
-13.2209
 30
0.0
 10
-14.5257
 20
-13.2209
 30
0.0
 10
-19.6771
 20
-13.2209
 30
0.0
 10
-23.8533
 20
-17.397
 30
0.0
 10
-23.8533
 20
-22.5485
 30
0.0
 10
-23.8533
 20
-22.5485
 30
0.0
 10
-23.8533
 20
-27.7
 30
0.0
 10
-19.6771
 20
-31.8761
 30
0.0
 10
-14.5257
 20
-31.8761
 30
0.0
 10
-14.5257
 20
-31.8761
 30
0.0
 10
-9.3742
 20
-31.8761
 30
0.0
 10
-5.1981
 20
-27.7
 30
0.0
 10
-5.1981
 20
-22.5485
 30
0.0
  0
SPLINE
  5
E6
330
1F
100
AcDbEntity
  8
Standard layer
  6
New Line1
 62
   250
370
    15
100
AcDbSpline
210
0.0
220
0.0
230
1.0
 70
     8
 71
     3
 72
    12
 73
     8
 74
     0
 42
0.0000000001
 43
0.0000000001
 40
0.0
 40
0.0
 40
0.0
 40
0.0
 40
0.3333333333333333
 40
0.3333333333333333
 40
0.3333333333333333
 40
0.3333333333333333
 40
1.0
 40
1.0
 40
1.0
 40
1.0
 10
-8.8772
 20
-22.1429
 30
0.0
 10
-9.0788
 20
-20.7462
 30
0.0
 10
-10.2756
 20
-19.7097
 30
0.0
 10
-11.6868
 20
-19.7097
 30
0.0
 10
-11.6868
 20
-19.7097
 30
0.0
 10
-13.098
 20
-19.7097
 30
0.0
 10
-14.295
 20
-20.7462
 30
0.0
 10
-14.4966
 20
-22.1429
 30
0.0
  0
SPLINE
  5
E8
330
1F
100
AcDbEntity
  8
Standard layer
  6
New Line2
 62
   250
370
    15
100
AcDbSpline
210
0.0
220
0.0
230
1.0
 70
     8
 71
     3
 72
    12
 73
     8
 74
     0
 42
0.0000000001
 43
0.0000000001
 40
0.0
 40
0.0
 40
0.0
 40
0.0
 40
0.3333333333333333
 40
0.3333333333333333
 40
0.3333333333333333
 40
0.3333333333333333
 40
1.0
 40
1.0
 40
1.0
 40
1.0
 10
-14.4966
 20
-22.954
 30
0.0
 10
-14.295
 20
-24.3508
 30
0.0
 10
-13.098
 20
-25.3873
 30
0.0
 10
-11.6868
 20
-25.3873
 30
0.0
 10
-11.6868
 20
-25.3873
 30
0.0
 10
-10.2756
 20
-25.3873
 30
0.0
 10
-9.0788
 20
-24.3508
 30
0.0
 10
-8.8772
 20
-22.954
 30
0.0
  0
SPLINE
  5
EA
330
1F
100
AcDbEntity
  8
Standard layer
 62
   250
370
    30
100
AcDbSpline
210
0.0
220
0.0
230
1.0
 70
    11
 71
     3
 72
    20
 73
    16
 74
     0
 42
0.0000000001
 43
0.0000000001
 40
0.0
 40
0.0
 40
0.0
 40
0.0
 40
0.2
 40
0.2
 40
0.2
 40
0.2
 40
0.4
 40
0.4
 40
0.4
 40
0.4
 40
0.6
 40
0.6
 40
0.6
 40
0.6
 40
1.0
 40
1.0
 40
1.0
 40
1.0
 10
-17.7701
 20
-22.5485
 30
0.0
 10
-17.7701
 20
-21.6526
 30
0.0
 10
-18.4963
 20
-20.9263
 30
0.0
 10
-19.3923
 20
-20.9263
 30
0.0
 10
-19.3923
 20
-20.9263
 30
0.0
 10
-20.2881
 20
-20.9263
 30
0.0
 10
-21.0144
 20
-21.6526
 30
0.0
 10
-21.0144
 20
-22.5485
 30
0.0
 10
-21.0144
 20
-22.5485
 30
0.0
 10
-21.0144
 20
-23.4444
 30
0.0
 10
-20.2881
 20
-24.1707
 30
0.0
 10
-19.3923
 20
-24.1707
 30
0.0
 10
-19.3923
 20
-24.1707
 30
0.0
 10
-18.4963
 20
-24.1707
 30
0.0
 10
-17.7701
 20
-23.4444
 30
0.0
 10
-17.7701
 20
-22.5485
 30
0.0
  0
SPLINE
  5
EB
330
1F
100
AcDbEntity
  8
Standard layer
 62
   250
370
    30
100
AcDbSpline
210
0.0
220
0.0
230
1.0
 70
    11
 71
     3
 72
    20
 73
    16
 74
     0
 42
0.0000000001
 43
0.0000000001
 40
0.0
 40
0.0
 40
0.0
 40
0.0
 40
0.2
 40
0.2
 40
0.2
 40
0.2
 40
0.4
 40
0.4
 40
0.4
 40
0.4
 40
0.6
 40
0.6
 40
0.6
 40
0.6
 40
1.0
 40
1.0
 40
1.0
 40
1.0
 10
-18.3784
 20
-22.5485
 30
0.0
 10
-18.3784
 20
-21.9886
 30
0.0
 10
-18.8323
 20
-21.5346
 30
0.0
 10
-19.3923
 20
-21.5346
 30
0.0
 10
-19.3923
 20
-21.5346
 30
0.0
 10
-19.9522
 20
-21.5346
 30
0.0
 10
-20.4061
 20
-21.9886
 30
0.0
 10
-20.4061
 20
-22.5485
 30
0.0
 10
-20.4061
 20
-22.5485
 30
0.0
 10
-20.4061
 20
-23.1084
 30
0.0
 10
-19.9522
 20
-23.5624
 30
0.0
 10
-19.3923
 20
-23.5624
 30
0.0
 10
-19.3923
 20
-23.5624
 30
0.0
 10
-18.8323
 20
-23.5624
 30
0.0
 10
-18.3784
 20
-23.1084
 30
0.0
 10
-18.3784
 20
-22.5485
 30
0.0
  0
SPLINE
  5
EC
330
1F
100
AcDbEntity
  8
Standard layer
  6
New Line3
 62
   250
370
    15
100
AcDbSpline
210
0.0
220
0.0
230
1.0
 70
    11
 71
     3
 72
    20
 73
    16
 74
     0
 42
0.0000000001
 43
0.0000000001
 40
0.0
 40
0.0
 40
0.0
 40
0.0
 40
0.2
 40
0.2
 40
0.2
 40
0.2
 40
0.4
 40
0.4
 40
0.4
 40
0.4
 40
0.6
 40
0.6
 40
0.6
 40
0.6
 40
1.0
 40
1.0
 40
1.0
 40
1.0
 10
-10.0647
 20
-22.5485
 30
0.0
 10
-10.0647
 20
-21.6526
 30
0.0
 10
-10.7909
 20
-20.9263
 30
0.0
 10
-11.6868
 20
-20.9263
 30
0.0
 10
-11.6868
 20
-20.9263
 30
0.0
 10
-12.5827
 20
-20.9263
 30
0.0
 10
-13.309
 20
-21.6526
 30
0.0
 10
-13.309
 20
-22.5485
 30
0.0
 10
-13.309
 20
-22.5485
 30
0.0
 10
-13.309
 20
-23.4444
 30
0.0
 10
-12.5827
 20
-24.1707
 30
0.0
 10
-11.6868
 20
-24.1707
 30
0.0
 10
-11.6868
 20
-24.1707
 30
0.0
 10
-10.7909
 20
-24.1707
 30
0.0
 10
-10.0647
 20
-23.4444
 30
0.0
 10
-10.0647
 20
-22.5485
 30
0.0
  0
SPLINE
  5
EE
330
1F
100
AcDbEntity
  8
Standard layer
  6
New Line4
 62
   250
370
    15
100
AcDbSpline
210
0.0
220
0.0
230
1.0
 70
    11
 71
     3
 72
    20
 73
    16
 74
     0
 42
0.0000000001
 43
0.0000000001
 40
0.0
 40
0.0
 40
0.0
 40
0.0
 40
0.2
 40
0.2
 40
0.2
 40
0.2
 40
0.4
 40
0.4
 40
0.4
 40
0.4
 40
0.6
 40
0.6
 40
0.6
 40
0.6
 40
1.0
 40
1.0
 40
1.0
 40
1.0
 10
-10.4702
 20
-22.5485
 30
0.0
 10
-10.4702
 20
-21.8766
 30
0.0
 10
-11.0149
 20
-21.3318
 30
0.0
 10
-11.6868
 20
-21.3318
 30
0.0
 10
-11.6868
 20
-21.3318
 30
0.0
 10
-12.3587
 20
-21.3318
 30
0.0
 10
-12.9035
 20
-21.8766
 30
0.0
 10
-12.9035
 20
-22.5485
 30
0.0
 10
-12.9035
 20
-22.5485
 30
0.0
 10
-12.9035
 20
-23.2204
 30
0.0
 10
-12.3587
 20
-23.7651
 30
0.0
 10
-11.6868
 20
-23.7651
 30
0.0
 10
-11.6868
 20
-23.7651
 30
0.0
 10
-11.0149
 20
-23.7651
 30
0.0
 10
-10.4702
 20
-23.2204
 30
0.0
 10
-10.4702
 20
-22.5485
 30
0.0
  0
SPLINE
  5
F0
330
1F
100
AcDbEntity
  8
Standard layer
  6
New Line5
 62
   250
370
    15
100
AcDbSpline
210
0.0
220
0.0
230
1.0
 70
    24
 71
     3
 72
     8
 73
     4
 74
     0
 42
0.0000000001
 43
0.0000000001
 40
0.0
 40
0.0
 40
0.0
 40
0.0
 40
1.0
 40
1.0
 40
1.0
 40
1.0
 10
-10.8887
 20
-21.1291
 30
0.0
 10
-10.8887
 20
-21.1291
 30
0.0
 10
-9.6633
 20
-21.1291
 30
0.0
 10
-9.6633
 20
-21.1291
 30
0.0
  0
SPLINE
  5
F2
330
1F
100
AcDbEntity
  8
Standard layer
  6
New Line6
 62
   250
370
    15
100
AcDbSpline
210
0.0
220
0.0
230
1.0
 70
    24
 71
     3
 72
     8
 73
     4
 74
     0
 42
0.0000000001
 43
0.0000000001
 40
0.0
 40
0.0
 40
0.0
 40
0.0
 40
1.0
 40
1.0
 40
1.0
 40
1.0
 10
-9.6607
 20
-23.9681
 30
0.0
 10
-9.6607
 20
-23.9681
 30
0.0
 10
-10.8854
 20
-23.9681
 30
0.0
 10
-10.8854
 20
-23.9681
 30
0.0
  0
SPLINE
  5
F4
330
1F
100
AcDbEntity
  8
Standard layer
  6
New Line7
 62
   250
370
    15
100
AcDbSpline
210
0.0
220
0.0
230
1.0
 70
    24
 71
     3
 72
     8
 73
     4
 74
     0
 42
0.0000000001
 43
0.0000000001
 40
0.0
 40
0.0
 40
0.0
 40
0.0
 40
1.0
 40
1.0
 40
1.0
 40
1.0
 10
-9.6591
 20
-25.3873
 30
0.0
 10
-9.6591
 20
-25.3873
 30
0.0
 10
-14.5257
 20
-25.3873
 30
0.0
 10
-14.5257
 20
-25.3873
 30
0.0
  0
SPLINE
  5
F6
330
1F
100
AcDbEntity
  8
Standard layer
  6
New Line8
 62
   250
370
    15
100
AcDbSpline
210
0.0
220
0.0
230
1.0
 70
    24
 71
     3
 72
     8
 73
     4
 74
     0
 42
0.0000000001
 43
0.0000000001
 40
0.0
 40
0.0
 40
0.0
 40
0.0
 40
1.0
 40
1.0
 40
1.0
 40
1.0
 10
-12.4912
 20
-23.968
 30
0.0
 10
-12.4912
 20
-23.968
 30
0.0
 10
-14.5257
 20
-23.968
 30
0.0
 10
-14.5257
 20
-23.968
 30
0.0
  0
SPLINE
  5
F8
330
1F
100
AcDbEntity
  8
Standard layer
  6
New Line9
 62
   250
370
    15
100
AcDbSpline
210
0.0
220
0.0
230
1.0
 70
    24
 71
     3
 72
     8
 73
     4
 74
     0
 42
0.0000000001
 43
0.0000000001
 40
0.0
 40
0.0
 40
0.0
 40
0.0
 40
1.0
 40
1.0
 40
1.0
 40
1.0
 10
-11.4841
 20
-23.3596
 30
0.0
 10
-11.4841
 20
-23.3596
 30
0.0
 10
-11.8896
 20
-23.3596
 30
0.0
 10
-11.8896
 20
-23.3596
 30
0.0
  0
SPLINE
  5
FA
330
1F
100
AcDbEntity
  8
Standard layer
  6
New Line10
 62
   250
370
    15
100
AcDbSpline
210
0.0
220
0.0
230
1.0
 70
    24
 71
     3
 72
     8
 73
     4
 74
     0
 42
0.0000000001
 43
0.0000000001
 40
0.0
 40
0.0
 40
0.0
 40
0.0
 40
1.0
 40
1.0
 40
1.0
 40
1.0
 10
-10.8757
 20
-22.7513
 30
0.0
 10
-10.8757
 20
-22.7513
 30
0.0
 10
-11.4841
 20
-22.7513
 30
0.0
 10
-11.4841
 20
-22.7513
 30
0.0
  0
SPLINE
  5
FC
330
1F
100
AcDbEntity
  8
Standard layer
  6
New Line11
 62
   250
370
    15
100
AcDbSpline
210
0.0
220
0.0
230
1.0
 70
    24
 71
     3
 72
     8
 73
     4
 74
     0
 42
0.0000000001
 43
0.0000000001
 40
0.0
 40
0.0
 40
0.0
 40
0.0
 40
1.0
 40
1.0
 40
1.0
 40
1.0
 10
-11.8896
 20
-22.7513
 30
0.0
 10
-11.8896
 20
-22.7513
 30
0.0
 10
-12.4979
 20
-22.7513
 30
0.0
 10
-12.4979
 20
-22.7513
 30
0.0
  0
SPLINE
  5
FE
330
1F
100
AcDbEntity
  8
Standard layer
  6
New Line12
 62
   250
370
    15
100
AcDbSpline
210
0.0
220
0.0
230
1.0
 70
    24
 71
     3
 72
     8
 73
     4
 74
     0
 42
0.0000000001
 43
0.0000000001
 40
0.0
 40
0.0
 40
0.0
 40
0.0
 40
1.0
 40
1.0
 40
1.0
 40
1.0
 10
-12.4979
 20
-22.3457
 30
0.0
 10
-12.4979
 20
-22.3457
 30
0.0
 10
-11.8896
 20
-22.3457
 30
0.0
 10
-11.8896
 20
-22.3457
 30
0.0
  0
SPLINE
  5
100
330
1F
100
AcDbEntity
  8
Standard layer
  6
New Line13
 62
   250
370
    15
100
AcDbSpline
210
0.0
220
0.0
230
1.0
 70
    24
 71
     3
 72
     8
 73
     4
 74
     0
 42
0.0000000001
 43
0.0000000001
 40
0.0
 40
0.0
 40
0.0
 40
0.0
 40
1.0
 40
1.0
 40
1.0
 40
1.0
 10
-11.4841
 20
-22.3457
 30
0.0
 10
-11.4841
 20
-22.3457
 30
0.0
 10
-10.8757
 20
-22.3457
 30
0.0
 10
-10.8757
 20
-22.3457
 30
0.0
  0
SPLINE
  5
102
330
1F
100
AcDbEntity
  8
Standard layer
  6
New Line14
 62
   250
370
    15
100
AcDbSpline
210
0.0
220
0.0
230
1.0
 70
    24
 71
     3
 72
     8
 73
     4
 74
     0
 42
0.0000000001
 43
0.0000000001
 40
0.0
 40
0.0
 40
0.0
 40
0.0
 40
1.0
 40
1.0
 40
1.0
 40
1.0
 10
-11.8896
 20
-21.7374
 30
0.0
 10
-11.8896
 20
-21.7374
 30
0.0
 10
-11.4841
 20
-21.7374
 30
0.0
 10
-11.4841
 20
-21.7374
 30
0.0
  0
SPLINE
  5
104
330
1F
100
AcDbEntity
  8
Standard layer
  6
New Line15
 62
   250
370
    15
100
AcDbSpline
210
0.0
220
0.0
230
1.0
 70
    24
 71
     3
 72
     8
 73
     4
 74
     0
 42
0.0000000001
 43
0.0000000001
 40
0.0
 40
0.0
 40
0.0
 40
0.0
 40
1.0
 40
1.0
 40
1.0
 40
1.0
 10
-14.5257
 20
-21.1291
 30
0.0
 10
-14.5257
 20
-21.1291
 30
0.0
 10
-12.4839
 20
-21.1291
 30
0.0
 10
-12.4839
 20
-21.1291
 30
0.0
  0
SPLINE
  5
106
330
1F
100
AcDbEntity
  8
Standard layer
  6
New Line16
 62
   250
370
    15
100
AcDbSpline
210
0.0
220
0.0
230
1.0
 70
    24
 71
     3
 72
     8
 73
     4
 74
     0
 42
0.0000000001
 43
0.0000000001
 40
0.0
 40
0.0
 40
0.0
 40
0.0
 40
1.0
 40
1.0
 40
1.0
 40
1.0
 10
-12.4979
 20
-22.7513
 30
0.0
 10
-12.4979
 20
-22.7513
 30
0.0
 10
-12.4979
 20
-22.3457
 30
0.0
 10
-12.4979
 20
-22.3457
 30
0.0
  0
SPLINE
  5
108
330
1F
100
AcDbEntity
  8
Standard layer
  6
New Line17
 62
   250
370
    15
100
AcDbSpline
210
0.0
220
0.0
230
1.0
 70
    24
 71
     3
 72
     8
 73
     4
 74
     0
 42
0.0000000001
 43
0.0000000001
 40
0.0
 40
0.0
 40
0.0
 40
0.0
 40
1.0
 40
1.0
 40
1.0
 40
1.0
 10
-11.8896
 20
-23.3596
 30
0.0
 10
-11.8896
 20
-23.3596
 30
0.0
 10
-11.8896
 20
-22.7513
 30
0.0
 10
-11.8896
 20
-22.7513
 30
0.0
  0
SPLINE
  5
10A
330
1F
100
AcDbEntity
  8
Standard layer
  6
New Line18
 62
   250
370
    15
100
AcDbSpline
210
0.0
220
0.0
230
1.0
 70
    24
 71
     3
 72
     8
 73
     4
 74
     0
 42
0.0000000001
 43
0.0000000001
 40
0.0
 40
0.0
 40
0.0
 40
0.0
 40
1.0
 40
1.0
 40
1.0
 40
1.0
 10
-11.8896
 20
-22.3457
 30
0.0
 10
-11.8896
 20
-22.3457
 30
0.0
 10
-11.8896
 20
-21.7374
 30
0.0
 10
-11.8896
 20
-21.7374
 30
0.0
  0
SPLINE
  5
10C
330
1F
100
AcDbEntity
  8
Standard layer
  6
New Line19
 62
   250
370
    15
100
AcDbSpline
210
0.0
220
0.0
230
1.0
 70
    24
 71
     3
 72
     8
 73
     4
 74
     0
 42
0.0000000001
 43
0.0000000001
 40
0.0
 40
0.0
 40
0.0
 40
0.0
 40
1.0
 40
1.0
 40
1.0
 40
1.0
 10
-11.4841
 20
-21.7374
 30
0.0
 10
-11.4841
 20
-21.7374
 30
0.0
 10
-11.4841
 20
-22.3457
 30
0.0
 10
-11.4841
 20
-22.3457
 30
0.0
  0
SPLINE
  5
10E
330
1F
100
AcDbEntity
  8
Standard layer
  6
New Line20
 62
   250
370
    15
100
AcDbSpline
210
0.0
220
0.0
230
1.0
 70
    24
 71
     3
 72
     8
 73
     4
 74
     0
 42
0.0000000001
 43
0.0000000001
 40
0.0
 40
0.0
 40
0.0
 40
0.0
 40
1.0
 40
1.0
 40
1.0
 40
1.0
 10
-11.4841
 20
-22.7513
 30
0.0
 10
-11.4841
 20
-22.7513
 30
0.0
 10
-11.4841
 20
-23.3596
 30
0.0
 10
-11.4841
 20
-23.3596
 30
0.0
  0
SPLINE
  5
110
330
1F
100
AcDbEntity
  8
Standard layer
  6
New Line21
 62
   250
370
    15
100
AcDbSpline
210
0.0
220
0.0
230
1.0
 70
    24
 71
     3
 72
     8
 73
     4
 74
     0
 42
0.0000000001
 43
0.0000000001
 40
0.0
 40
0.0
 40
0.0
 40
0.0
 40
1.0
 40
1.0
 40
1.0
 40
1.0
 10
-14.5257
 20
-19.7097
 30
0.0
 10
-14.5257
 20
-19.7097
 30
0.0
 10
-9.6591
 20
-19.7097
 30
0.0
 10
-9.6591
 20
-19.7097
 30
0.0
  0
SPLINE
  5
112
330
1F
100
AcDbEntity
  8
Standard layer
  6
New Line22
 62
   250
370
    15
100
AcDbSpline
210
0.0
220
0.0
230
1.0
 70
    24
 71
     3
 72
     8
 73
     4
 74
     0
 42
0.0000000001
 43
0.0000000001
 40
0.0
 40
0.0
 40
0.0
 40
0.0
 40
1.0
 40
1.0
 40
1.0
 40
1.0
 10
-10.8757
 20
-22.3457
 30
0.0
 10
-10.8757
 20
-22.3457
 30
0.0
 10
-10.8757
 20
-22.7513
 30
0.0
 10
-10.8757
 20
-22.7513
 30
0.0
  0
SPLINE
  5
114
330
1F
100
AcDbEntity
  8
Standard layer
  6
New Line23
 62
   250
370
    15
100
AcDbSpline
210
0.0
220
0.0
230
1.0
 70
     8
 71
     3
 72
    12
 73
     8
 74
     0
 42
0.0000000001
 43
0.0000000001
 40
0.0
 40
0.0
 40
0.0
 40
0.0
 40
0.3333333333333333
 40
0.3333333333333333
 40
0.3333333333333333
 40
0.3333333333333333
 40
1.0
 40
1.0
 40
1.0
 40
1.0
 10
-14.5257
 20
-19.7097
 30
0.0
 10
-16.0935
 20
-19.7097
 30
0.0
 10
-17.3645
 20
-20.9806
 30
0.0
 10
-17.3645
 20
-22.5485
 30
0.0
 10
-17.3645
 20
-22.5485
 30
0.0
 10
-17.3645
 20
-24.1163
 30
0.0
 10
-16.0935
 20
-25.3873
 30
0.0
 10
-14.5257
 20
-25.3873
 30
0.0
  0
SPLINE
  5
116
330
1F
100
AcDbEntity
  8
Standard layer
  6
New Line24
 62
   250
370
    15
100
AcDbSpline
210
0.0
220
0.0
230
1.0
 70
     8
 71
     3
 72
    12
 73
     8
 74
     0
 42
0.0000000001
 43
0.0000000001
 40
0.0
 40
0.0
 40
0.0
 40
0.0
 40
0.3333333333333333
 40
0.3333333333333333
 40
0.3333333333333333
 40
0.3333333333333333
 40
1.0
 40
1.0
 40
1.0
 40
1.0
 10
-14.5257
 20
-21.1291
 30
0.0
 10
-15.3096
 20
-21.1291
 30
0.0
 10
-15.9451
 20
-21.7646
 30
0.0
 10
-15.9451
 20
-22.5485
 30
0.0
 10
-15.9451
 20
-22.5485
 30
0.0
 10
-15.9451
 20
-23.3324
 30
0.0
 10
-15.3096
 20
-23.9679
 30
0.0
 10
-14.5257
 20
-23.9679
 30
0.0
  0
SPLINE
  5
118
330
1F
100
AcDbEntity
  8
Standard layer
  6
New Line25
 62
   250
370
    15
100
AcDbSpline
210
0.0
220
0.0
230
1.0
 70
     8
 71
     3
 72
    12
 73
     8
 74
     0
 42
0.0000000001
 43
0.0000000001
 40
0.0
 40
0.0
 40
0.0
 40
0.0
 40
0.3333333333333333
 40
0.3333333333333333
 40
0.3333333333333333
 40
0.3333333333333333
 40
1.0
 40
1.0
 40
1.0
 40
1.0
 10
-9.6591
 20
-25.3873
 30
0.0
 10
-8.0913
 20
-25.3873
 30
0.0
 10
-6.8203
 20
-24.1163
 30
0.0
 10
-6.8203
 20
-22.5485
 30
0.0
 10
-6.8203
 20
-22.5485
 30
0.0
 10
-6.8203
 20
-20.9806
 30
0.0
 10
-8.0913
 20
-19.7097
 30
0.0
 10
-9.6591
 20
-19.7097
 30
0.0
  0
SPLINE
  5
11A
330
1F
100
AcDbEntity
  8
Standard layer
  6
New Line26
 62
   250
370
    15
100
AcDbSpline
210
0.0
220
0.0
230
1.0
 70
     8
 71
     3
 72
    12
 73
     8
 74
     0
 42
0.0000000001
 43
0.0000000001
 40
0.0
 40
0.0
 40
0.0
 40
0.0
 40
0.3333333333333333
 40
0.3333333333333333
 40
0.3333333333333333
 40
0.3333333333333333
 40
1.0
 40
1.0
 40
1.0
 40
1.0
 10
-9.6591
 20
-23.9679
 30
0.0
 10
-8.8752
 20
-23.9679
 30
0.0
 10
-8.2397
 20
-23.3324
 30
0.0
 10
-8.2397
 20
-22.5485
 30
0.0
 10
-8.2397
 20
-22.5485
 30
0.0
 10
-8.2397
 20
-21.7646
 30
0.0
 10
-8.8752
 20
-21.1291
 30
0.0
 10
-9.6591
 20
-21.1291
 30
0.0
  0
SPLINE
  5
11C
330
1F
100
AcDbEntity
  8
Standard layer
 62
   250
370
    30
100
AcDbSpline
210
0.0
220
0.0
230
1.0
 70
    11
 71
     3
 72
    20
 73
    16
 74
     0
 42
0.0000000001
 43
0.0000000001
 40
0.0
 40
0.0
 40
0.0
 40
0.0
 40
0.2
 40
0.2
 40
0.2
 40
0.2
 40
0.4
 40
0.4
 40
0.4
 40
0.4
 40
0.6
 40
0.6
 40
0.6
 40
0.6
 40
1.0
 40
1.0
 40
1.0
 40
1.0
 10
-5.6036
 20
-22.5485
 30
0.0
 10
-5.6036
 20
-17.621
 30
0.0
 10
-9.5982
 20
-13.6264
 30
0.0
 10
-14.5257
 20
-13.6264
 30
0.0
 10
-14.5257
 20
-13.6264
 30
0.0
 10
-19.4532
 20
-13.6264
 30
0.0
 10
-23.4477
 20
-17.621
 30
0.0
 10
-23.4477
 20
-22.5485
 30
0.0
 10
-23.4477
 20
-22.5485
 30
0.0
 10
-23.4477
 20
-27.476
 30
0.0
 10
-19.4532
 20
-31.4706
 30
0.0
 10
-14.5257
 20
-31.4706
 30
0.0
 10
-14.5257
 20
-31.4706
 30
0.0
 10
-9.5982
 20
-31.4706
 30
0.0
 10
-5.6036
 20
-27.476
 30
0.0
 10
-5.6036
 20
-22.5485
 30
0.0
  0
SPLINE
  5
11D
330
1F
100
AcDbEntity
  8
Standard layer
 62
   250
370
    15
100
AcDbSpline
210
0.0
220
0.0
230
1.0
 70
    24
 71
     3
 72
     8
 73
     4
 74
     0
 42
0.0000000001
 43
0.0000000001
 40
0.0
 40
0.0
 40
0.0
 40
0.0
 40
1.0
 40
1.0
 40
1.0
 40
1.0
 10
-23.3573
 20
27.6841
 30
0.0
 10
-23.3573
 20
27.6841
 30
0.0
 10
-11.98
 20
27.6841
 30
0.0
 10
-11.98
 20
27.6841
 30
0.0
  0
SPLINE
  5
11E
330
1F
100
AcDbEntity
  8
Standard layer
 62
   250
370
    15
100
AcDbSpline
210
0.0
220
0.0
230
1.0
 70
    24
 71
     3
 72
     8
 73
     4
 74
     0
 42
0.0000000001
 43
0.0000000001
 40
0.0
 40
0.0
 40
0.0
 40
0.0
 40
1.0
 40
1.0
 40
1.0
 40
1.0
 10
-18.7247
 20
-11.458
 30
0.0
 10
-18.7247
 20
-11.458
 30
0.0
 10
-5.0636
 20
-11.458
 30
0.0
 10
-5.0636
 20
-11.458
 30
0.0
  0
SPLINE
  5
11F
330
1F
100
AcDbEntity
  8
Standard layer
 62
   250
370
    15
100
AcDbSpline
210
0.0
220
0.0
230
1.0
 70
    24
 71
     3
 72
     8
 73
     4
 74
     0
 42
0.0000000001
 43
0.0000000001
 40
0.0
 40
0.0
 40
0.0
 40
0.0
 40
1.0
 40
1.0
 40
1.0
 40
1.0
 10
-17.3547
 20
12.6318
 30
0.0
 10
-17.3547
 20
12.6318
 30
0.0
 10
-6.2532
 20
12.6318
 30
0.0
 10
-6.2532
 20
12.6318
 30
0.0
  0
SPLINE
  5
120
330
1F
100
AcDbEntity
  8
Standard layer
 62
   250
370
    15
100
AcDbSpline
210
0.0
220
0.0
230
1.0
 70
    24
 71
     3
 72
     8
 73
     4
 74
     0
 42
0.0000000001
 43
0.0000000001
 40
0.0
 40
0.0
 40
0.0
 40
0.0
 40
1.0
 40
1.0
 40
1.0
 40
1.0
 10
-26.917
 20
-10.2968
 30
0.0
 10
-26.917
 20
-10.2968
 30
0.0
 10
-6.49
 20
-30.7238
 30
0.0
 10
-6.49
 20
-30.7238
 30
0.0
  0
SPLINE
  5
121
330
1F
100
AcDbEntity
  8
Standard layer
 62
   250
100
AcDbSpline
210
0.0
220
0.0
230
1.0
 70
    11
 71
     3
 72
   104
 73
   100
 74
     0
 42
0.0000000001
 43
0.0000000001
 40
0.0
 40
0.0
 40
0.0
 40
0.0
 40
0.0384615384615385
 40
0.0384615384615385
 40
0.0384615384615385
 40
0.0384615384615385
 40
0.0769230769230769
 40
0.0769230769230769
 40
0.0769230769230769
 40
0.0769230769230769
 40
0.1153846153846154
 40
0.1153846153846154
 40
0.1153846153846154
 40
0.1153846153846154
 40
0.1538461538461539
 40
0.1538461538461539
 40
0.1538461538461539
 40
0.1538461538461539
 40
0.1923076923076923
 40
0.1923076923076923
 40
0.1923076923076923
 40
0.1923076923076923
 40
0.2307692307692308
 40
0.2307692307692308
 40
0.2307692307692308
 40
0.2307692307692308
 40
0.2692307692307692
 40
0.2692307692307692
 40
0.2692307692307692
 40
0.2692307692307692
 40
0.3076923076923077
 40
0.3076923076923077
 40
0.3076923076923077
 40
0.3076923076923077
 40
0.3461538461538461
 40
0.3461538461538461
 40
0.3461538461538461
 40
0.3461538461538461
 40
0.3846153846153846
 40
0.3846153846153846
 40
0.3846153846153846
 40
0.3846153846153846
 40
0.4230769230769231
 40
0.4230769230769231
 40
0.4230769230769231
 40
0.4230769230769231
 40
0.4615384615384616
 40
0.4615384615384616
 40
0.4615384615384616
 40
0.4615384615384616
 40
0.5
 40
0.5
 40
0.5
 40
0.5
 40
0.5384615384615384
 40
0.5384615384615384
 40
0.5384615384615384
 40
0.5384615384615384
 40
0.5769230769230769
 40
0.5769230769230769
 40
0.5769230769230769
 40
0.5769230769230769
 40
0.6153846153846154
 40
0.6153846153846154
 40
0.6153846153846154
 40
0.6153846153846154
 40
0.6538461538461539
 40
0.6538461538461539
 40
0.6538461538461539
 40
0.6538461538461539
 40
0.6923076923076923
 40
0.6923076923076923
 40
0.6923076923076923
 40
0.6923076923076923
 40
0.7307692307692307
 40
0.7307692307692307
 40
0.7307692307692307
 40
0.7307692307692307
 40
0.7692307692307693
 40
0.7692307692307693
 40
0.7692307692307693
 40
0.7692307692307693
 40
0.8076923076923077
 40
0.8076923076923077
 40
0.8076923076923077
 40
0.8076923076923077
 40
0.8461538461538461
 40
0.8461538461538461
 40
0.8461538461538461
 40
0.8461538461538461
 40
0.8846153846153846
 40
0.8846153846153846
 40
0.8846153846153846
 40
0.8846153846153846
 40
0.9230769230769231
 40
0.9230769230769231
 40
0.9230769230769231
 40
0.9230769230769231
 40
1.0
 40
1.0
 40
1.0
 40
1.0
 10
-15.9806
 20
28.0842
 30
0.0
 10
-15.9806
 20
28.0842
 30
0.0
 10
-15.7361
 20
28.418
 30
0.0
 10
-15.7361
 20
28.418
 30
0.0
 10
-15.7361
 20
28.418
 30
0.0
 10
-15.6423
 20
28.3501
 30
0.0
 10
-15.5395
 20
28.2977
 30
0.0
 10
-15.4283
 20
28.2621
 30
0.0
 10
-15.4283
 20
28.2621
 30
0.0
 10
-15.3164
 20
28.2265
 30
0.0
 10
-15.1993
 20
28.2084
 30
0.0
 10
-15.0764
 20
28.2084
 30
0.0
 10
-15.0764
 20
28.2084
 30
0.0
 10
-14.9503
 20
28.2084
 30
0.0
 10
-14.8281
 20
28.2272
 30
0.0
 10
-14.711
 20
28.264
 30
0.0
 10
-14.711
 20
28.264
 30
0.0
 10
-14.5939
 20
28.3009
 30
0.0
 10
-14.4853
 20
28.3559
 30
0.0
 10
-14.3857
 20
28.4296
 30
0.0
 10
-14.3857
 20
28.4296
 30
0.0
 10
-14.2854
 20
28.5027
 30
0.0
 10
-14.1981
 20
28.5945
 30
0.0
 10
-14.1231
 20
28.7045
 30
0.0
 10
-14.1231
 20
28.7045
 30
0.0
 10
-14.0487
 20
28.8144
 30
0.0
 10
-13.9905
 20
28.9425
 30
0.0
 10
-13.9485
 20
29.0893
 30
0.0
 10
-13.9485
 20
29.0893
 30
0.0
 10
-13.9071
 20
29.2355
 30
0.0
 10
-13.8857
 20
29.3997
 30
0.0
 10
-13.8851
 20
29.5821
 30
0.0
 10
-13.8851
 20
29.5821
 30
0.0
 10
-13.8851
 20
29.7108
 30
0.0
 10
-13.898
 20
29.8331
 30
0.0
 10
-13.9245
 20
29.9495
 30
0.0
 10
-13.9245
 20
29.9495
 30
0.0
 10
-13.9504
 20
30.0665
 30
0.0
 10
-13.9886
 20
30.1752
 30
0.0
 10
-14.0384
 20
30.2755
 30
0.0
 10
-14.0384
 20
30.2755
 30
0.0
 10
-14.0888
 20
30.3757
 30
0.0
 10
-14.1503
 20
30.465
 30
0.0
 10
-14.2227
 20
30.5445
 30
0.0
 10
-14.2227
 20
30.5445
 30
0.0
 10
-14.2227
 20
30.5445
 30
0.0
 10
-13.9821
 20
30.8782
 30
0.0
 10
-13.9821
 20
30.8782
 30
0.0
 10
-13.9821
 20
30.8782
 30
0.0
 10
-13.9821
 20
30.8782
 30
0.0
 10
-14.1878
 20
31.0179
 30
0.0
 10
-14.1878
 20
31.0179
 30
0.0
 10
-14.1878
 20
31.0179
 30
0.0
 10
-14.1878
 20
31.0179
 30
0.0
 10
-14.4167
 20
30.7036
 30
0.0
 10
-14.4167
 20
30.7036
 30
0.0
 10
-14.4167
 20
30.7036
 30
0.0
 10
-14.5105
 20
30.7734
 30
0.0
 10
-14.612
 20
30.8258
 30
0.0
 10
-14.722
 20
30.8608
 30
0.0
 10
-14.722
 20
30.8608
 30
0.0
 10
-14.8326
 20
30.8957
 30
0.0
 10
-14.9477
 20
30.9132
 30
0.0
 10
-15.0686
 20
30.9132
 30
0.0
 10
-15.0686
 20
30.9132
 30
0.0
 10
-15.2413
 20
30.9125
 30
0.0
 10
-15.4004
 20
30.8802
 30
0.0
 10
-15.5473
 20
30.8161
 30
0.0
 10
-15.5473
 20
30.8161
 30
0.0
 10
-15.6934
 20
30.7521
 30
0.0
 10
-15.8208
 20
30.6596
 30
0.0
 10
-15.9295
 20
30.54
 30
0.0
 10
-15.9295
 20
30.54
 30
0.0
 10
-16.0388
 20
30.4203
 30
0.0
 10
-16.1229
 20
30.2768
 30
0.0
 10
-16.1837
 20
30.1092
 30
0.0
 10
-16.1837
 20
30.1092
 30
0.0
 10
-16.2438
 20
29.9417
 30
0.0
 10
-16.2748
 20
29.7548
 30
0.0
 10
-16.2755
 20
29.5472
 30
0.0
 10
-16.2755
 20
29.5472
 30
0.0
 10
-16.2755
 20
29.4165
 30
0.0
 10
-16.2613
 20
29.2917
 30
0.0
 10
-16.2341
 20
29.174
 30
0.0
 10
-16.2341
 20
29.174
 30
0.0
 10
-16.2069
 20
29.0563
 30
0.0
 10
-16.1675
 20
28.947
 30
0.0
 10
-16.1164
 20
28.8468
 30
0.0
 10
-16.1164
 20
28.8468
 30
0.0
 10
-16.0647
 20
28.7465
 30
0.0
 10
-16.0026
 20
28.6566
 30
0.0
 10
-15.9301
 20
28.5771
 30
0.0
 10
-15.9301
 20
28.5771
 30
0.0
 10
-15.9301
 20
28.5771
 30
0.0
 10
-16.1707
 20
28.2395
 30
0.0
 10
-16.1707
 20
28.2395
 30
0.0
 10
-16.1707
 20
28.2395
 30
0.0
 10
-16.1707
 20
28.2395
 30
0.0
 10
-15.9806
 20
28.0842
 30
0.0
 10
-15.9806
 20
28.0842
 30
0.0
  0
SPLINE
  5
122
330
1F
100
AcDbEntity
  8
Standard layer
 62
   250
100
AcDbSpline
210
0.0
220
0.0
230
1.0
 70
    11
 71
     3
 72
    52
 73
    48
 74
     0
 42
0.0000000001
 43
0.0000000001
 40
0.0
 40
0.0
 40
0.0
 40
0.0
 40
0.0769230769230769
 40
0.0769230769230769
 40
0.0769230769230769
 40
0.0769230769230769
 40
0.1538461538461539
 40
0.1538461538461539
 40
0.1538461538461539
 40
0.1538461538461539
 40
0.2307692307692308
 40
0.2307692307692308
 40
0.2307692307692308
 40
0.2307692307692308
 40
0.3076923076923077
 40
0.3076923076923077
 40
0.3076923076923077
 40
0.3076923076923077
 40
0.3846153846153846
 40
0.3846153846153846
 40
0.3846153846153846
 40
0.3846153846153846
 40
0.4615384615384616
 40
0.4615384615384616
 40
0.4615384615384616
 40
0.4615384615384616
 40
0.5384615384615384
 40
0.5384615384615384
 40
0.5384615384615384
 40
0.5384615384615384
 40
0.6153846153846154
 40
0.6153846153846154
 40
0.6153846153846154
 40
0.6153846153846154
 40
0.6923076923076923
 40
0.6923076923076923
 40
0.6923076923076923
 40
0.6923076923076923
 40
0.7692307692307693
 40
0.7692307692307693
 40
0.7692307692307693
 40
0.7692307692307693
 40
0.8461538461538461
 40
0.8461538461538461
 40
0.8461538461538461
 40
0.8461538461538461
 40
1.0
 40
1.0
 40
1.0
 40
1.0
 10
-15.7322
 20
28.8642
 30
0.0
 10
-15.7322
 20
28.8642
 30
0.0
 10
-15.74
 20
28.8603
 30
0.0
 10
-15.74
 20
28.8603
 30
0.0
 10
-15.74
 20
28.8603
 30
0.0
 10
-15.7788
 20
28.927
 30
0.0
 10
-15.8124
 20
28.9962
 30
0.0
 10
-15.8409
 20
29.0673
 30
0.0
 10
-15.8409
 20
29.0673
 30
0.0
 10
-15.8693
 20
29.1391
 30
0.0
 10
-15.8913
 20
29.2148
 30
0.0
 10
-15.9068
 20
29.2963
 30
0.0
 10
-15.9068
 20
29.2963
 30
0.0
 10
-15.9224
 20
29.3771
 30
0.0
 10
-15.9301
 20
29.4664
 30
0.0
 10
-15.9301
 20
29.5627
 30
0.0
 10
-15.9301
 20
29.5627
 30
0.0
 10
-15.9301
 20
29.674
 30
0.0
 10
-15.9185
 20
29.7813
 30
0.0
 10
-15.8958
 20
29.8868
 30
0.0
 10
-15.8958
 20
29.8868
 30
0.0
 10
-15.8726
 20
29.9915
 30
0.0
 10
-15.8383
 20
30.0898
 30
0.0
 10
-15.793
 20
30.1804
 30
0.0
 10
-15.793
 20
30.1804
 30
0.0
 10
-15.7471
 20
30.2716
 30
0.0
 10
-15.6902
 20
30.3518
 30
0.0
 10
-15.6216
 20
30.4203
 30
0.0
 10
-15.6216
 20
30.4203
 30
0.0
 10
-15.5531
 20
30.4895
 30
0.0
 10
-15.4735
 20
30.5432
 30
0.0
 10
-15.383
 20
30.582
 30
0.0
 10
-15.383
 20
30.582
 30
0.0
 10
-15.2918
 20
30.6215
 30
0.0
 10
-15.1896
 20
30.6409
 30
0.0
 10
-15.0764
 20
30.6415
 30
0.0
 10
-15.0764
 20
30.6415
 30
0.0
 10
-14.9775
 20
30.6409
 30
0.0
 10
-14.8869
 20
30.6247
 30
0.0
 10
-14.8054
 20
30.5924
 30
0.0
 10
-14.8054
 20
30.5924
 30
0.0
 10
-14.7233
 20
30.5607
 30
0.0
 10
-14.6495
 20
30.516
 30
0.0
 10
-14.5836
 20
30.4591
 30
0.0
 10
-14.5836
 20
30.4591
 30
0.0
 10
-14.5836
 20
30.4591
 30
0.0
 10
-15.7322
 20
28.8642
 30
0.0
 10
-15.7322
 20
28.8642
 30
0.0
  0
SPLINE
  5
123
330
1F
100
AcDbEntity
  8
Standard layer
 62
   250
100
AcDbSpline
210
0.0
220
0.0
230
1.0
 70
    11
 71
     3
 72
    48
 73
    44
 74
     0
 42
0.0000000001
 43
0.0000000001
 40
0.0
 40
0.0
 40
0.0
 40
0.0
 40
0.0833333333333333
 40
0.0833333333333333
 40
0.0833333333333333
 40
0.0833333333333333
 40
0.1666666666666667
 40
0.1666666666666667
 40
0.1666666666666667
 40
0.1666666666666667
 40
0.25
 40
0.25
 40
0.25
 40
0.25
 40
0.3333333333333333
 40
0.3333333333333333
 40
0.3333333333333333
 40
0.3333333333333333
 40
0.4166666666666667
 40
0.4166666666666667
 40
0.4166666666666667
 40
0.4166666666666667
 40
0.5
 40
0.5
 40
0.5
 40
0.5
 40
0.5833333333333334
 40
0.5833333333333334
 40
0.5833333333333334
 40
0.5833333333333334
 40
0.6666666666666666
 40
0.6666666666666666
 40
0.6666666666666666
 40
0.6666666666666666
 40
0.75
 40
0.75
 40
0.75
 40
0.75
 40
0.8333333333333334
 40
0.8333333333333334
 40
0.8333333333333334
 40
0.8333333333333334
 40
1.0
 40
1.0
 40
1.0
 40
1.0
 10
-14.4245
 20
30.2535
 30
0.0
 10
-14.4245
 20
30.2535
 30
0.0
 10
-14.4128
 20
30.2535
 30
0.0
 10
-14.4128
 20
30.2535
 30
0.0
 10
-14.4128
 20
30.2535
 30
0.0
 10
-14.3456
 20
30.1409
 30
0.0
 10
-14.2984
 20
30.0271
 30
0.0
 10
-14.2706
 20
29.912
 30
0.0
 10
-14.2706
 20
29.912
 30
0.0
 10
-14.2427
 20
29.7975
 30
0.0
 10
-14.2292
 20
29.6837
 30
0.0
 10
-14.2305
 20
29.5705
 30
0.0
 10
-14.2305
 20
29.5705
 30
0.0
 10
-14.2305
 20
29.4528
 30
0.0
 10
-14.2427
 20
29.3402
 30
0.0
 10
-14.2667
 20
29.2322
 30
0.0
 10
-14.2667
 20
29.2322
 30
0.0
 10
-14.2906
 20
29.1242
 30
0.0
 10
-14.3262
 20
29.0246
 30
0.0
 10
-14.3727
 20
28.9334
 30
0.0
 10
-14.3727
 20
28.9334
 30
0.0
 10
-14.42
 20
28.8422
 30
0.0
 10
-14.4775
 20
28.7627
 30
0.0
 10
-14.5461
 20
28.6954
 30
0.0
 10
-14.5461
 20
28.6954
 30
0.0
 10
-14.6153
 20
28.6275
 30
0.0
 10
-14.6942
 20
28.5745
 30
0.0
 10
-14.7834
 20
28.537
 30
0.0
 10
-14.7834
 20
28.537
 30
0.0
 10
-14.8727
 20
28.4995
 30
0.0
 10
-14.9716
 20
28.4807
 30
0.0
 10
-15.0803
 20
28.48
 30
0.0
 10
-15.0803
 20
28.48
 30
0.0
 10
-15.1857
 20
28.48
 30
0.0
 10
-15.2782
 20
28.4962
 30
0.0
 10
-15.3565
 20
28.5279
 30
0.0
 10
-15.3565
 20
28.5279
 30
0.0
 10
-15.4354
 20
28.5596
 30
0.0
 10
-15.5059
 20
28.6062
 30
0.0
 10
-15.5692
 20
28.6663
 30
0.0
 10
-15.5692
 20
28.6663
 30
0.0
 10
-15.5692
 20
28.6663
 30
0.0
 10
-14.4245
 20
30.2535
 30
0.0
 10
-14.4245
 20
30.2535
 30
0.0
  0
SPLINE
  5
124
330
1F
100
AcDbEntity
  8
Standard layer
 62
   250
100
AcDbSpline
210
0.0
220
0.0
230
1.0
 70
    11
 71
     3
 72
   124
 73
   120
 74
     0
 42
0.0000000001
 43
0.0000000001
 40
0.0
 40
0.0
 40
0.0
 40
0.0
 40
0.032258064516129
 40
0.032258064516129
 40
0.032258064516129
 40
0.032258064516129
 40
0.0645161290322581
 40
0.0645161290322581
 40
0.0645161290322581
 40
0.0645161290322581
 40
0.0967741935483871
 40
0.0967741935483871
 40
0.0967741935483871
 40
0.0967741935483871
 40
0.1290322580645161
 40
0.1290322580645161
 40
0.1290322580645161
 40
0.1290322580645161
 40
0.1612903225806452
 40
0.1612903225806452
 40
0.1612903225806452
 40
0.1612903225806452
 40
0.1935483870967742
 40
0.1935483870967742
 40
0.1935483870967742
 40
0.1935483870967742
 40
0.2258064516129032
 40
0.2258064516129032
 40
0.2258064516129032
 40
0.2258064516129032
 40
0.2580645161290323
 40
0.2580645161290323
 40
0.2580645161290323
 40
0.2580645161290323
 40
0.2903225806451613
 40
0.2903225806451613
 40
0.2903225806451613
 40
0.2903225806451613
 40
0.3225806451612903
 40
0.3225806451612903
 40
0.3225806451612903
 40
0.3225806451612903
 40
0.3548387096774194
 40
0.3548387096774194
 40
0.3548387096774194
 40
0.3548387096774194
 40
0.3870967741935484
 40
0.3870967741935484
 40
0.3870967741935484
 40
0.3870967741935484
 40
0.4193548387096774
 40
0.4193548387096774
 40
0.4193548387096774
 40
0.4193548387096774
 40
0.4516129032258064
 40
0.4516129032258064
 40
0.4516129032258064
 40
0.4516129032258064
 40
0.4838709677419355
 40
0.4838709677419355
 40
0.4838709677419355
 40
0.4838709677419355
 40
0.5161290322580645
 40
0.5161290322580645
 40
0.5161290322580645
 40
0.5161290322580645
 40
0.5483870967741935
 40
0.5483870967741935
 40
0.5483870967741935
 40
0.5483870967741935
 40
0.5806451612903226
 40
0.5806451612903226
 40
0.5806451612903226
 40
0.5806451612903226
 40
0.6129032258064516
 40
0.6129032258064516
 40
0.6129032258064516
 40
0.6129032258064516
 40
0.6451612903225806
 40
0.6451612903225806
 40
0.6451612903225806
 40
0.6451612903225806
 40
0.6774193548387096
 40
0.6774193548387096
 40
0.6774193548387096
 40
0.6774193548387096
 40
0.7096774193548387
 40
0.7096774193548387
 40
0.7096774193548387
 40
0.7096774193548387
 40
0.7419354838709677
 40
0.7419354838709677
 40
0.7419354838709677
 40
0.7419354838709677
 40
0.7741935483870968
 40
0.7741935483870968
 40
0.7741935483870968
 40
0.7741935483870968
 40
0.8064516129032258
 40
0.8064516129032258
 40
0.8064516129032258
 40
0.8064516129032258
 40
0.8387096774193549
 40
0.8387096774193549
 40
0.8387096774193549
 40
0.8387096774193549
 40
0.8709677419354839
 40
0.8709677419354839
 40
0.8709677419354839
 40
0.8709677419354839
 40
0.9032258064516129
 40
0.9032258064516129
 40
0.9032258064516129
 40
0.9032258064516129
 40
0.9354838709677419
 40
0.9354838709677419
 40
0.9354838709677419
 40
0.9354838709677419
 40
1.0
 40
1.0
 40
1.0
 40
1.0
 10
-13.0973
 20
29.5666
 30
0.0
 10
-13.2015
 20
29.5226
 30
0.0
 10
-13.2907
 20
29.4676
 30
0.0
 10
-13.3651
 20
29.403
 30
0.0
 10
-13.3651
 20
29.403
 30
0.0
 10
-13.4395
 20
29.3377
 30
0.0
 10
-13.497
 20
29.262
 30
0.0
 10
-13.5371
 20
29.176
 30
0.0
 10
-13.5371
 20
29.176
 30
0.0
 10
-13.5772
 20
29.0899
 30
0.0
 10
-13.5973
 20
28.9936
 30
0.0
 10
-13.5979
 20
28.8875
 30
0.0
 10
-13.5979
 20
28.8875
 30
0.0
 10
-13.5973
 20
28.7944
 30
0.0
 10
-13.5785
 20
28.7077
 30
0.0
 10
-13.5397
 20
28.6256
 30
0.0
 10
-13.5397
 20
28.6256
 30
0.0
 10
-13.5016
 20
28.5441
 30
0.0
 10
-13.4459
 20
28.4723
 30
0.0
 10
-13.3728
 20
28.4096
 30
0.0
 10
-13.3728
 20
28.4096
 30
0.0
 10
-13.2998
 20
28.3475
 30
0.0
 10
-13.2112
 20
28.2983
 30
0.0
 10
-13.107
 20
28.2627
 30
0.0
 10
-13.107
 20
28.2627
 30
0.0
 10
-13.0023
 20
28.2272
 30
0.0
 10
-12.8839
 20
28.2091
 30
0.0
 10
-12.752
 20
28.2084
 30
0.0
 10
-12.752
 20
28.2084
 30
0.0
 10
-12.631
 20
28.2091
 30
0.0
 10
-12.5185
 20
28.2265
 30
0.0
 10
-12.415
 20
28.2608
 30
0.0
 10
-12.415
 20
28.2608
 30
0.0
 10
-12.3115
 20
28.2951
 30
0.0
 10
-12.2203
 20
28.3449
 30
0.0
 10
-12.1427
 20
28.4096
 30
0.0
 10
-12.1427
 20
28.4096
 30
0.0
 10
-12.0651
 20
28.4736
 30
0.0
 10
-12.0043
 20
28.5506
 30
0.0
 10
-11.961
 20
28.6404
 30
0.0
 10
-11.961
 20
28.6404
 30
0.0
 10
-11.917
 20
28.7304
 30
0.0
 10
-11.895
 20
28.8306
 30
0.0
 10
-11.8944
 20
28.9418
 30
0.0
 10
-11.8944
 20
28.9418
 30
0.0
 10
-11.895
 20
29.0427
 30
0.0
 10
-11.9157
 20
29.1346
 30
0.0
 10
-11.9564
 20
29.218
 30
0.0
 10
-11.9564
 20
29.218
 30
0.0
 10
-11.9972
 20
29.3008
 30
0.0
 10
-12.0554
 20
29.3739
 30
0.0
 10
-12.1311
 20
29.4366
 30
0.0
 10
-12.1311
 20
29.4366
 30
0.0
 10
-12.2068
 20
29.5
 30
0.0
 10
-12.2973
 20
29.5524
 30
0.0
 10
-12.4027
 20
29.5938
 30
0.0
 10
-12.4027
 20
29.5938
 30
0.0
 10
-12.4027
 20
29.5938
 30
0.0
 10
-12.4027
 20
29.6054
 30
0.0
 10
-12.4027
 20
29.6054
 30
0.0
 10
-12.4027
 20
29.6054
 30
0.0
 10
-12.2999
 20
29.6539
 30
0.0
 10
-12.2177
 20
29.7102
 30
0.0
 10
-12.1563
 20
29.7749
 30
0.0
 10
-12.1563
 20
29.7749
 30
0.0
 10
-12.0948
 20
29.8389
 30
0.0
 10
-12.0502
 20
29.9074
 30
0.0
 10
-12.0231
 20
29.9792
 30
0.0
 10
-12.0231
 20
29.9792
 30
0.0
 10
-11.9965
 20
30.0517
 30
0.0
 10
-11.983
 20
30.1235
 30
0.0
 10
-11.9836
 20
30.1953
 30
0.0
 10
-11.9836
 20
30.1953
 30
0.0
 10
-11.9836
 20
30.2755
 30
0.0
 10
-11.9991
 20
30.3531
 30
0.0
 10
-12.0302
 20
30.4268
 30
0.0
 10
-12.0302
 20
30.4268
 30
0.0
 10
-12.0612
 20
30.5005
 30
0.0
 10
-12.1071
 20
30.5665
 30
0.0
 10
-12.1686
 20
30.6253
 30
0.0
 10
-12.1686
 20
30.6253
 30
0.0
 10
-12.2307
 20
30.6836
 30
0.0
 10
-12.3076
 20
30.7301
 30
0.0
 10
-12.3995
 20
30.7638
 30
0.0
 10
-12.3995
 20
30.7638
 30
0.0
 10
-12.4913
 20
30.798
 30
0.0
 10
-12.5987
 20
30.8155
 30
0.0
 10
-12.7209
 20
30.8161
 30
0.0
 10
-12.7209
 20
30.8161
 30
0.0
 10
-12.8328
 20
30.8155
 30
0.0
 10
-12.9369
 20
30.7993
 30
0.0
 10
-13.0314
 20
30.7676
 30
0.0
 10
-13.0314
 20
30.7676
 30
0.0
 10
-13.1264
 20
30.7353
 30
0.0
 10
-13.2092
 20
30.69
 30
0.0
 10
-13.2804
 20
30.6305
 30
0.0
 10
-13.2804
 20
30.6305
 30
0.0
 10
-13.3509
 20
30.571
 30
0.0
 10
-13.4058
 20
30.5005
 30
0.0
 10
-13.4453
 20
30.4184
 30
0.0
 10
-13.4453
 20
30.4184
 30
0.0
 10
-13.4841
 20
30.3362
 30
0.0
 10
-13.5041
 20
30.245
 30
0.0
 10
-13.5048
 20
30.1448
 30
0.0
 10
-13.5048
 20
30.1448
 30
0.0
 10
-13.5048
 20
30.0717
 30
0.0
 10
-13.4912
 20
30.0006
 30
0.0
 10
-13.4627
 20
29.9307
 30
0.0
 10
-13.4627
 20
29.9307
 30
0.0
 10
-13.4349
 20
29.8609
 30
0.0
 10
-13.391
 20
29.7956
 30
0.0
 10
-13.3314
 20
29.7354
 30
0.0
 10
-13.3314
 20
29.7354
 30
0.0
 10
-13.272
 20
29.6753
 30
0.0
 10
-13.1956
 20
29.6229
 30
0.0
 10
-13.1012
 20
29.5782
 30
0.0
 10
-13.1012
 20
29.5782
 30
0.0
 10
-13.1012
 20
29.5782
 30
0.0
 10
-13.0973
 20
29.5666
 30
0.0
 10
-13.0973
 20
29.5666
 30
0.0
  0
SPLINE
  5
125
330
1F
100
AcDbEntity
  8
Standard layer
 62
   250
100
AcDbSpline
210
0.0
220
0.0
230
1.0
 70
    11
 71
     3
 72
    56
 73
    52
 74
     0
 42
0.0000000001
 43
0.0000000001
 40
0.0
 40
0.0
 40
0.0
 40
0.0
 40
0.0714285714285714
 40
0.0714285714285714
 40
0.0714285714285714
 40
0.0714285714285714
 40
0.1428571428571428
 40
0.1428571428571428
 40
0.1428571428571428
 40
0.1428571428571428
 40
0.2142857142857143
 40
0.2142857142857143
 40
0.2142857142857143
 40
0.2142857142857143
 40
0.2857142857142857
 40
0.2857142857142857
 40
0.2857142857142857
 40
0.2857142857142857
 40
0.3571428571428572
 40
0.3571428571428572
 40
0.3571428571428572
 40
0.3571428571428572
 40
0.4285714285714285
 40
0.4285714285714285
 40
0.4285714285714285
 40
0.4285714285714285
 40
0.5
 40
0.5
 40
0.5
 40
0.5
 40
0.5714285714285714
 40
0.5714285714285714
 40
0.5714285714285714
 40
0.5714285714285714
 40
0.6428571428571429
 40
0.6428571428571429
 40
0.6428571428571429
 40
0.6428571428571429
 40
0.7142857142857143
 40
0.7142857142857143
 40
0.7142857142857143
 40
0.7142857142857143
 40
0.7857142857142857
 40
0.7857142857142857
 40
0.7857142857142857
 40
0.7857142857142857
 40
0.8571428571428571
 40
0.8571428571428571
 40
0.8571428571428571
 40
0.8571428571428571
 40
1.0
 40
1.0
 40
1.0
 40
1.0
 10
-12.7442
 20
28.4568
 30
0.0
 10
-12.825
 20
28.4574
 30
0.0
 10
-12.8968
 20
28.4704
 30
0.0
 10
-12.9602
 20
28.4956
 30
0.0
 10
-12.9602
 20
28.4956
 30
0.0
 10
-13.0243
 20
28.5214
 30
0.0
 10
-13.0779
 20
28.5564
 30
0.0
 10
-13.1219
 20
28.601
 30
0.0
 10
-13.1219
 20
28.601
 30
0.0
 10
-13.1652
 20
28.645
 30
0.0
 10
-13.1982
 20
28.6961
 30
0.0
 10
-13.2202
 20
28.753
 30
0.0
 10
-13.2202
 20
28.753
 30
0.0
 10
-13.2416
 20
28.8099
 30
0.0
 10
-13.2513
 20
28.8707
 30
0.0
 10
-13.2487
 20
28.9341
 30
0.0
 10
-13.2487
 20
28.9341
 30
0.0
 10
-13.2487
 20
29.0149
 30
0.0
 10
-13.2312
 20
29.0893
 30
0.0
 10
-13.1963
 20
29.1578
 30
0.0
 10
-13.1963
 20
29.1578
 30
0.0
 10
-13.162
 20
29.2264
 30
0.0
 10
-13.1109
 20
29.2866
 30
0.0
 10
-13.0436
 20
29.3377
 30
0.0
 10
-13.0436
 20
29.3377
 30
0.0
 10
-12.9757
 20
29.3887
 30
0.0
 10
-12.893
 20
29.4288
 30
0.0
 10
-12.7947
 20
29.4579
 30
0.0
 10
-12.7947
 20
29.4579
 30
0.0
 10
-12.6802
 20
29.4263
 30
0.0
 10
-12.5819
 20
29.3868
 30
0.0
 10
-12.4991
 20
29.339
 30
0.0
 10
-12.4991
 20
29.339
 30
0.0
 10
-12.4163
 20
29.2917
 30
0.0
 10
-12.3523
 20
29.2329
 30
0.0
 10
-12.3076
 20
29.163
 30
0.0
 10
-12.3076
 20
29.163
 30
0.0
 10
-12.263
 20
29.0925
 30
0.0
 10
-12.2404
 20
29.0072
 30
0.0
 10
-12.2397
 20
28.9069
 30
0.0
 10
-12.2397
 20
28.9069
 30
0.0
 10
-12.2404
 20
28.8196
 30
0.0
 10
-12.2611
 20
28.742
 30
0.0
 10
-12.3025
 20
28.6747
 30
0.0
 10
-12.3025
 20
28.6747
 30
0.0
 10
-12.3439
 20
28.6075
 30
0.0
 10
-12.4021
 20
28.5544
 30
0.0
 10
-12.4771
 20
28.5156
 30
0.0
 10
-12.4771
 20
28.5156
 30
0.0
 10
-12.5521
 20
28.4768
 30
0.0
 10
-12.6414
 20
28.4574
 30
0.0
 10
-12.7442
 20
28.4568
 30
0.0
  0
SPLINE
  5
126
330
1F
100
AcDbEntity
  8
Standard layer
 62
   250
100
AcDbSpline
210
0.0
220
0.0
230
1.0
 70
    11
 71
     3
 72
    56
 73
    52
 74
     0
 42
0.0000000001
 43
0.0000000001
 40
0.0
 40
0.0
 40
0.0
 40
0.0
 40
0.0714285714285714
 40
0.0714285714285714
 40
0.0714285714285714
 40
0.0714285714285714
 40
0.1428571428571428
 40
0.1428571428571428
 40
0.1428571428571428
 40
0.1428571428571428
 40
0.2142857142857143
 40
0.2142857142857143
 40
0.2142857142857143
 40
0.2142857142857143
 40
0.2857142857142857
 40
0.2857142857142857
 40
0.2857142857142857
 40
0.2857142857142857
 40
0.3571428571428572
 40
0.3571428571428572
 40
0.3571428571428572
 40
0.3571428571428572
 40
0.4285714285714285
 40
0.4285714285714285
 40
0.4285714285714285
 40
0.4285714285714285
 40
0.5
 40
0.5
 40
0.5
 40
0.5
 40
0.5714285714285714
 40
0.5714285714285714
 40
0.5714285714285714
 40
0.5714285714285714
 40
0.6428571428571429
 40
0.6428571428571429
 40
0.6428571428571429
 40
0.6428571428571429
 40
0.7142857142857143
 40
0.7142857142857143
 40
0.7142857142857143
 40
0.7142857142857143
 40
0.7857142857142857
 40
0.7857142857142857
 40
0.7857142857142857
 40
0.7857142857142857
 40
0.8571428571428571
 40
0.8571428571428571
 40
0.8571428571428571
 40
0.8571428571428571
 40
1.0
 40
1.0
 40
1.0
 40
1.0
 10
-12.7403
 20
30.5717
 30
0.0
 10
-12.664
 20
30.571
 30
0.0
 10
-12.5987
 20
30.5594
 30
0.0
 10
-12.5443
 20
30.5361
 30
0.0
 10
-12.5443
 20
30.5361
 30
0.0
 10
-12.49
 20
30.5128
 30
0.0
 10
-12.446
 20
30.4811
 30
0.0
 10
-12.4118
 20
30.4417
 30
0.0
 10
-12.4118
 20
30.4417
 30
0.0
 10
-12.3781
 20
30.4022
 30
0.0
 10
-12.3529
 20
30.3582
 30
0.0
 10
-12.3367
 20
30.3097
 30
0.0
 10
-12.3367
 20
30.3097
 30
0.0
 10
-12.3212
 20
30.2612
 30
0.0
 10
-12.3135
 20
30.2114
 30
0.0
 10
-12.3135
 20
30.1603
 30
0.0
 10
-12.3135
 20
30.1603
 30
0.0
 10
-12.3141
 20
30.084
 30
0.0
 10
-12.3309
 20
30.0161
 30
0.0
 10
-12.3646
 20
29.9566
 30
0.0
 10
-12.3646
 20
29.9566
 30
0.0
 10
-12.3982
 20
29.8965
 30
0.0
 10
-12.4435
 20
29.8454
 30
0.0
 10
-12.5017
 20
29.8033
 30
0.0
 10
-12.5017
 20
29.8033
 30
0.0
 10
-12.5592
 20
29.7606
 30
0.0
 10
-12.6245
 20
29.727
 30
0.0
 10
-12.6976
 20
29.7024
 30
0.0
 10
-12.6976
 20
29.7024
 30
0.0
 10
-12.7953
 20
29.7283
 30
0.0
 10
-12.88
 20
29.7613
 30
0.0
 10
-12.9525
 20
29.8014
 30
0.0
 10
-12.9525
 20
29.8014
 30
0.0
 10
-13.0249
 20
29.8421
 30
0.0
 10
-13.0812
 20
29.8926
 30
0.0
 10
-13.1206
 20
29.9527
 30
0.0
 10
-13.1206
 20
29.9527
 30
0.0
 10
-13.1601
 20
30.0129
 30
0.0
 10
-13.1795
 20
30.0847
 30
0.0
 10
-13.1788
 20
30.1681
 30
0.0
 10
-13.1788
 20
30.1681
 30
0.0
 10
-13.1788
 20
30.2418
 30
0.0
 10
-13.162
 20
30.3084
 30
0.0
 10
-13.1284
 20
30.3692
 30
0.0
 10
-13.1284
 20
30.3692
 30
0.0
 10
-13.0947
 20
30.43
 30
0.0
 10
-13.0449
 20
30.4785
 30
0.0
 10
-12.9796
 20
30.5154
 30
0.0
 10
-12.9796
 20
30.5154
 30
0.0
 10
-12.915
 20
30.5523
 30
0.0
 10
-12.8348
 20
30.571
 30
0.0
 10
-12.7403
 20
30.5717
 30
0.0
  0
SPLINE
  5
127
330
1F
100
AcDbEntity
  8
Standard layer
 62
   250
100
AcDbSpline
210
0.0
220
0.0
230
1.0
 70
    11
 71
     3
 72
    36
 73
    32
 74
     0
 42
0.0000000001
 43
0.0000000001
 40
0.0
 40
0.0
 40
0.0
 40
0.0
 40
0.1111111111111111
 40
0.1111111111111111
 40
0.1111111111111111
 40
0.1111111111111111
 40
0.2222222222222222
 40
0.2222222222222222
 40
0.2222222222222222
 40
0.2222222222222222
 40
0.3333333333333333
 40
0.3333333333333333
 40
0.3333333333333333
 40
0.3333333333333333
 40
0.4444444444444444
 40
0.4444444444444444
 40
0.4444444444444444
 40
0.4444444444444444
 40
0.5555555555555556
 40
0.5555555555555556
 40
0.5555555555555556
 40
0.5555555555555556
 40
0.6666666666666666
 40
0.6666666666666666
 40
0.6666666666666666
 40
0.6666666666666666
 40
0.7777777777777778
 40
0.7777777777777778
 40
0.7777777777777778
 40
0.7777777777777778
 40
1.0
 40
1.0
 40
1.0
 40
1.0
 10
-13.1864
 20
-10.8537
 30
0.0
 10
-13.1864
 20
-10.8537
 30
0.0
 10
-12.8566
 20
-10.8537
 30
0.0
 10
-12.8566
 20
-10.8537
 30
0.0
 10
-12.8566
 20
-10.8537
 30
0.0
 10
-12.8566
 20
-10.8537
 30
0.0
 10
-12.8566
 20
-8.3314
 30
0.0
 10
-12.8566
 20
-8.3314
 30
0.0
 10
-12.8566
 20
-8.3314
 30
0.0
 10
-12.8566
 20
-8.3314
 30
0.0
 10
-13.1476
 20
-8.3314
 30
0.0
 10
-13.1476
 20
-8.3314
 30
0.0
 10
-13.1476
 20
-8.3314
 30
0.0
 10
-13.1476
 20
-8.3314
 30
0.0
 10
-13.6986
 20
-8.6263
 30
0.0
 10
-13.6986
 20
-8.6263
 30
0.0
 10
-13.6986
 20
-8.6263
 30
0.0
 10
-13.6986
 20
-8.6263
 30
0.0
 10
-13.6327
 20
-8.8863
 30
0.0
 10
-13.6327
 20
-8.8863
 30
0.0
 10
-13.6327
 20
-8.8863
 30
0.0
 10
-13.6327
 20
-8.8863
 30
0.0
 10
-13.1942
 20
-8.6495
 30
0.0
 10
-13.1942
 20
-8.6495
 30
0.0
 10
-13.1942
 20
-8.6495
 30
0.0
 10
-13.1942
 20
-8.6495
 30
0.0
 10
-13.1864
 20
-8.6495
 30
0.0
 10
-13.1864
 20
-8.6495
 30
0.0
 10
-13.1864
 20
-8.6495
 30
0.0
 10
-13.1864
 20
-8.6495
 30
0.0
 10
-13.1864
 20
-10.8537
 30
0.0
 10
-13.1864
 20
-10.8537
 30
0.0
  0
SPLINE
  5
128
330
1F
100
AcDbEntity
  8
Standard layer
 62
   250
100
AcDbSpline
210
0.0
220
0.0
230
1.0
 70
    11
 71
     3
 72
    36
 73
    32
 74
     0
 42
0.0000000001
 43
0.0000000001
 40
0.0
 40
0.0
 40
0.0
 40
0.0
 40
0.1111111111111111
 40
0.1111111111111111
 40
0.1111111111111111
 40
0.1111111111111111
 40
0.2222222222222222
 40
0.2222222222222222
 40
0.2222222222222222
 40
0.2222222222222222
 40
0.3333333333333333
 40
0.3333333333333333
 40
0.3333333333333333
 40
0.3333333333333333
 40
0.4444444444444444
 40
0.4444444444444444
 40
0.4444444444444444
 40
0.4444444444444444
 40
0.5555555555555556
 40
0.5555555555555556
 40
0.5555555555555556
 40
0.5555555555555556
 40
0.6666666666666666
 40
0.6666666666666666
 40
0.6666666666666666
 40
0.6666666666666666
 40
0.7777777777777778
 40
0.7777777777777778
 40
0.7777777777777778
 40
0.7777777777777778
 40
1.0
 40
1.0
 40
1.0
 40
1.0
 10
-11.1957
 20
-10.8537
 30
0.0
 10
-11.1957
 20
-10.8537
 30
0.0
 10
-10.8658
 20
-10.8537
 30
0.0
 10
-10.8658
 20
-10.8537
 30
0.0
 10
-10.8658
 20
-10.8537
 30
0.0
 10
-10.8658
 20
-10.8537
 30
0.0
 10
-10.8658
 20
-8.3314
 30
0.0
 10
-10.8658
 20
-8.3314
 30
0.0
 10
-10.8658
 20
-8.3314
 30
0.0
 10
-10.8658
 20
-8.3314
 30
0.0
 10
-11.1569
 20
-8.3314
 30
0.0
 10
-11.1569
 20
-8.3314
 30
0.0
 10
-11.1569
 20
-8.3314
 30
0.0
 10
-11.1569
 20
-8.3314
 30
0.0
 10
-11.7079
 20
-8.6263
 30
0.0
 10
-11.7079
 20
-8.6263
 30
0.0
 10
-11.7079
 20
-8.6263
 30
0.0
 10
-11.7079
 20
-8.6263
 30
0.0
 10
-11.6419
 20
-8.8863
 30
0.0
 10
-11.6419
 20
-8.8863
 30
0.0
 10
-11.6419
 20
-8.8863
 30
0.0
 10
-11.6419
 20
-8.8863
 30
0.0
 10
-11.2034
 20
-8.6495
 30
0.0
 10
-11.2034
 20
-8.6495
 30
0.0
 10
-11.2034
 20
-8.6495
 30
0.0
 10
-11.2034
 20
-8.6495
 30
0.0
 10
-11.1957
 20
-8.6495
 30
0.0
 10
-11.1957
 20
-8.6495
 30
0.0
 10
-11.1957
 20
-8.6495
 30
0.0
 10
-11.1957
 20
-8.6495
 30
0.0
 10
-11.1957
 20
-10.8537
 30
0.0
 10
-11.1957
 20
-10.8537
 30
0.0
  0
SPLINE
  5
129
330
1F
100
AcDbEntity
  8
Standard layer
 62
   250
100
AcDbSpline
210
0.0
220
0.0
230
1.0
 70
    11
 71
     3
 72
   128
 73
   124
 74
     0
 42
0.0000000001
 43
0.0000000001
 40
0.0
 40
0.0
 40
0.0
 40
0.0
 40
0.03125
 40
0.03125
 40
0.03125
 40
0.03125
 40
0.0625
 40
0.0625
 40
0.0625
 40
0.0625
 40
0.09375
 40
0.09375
 40
0.09375
 40
0.09375
 40
0.125
 40
0.125
 40
0.125
 40
0.125
 40
0.15625
 40
0.15625
 40
0.15625
 40
0.15625
 40
0.1875
 40
0.1875
 40
0.1875
 40
0.1875
 40
0.21875
 40
0.21875
 40
0.21875
 40
0.21875
 40
0.25
 40
0.25
 40
0.25
 40
0.25
 40
0.28125
 40
0.28125
 40
0.28125
 40
0.28125
 40
0.3125
 40
0.3125
 40
0.3125
 40
0.3125
 40
0.34375
 40
0.34375
 40
0.34375
 40
0.34375
 40
0.375
 40
0.375
 40
0.375
 40
0.375
 40
0.40625
 40
0.40625
 40
0.40625
 40
0.40625
 40
0.4375
 40
0.4375
 40
0.4375
 40
0.4375
 40
0.46875
 40
0.46875
 40
0.46875
 40
0.46875
 40
0.5
 40
0.5
 40
0.5
 40
0.5
 40
0.53125
 40
0.53125
 40
0.53125
 40
0.53125
 40
0.5625
 40
0.5625
 40
0.5625
 40
0.5625
 40
0.59375
 40
0.59375
 40
0.59375
 40
0.59375
 40
0.625
 40
0.625
 40
0.625
 40
0.625
 40
0.65625
 40
0.65625
 40
0.65625
 40
0.65625
 40
0.6875
 40
0.6875
 40
0.6875
 40
0.6875
 40
0.71875
 40
0.71875
 40
0.71875
 40
0.71875
 40
0.75
 40
0.75
 40
0.75
 40
0.75
 40
0.78125
 40
0.78125
 40
0.78125
 40
0.78125
 40
0.8125
 40
0.8125
 40
0.8125
 40
0.8125
 40
0.84375
 40
0.84375
 40
0.84375
 40
0.84375
 40
0.875
 40
0.875
 40
0.875
 40
0.875
 40
0.90625
 40
0.90625
 40
0.90625
 40
0.90625
 40
0.9375
 40
0.9375
 40
0.9375
 40
0.9375
 40
1.0
 40
1.0
 40
1.0
 40
1.0
 10
-14.6836
 20
13.0701
 30
0.0
 10
-14.6836
 20
13.0701
 30
0.0
 10
-14.3499
 20
13.0701
 30
0.0
 10
-14.3499
 20
13.0701
 30
0.0
 10
-14.3499
 20
13.0701
 30
0.0
 10
-14.3499
 20
13.0701
 30
0.0
 10
-14.5129
 20
15.6856
 30
0.0
 10
-14.5129
 20
15.6856
 30
0.0
 10
-14.5129
 20
15.6856
 30
0.0
 10
-14.5129
 20
15.6856
 30
0.0
 10
-14.9436
 20
15.6856
 30
0.0
 10
-14.9436
 20
15.6856
 30
0.0
 10
-14.9436
 20
15.6856
 30
0.0
 10
-14.9436
 20
15.6856
 30
0.0
 10
-15.4093
 20
14.4205
 30
0.0
 10
-15.4093
 20
14.4205
 30
0.0
 10
-15.4093
 20
14.4205
 30
0.0
 10
-15.4675
 20
14.2563
 30
0.0
 10
-15.5199
 20
14.101
 30
0.0
 10
-15.5665
 20
13.9555
 30
0.0
 10
-15.5665
 20
13.9555
 30
0.0
 10
-15.613
 20
13.81
 30
0.0
 10
-15.6538
 20
13.6709
 30
0.0
 10
-15.6887
 20
13.5396
 30
0.0
 10
-15.6887
 20
13.5396
 30
0.0
 10
-15.6887
 20
13.5396
 30
0.0
 10
-15.6965
 20
13.5396
 30
0.0
 10
-15.6965
 20
13.5396
 30
0.0
 10
-15.6965
 20
13.5396
 30
0.0
 10
-15.7314
 20
13.6748
 30
0.0
 10
-15.7702
 20
13.8158
 30
0.0
 10
-15.8135
 20
13.9613
 30
0.0
 10
-15.8135
 20
13.9613
 30
0.0
 10
-15.8575
 20
14.1069
 30
0.0
 10
-15.906
 20
14.2601
 30
0.0
 10
-15.9603
 20
14.4205
 30
0.0
 10
-15.9603
 20
14.4205
 30
0.0
 10
-15.9603
 20
14.4205
 30
0.0
 10
-16.4066
 20
15.6856
 30
0.0
 10
-16.4066
 20
15.6856
 30
0.0
 10
-16.4066
 20
15.6856
 30
0.0
 10
-16.4066
 20
15.6856
 30
0.0
 10
-16.8373
 20
15.6856
 30
0.0
 10
-16.8373
 20
15.6856
 30
0.0
 10
-16.8373
 20
15.6856
 30
0.0
 10
-16.8373
 20
15.6856
 30
0.0
 10
-17.0197
 20
13.0701
 30
0.0
 10
-17.0197
 20
13.0701
 30
0.0
 10
-17.0197
 20
13.0701
 30
0.0
 10
-17.0197
 20
13.0701
 30
0.0
 10
-16.6976
 20
13.0701
 30
0.0
 10
-16.6976
 20
13.0701
 30
0.0
 10
-16.6976
 20
13.0701
 30
0.0
 10
-16.6976
 20
13.0701
 30
0.0
 10
-16.6278
 20
14.1916
 30
0.0
 10
-16.6278
 20
14.1916
 30
0.0
 10
-16.6278
 20
14.1916
 30
0.0
 10
-16.62
 20
14.3248
 30
0.0
 10
-16.6129
 20
14.4587
 30
0.0
 10
-16.6058
 20
14.5952
 30
0.0
 10
-16.6058
 20
14.5952
 30
0.0
 10
-16.5993
 20
14.731
 30
0.0
 10
-16.5935
 20
14.8629
 30
0.0
 10
-16.5883
 20
14.9916
 30
0.0
 10
-16.5883
 20
14.9916
 30
0.0
 10
-16.5838
 20
15.1197
 30
0.0
 10
-16.5799
 20
15.2387
 30
0.0
 10
-16.5773
 20
15.348
 30
0.0
 10
-16.5773
 20
15.348
 30
0.0
 10
-16.5773
 20
15.348
 30
0.0
 10
-16.5696
 20
15.348
 30
0.0
 10
-16.5696
 20
15.348
 30
0.0
 10
-16.5696
 20
15.348
 30
0.0
 10
-16.5327
 20
15.1934
 30
0.0
 10
-16.4894
 20
15.0317
 30
0.0
 10
-16.4389
 20
14.8629
 30
0.0
 10
-16.4389
 20
14.8629
 30
0.0
 10
-16.3891
 20
14.6948
 30
0.0
 10
-16.3329
 20
14.5175
 30
0.0
 10
-16.2708
 20
14.3313
 30
0.0
 10
-16.2708
 20
14.3313
 30
0.0
 10
-16.2708
 20
14.3313
 30
0.0
 10
-15.8439
 20
13.0856
 30
0.0
 10
-15.8439
 20
13.0856
 30
0.0
 10
-15.8439
 20
13.0856
 30
0.0
 10
-15.8439
 20
13.0856
 30
0.0
 10
-15.5878
 20
13.0856
 30
0.0
 10
-15.5878
 20
13.0856
 30
0.0
 10
-15.5878
 20
13.0856
 30
0.0
 10
-15.5878
 20
13.0856
 30
0.0
 10
-15.126
 20
14.3546
 30
0.0
 10
-15.126
 20
14.3546
 30
0.0
 10
-15.126
 20
14.3546
 30
0.0
 10
-15.0601
 20
14.535
 30
0.0
 10
-15.0005
 20
14.7077
 30
0.0
 10
-14.9462
 20
14.8733
 30
0.0
 10
-14.9462
 20
14.8733
 30
0.0
 10
-14.8925
 20
15.0388
 30
0.0
 10
-14.8421
 20
15.1966
 30
0.0
 10
-14.7962
 20
15.348
 30
0.0
 10
-14.7962
 20
15.348
 30
0.0
 10
-14.7962
 20
15.348
 30
0.0
 10
-14.7884
 20
15.348
 30
0.0
 10
-14.7884
 20
15.348
 30
0.0
 10
-14.7884
 20
15.348
 30
0.0
 10
-14.7884
 20
15.2671
 30
0.0
 10
-14.7871
 20
15.1798
 30
0.0
 10
-14.7845
 20
15.0873
 30
0.0
 10
-14.7845
 20
15.0873
 30
0.0
 10
-14.7819
 20
14.9942
 30
0.0
 10
-14.7787
 20
14.8985
 30
0.0
 10
-14.7742
 20
14.7995
 30
0.0
 10
-14.7742
 20
14.7995
 30
0.0
 10
-14.7703
 20
14.7006
 30
0.0
 10
-14.7658
 20
14.6023
 30
0.0
 10
-14.7606
 20
14.504
 30
0.0
 10
-14.7606
 20
14.504
 30
0.0
 10
-14.7554
 20
14.4057
 30
0.0
 10
-14.7509
 20
14.3106
 30
0.0
 10
-14.7457
 20
14.2187
 30
0.0
 10
-14.7457
 20
14.2187
 30
0.0
 10
-14.7457
 20
14.2187
 30
0.0
 10
-14.6836
 20
13.0701
 30
0.0
 10
-14.6836
 20
13.0701
 30
0.0
  0
SPLINE
  5
12A
330
1F
100
AcDbEntity
  8
Standard layer
 62
   250
100
AcDbSpline
210
0.0
220
0.0
230
1.0
 70
    11
 71
     3
 72
   124
 73
   120
 74
     0
 42
0.0000000001
 43
0.0000000001
 40
0.0
 40
0.0
 40
0.0
 40
0.0
 40
0.032258064516129
 40
0.032258064516129
 40
0.032258064516129
 40
0.032258064516129
 40
0.0645161290322581
 40
0.0645161290322581
 40
0.0645161290322581
 40
0.0645161290322581
 40
0.0967741935483871
 40
0.0967741935483871
 40
0.0967741935483871
 40
0.0967741935483871
 40
0.1290322580645161
 40
0.1290322580645161
 40
0.1290322580645161
 40
0.1290322580645161
 40
0.1612903225806452
 40
0.1612903225806452
 40
0.1612903225806452
 40
0.1612903225806452
 40
0.1935483870967742
 40
0.1935483870967742
 40
0.1935483870967742
 40
0.1935483870967742
 40
0.2258064516129032
 40
0.2258064516129032
 40
0.2258064516129032
 40
0.2258064516129032
 40
0.2580645161290323
 40
0.2580645161290323
 40
0.2580645161290323
 40
0.2580645161290323
 40
0.2903225806451613
 40
0.2903225806451613
 40
0.2903225806451613
 40
0.2903225806451613
 40
0.3225806451612903
 40
0.3225806451612903
 40
0.3225806451612903
 40
0.3225806451612903
 40
0.3548387096774194
 40
0.3548387096774194
 40
0.3548387096774194
 40
0.3548387096774194
 40
0.3870967741935484
 40
0.3870967741935484
 40
0.3870967741935484
 40
0.3870967741935484
 40
0.4193548387096774
 40
0.4193548387096774
 40
0.4193548387096774
 40
0.4193548387096774
 40
0.4516129032258064
 40
0.4516129032258064
 40
0.4516129032258064
 40
0.4516129032258064
 40
0.4838709677419355
 40
0.4838709677419355
 40
0.4838709677419355
 40
0.4838709677419355
 40
0.5161290322580645
 40
0.5161290322580645
 40
0.5161290322580645
 40
0.5161290322580645
 40
0.5483870967741935
 40
0.5483870967741935
 40
0.5483870967741935
 40
0.5483870967741935
 40
0.5806451612903226
 40
0.5806451612903226
 40
0.5806451612903226
 40
0.5806451612903226
 40
0.6129032258064516
 40
0.6129032258064516
 40
0.6129032258064516
 40
0.6129032258064516
 40
0.6451612903225806
 40
0.6451612903225806
 40
0.6451612903225806
 40
0.6451612903225806
 40
0.6774193548387096
 40
0.6774193548387096
 40
0.6774193548387096
 40
0.6774193548387096
 40
0.7096774193548387
 40
0.7096774193548387
 40
0.7096774193548387
 40
0.7096774193548387
 40
0.7419354838709677
 40
0.7419354838709677
 40
0.7419354838709677
 40
0.7419354838709677
 40
0.7741935483870968
 40
0.7741935483870968
 40
0.7741935483870968
 40
0.7741935483870968
 40
0.8064516129032258
 40
0.8064516129032258
 40
0.8064516129032258
 40
0.8064516129032258
 40
0.8387096774193549
 40
0.8387096774193549
 40
0.8387096774193549
 40
0.8387096774193549
 40
0.8709677419354839
 40
0.8709677419354839
 40
0.8709677419354839
 40
0.8709677419354839
 40
0.9032258064516129
 40
0.9032258064516129
 40
0.9032258064516129
 40
0.9032258064516129
 40
0.9354838709677419
 40
0.9354838709677419
 40
0.9354838709677419
 40
0.9354838709677419
 40
1.0
 40
1.0
 40
1.0
 40
1.0
 10
-12.5105
 20
15.6313
 30
0.0
 10
-12.5416
 20
15.6313
 30
0.0
 10
-12.5784
 20
15.63
 30
0.0
 10
-12.6198
 20
15.6274
 30
0.0
 10
-12.6198
 20
15.6274
 30
0.0
 10
-12.6619
 20
15.6248
 30
0.0
 10
-12.7084
 20
15.6196
 30
0.0
 10
-12.7589
 20
15.6119
 30
0.0
 10
-12.7589
 20
15.6119
 30
0.0
 10
-12.9186
 20
15.5924
 30
0.0
 10
-13.0667
 20
15.5511
 30
0.0
 10
-13.2032
 20
15.4883
 30
0.0
 10
-13.2032
 20
15.4883
 30
0.0
 10
-13.3397
 20
15.4256
 30
0.0
 10
-13.4606
 20
15.3428
 30
0.0
 10
-13.566
 20
15.2393
 30
0.0
 10
-13.566
 20
15.2393
 30
0.0
 10
-13.6508
 20
15.1565
 30
0.0
 10
-13.7251
 20
15.0582
 30
0.0
 10
-13.7885
 20
14.9444
 30
0.0
 10
-13.7885
 20
14.9444
 30
0.0
 10
-13.8526
 20
14.8312
 30
0.0
 10
-13.9023
 20
14.7038
 30
0.0
 10
-13.9386
 20
14.5628
 30
0.0
 10
-13.9386
 20
14.5628
 30
0.0
 10
-13.9741
 20
14.4218
 30
0.0
 10
-13.9922
 20
14.2679
 30
0.0
 10
-13.9929
 20
14.1023
 30
0.0
 10
-13.9929
 20
14.1023
 30
0.0
 10
-13.9922
 20
13.938
 30
0.0
 10
-13.9709
 20
13.7899
 30
0.0
 10
-13.9295
 20
13.658
 30
0.0
 10
-13.9295
 20
13.658
 30
0.0
 10
-13.8875
 20
13.5254
 30
0.0
 10
-13.8273
 20
13.4129
 30
0.0
 10
-13.7491
 20
13.3191
 30
0.0
 10
-13.7491
 20
13.3191
 30
0.0
 10
-13.6714
 20
13.2253
 30
0.0
 10
-13.5777
 20
13.1529
 30
0.0
 10
-13.469
 20
13.1031
 30
0.0
 10
-13.469
 20
13.1031
 30
0.0
 10
-13.3604
 20
13.0533
 30
0.0
 10
-13.2388
 20
13.0281
 30
0.0
 10
-13.1043
 20
13.0274
 30
0.0
 10
-13.1043
 20
13.0274
 30
0.0
 10
-12.9723
 20
13.0287
 30
0.0
 10
-12.8539
 20
13.0533
 30
0.0
 10
-12.7498
 20
13.1011
 30
0.0
 10
-12.7498
 20
13.1011
 30
0.0
 10
-12.6463
 20
13.1496
 30
0.0
 10
-12.5577
 20
13.2156
 30
0.0
 10
-12.4853
 20
13.299
 30
0.0
 10
-12.4853
 20
13.299
 30
0.0
 10
-12.4129
 20
13.3825
 30
0.0
 10
-12.3573
 20
13.4776
 30
0.0
 10
-12.3197
 20
13.5843
 30
0.0
 10
-12.3197
 20
13.5843
 30
0.0
 10
-12.2816
 20
13.6903
 30
0.0
 10
-12.2622
 20
13.8022
 30
0.0
 10
-12.2622
 20
13.9199
 30
0.0
 10
-12.2622
 20
13.9199
 30
0.0
 10
-12.2628
 20
14.0428
 30
0.0
 10
-12.2816
 20
14.1541
 30
0.0
 10
-12.3184
 20
14.2537
 30
0.0
 10
-12.3184
 20
14.2537
 30
0.0
 10
-12.3553
 20
14.3533
 30
0.0
 10
-12.4077
 20
14.4393
 30
0.0
 10
-12.4749
 20
14.5111
 30
0.0
 10
-12.4749
 20
14.5111
 30
0.0
 10
-12.5429
 20
14.5822
 30
0.0
 10
-12.6231
 20
14.6378
 30
0.0
 10
-12.7155
 20
14.676
 30
0.0
 10
-12.7155
 20
14.676
 30
0.0
 10
-12.808
 20
14.7148
 30
0.0
 10
-12.9109
 20
14.7342
 30
0.0
 10
-13.0228
 20
14.7349
 30
0.0
 10
-13.0228
 20
14.7349
 30
0.0
 10
-13.1159
 20
14.7342
 30
0.0
 10
-13.2013
 20
14.7206
 30
0.0
 10
-13.2789
 20
14.6948
 30
0.0
 10
-13.2789
 20
14.6948
 30
0.0
 10
-13.3565
 20
14.6682
 30
0.0
 10
-13.4257
 20
14.6333
 30
0.0
 10
-13.4858
 20
14.5887
 30
0.0
 10
-13.4858
 20
14.5887
 30
0.0
 10
-13.5453
 20
14.5447
 30
0.0
 10
-13.5958
 20
14.4949
 30
0.0
 10
-13.6359
 20
14.4399
 30
0.0
 10
-13.6359
 20
14.4399
 30
0.0
 10
-13.6359
 20
14.4399
 30
0.0
 10
-13.6436
 20
14.4399
 30
0.0
 10
-13.6436
 20
14.4399
 30
0.0
 10
-13.6436
 20
14.4399
 30
0.0
 10
-13.6294
 20
14.5454
 30
0.0
 10
-13.601
 20
14.6469
 30
0.0
 10
-13.5576
 20
14.7446
 30
0.0
 10
-13.5576
 20
14.7446
 30
0.0
 10
-13.5149
 20
14.8416
 30
0.0
 10
-13.458
 20
14.9308
 30
0.0
 10
-13.3856
 20
15.0117
 30
0.0
 10
-13.3856
 20
15.0117
 30
0.0
 10
-13.3132
 20
15.0919
 30
0.0
 10
-13.2258
 20
15.1604
 30
0.0
 10
-13.123
 20
15.2161
 30
0.0
 10
-13.123
 20
15.2161
 30
0.0
 10
-13.0202
 20
15.2717
 30
0.0
 10
-12.9012
 20
15.3105
 30
0.0
 10
-12.7666
 20
15.3325
 30
0.0
 10
-12.7666
 20
15.3325
 30
0.0
 10
-12.7181
 20
15.3402
 30
0.0
 10
-12.6716
 20
15.346
 30
0.0
 10
-12.6282
 20
15.3493
 30
0.0
 10
-12.6282
 20
15.3493
 30
0.0
 10
-12.5849
 20
15.3532
 30
0.0
 10
-12.5454
 20
15.3538
 30
0.0
 10
-12.5105
 20
15.3519
 30
0.0
 10
-12.5105
 20
15.3519
 30
0.0
 10
-12.5105
 20
15.3519
 30
0.0
 10
-12.5105
 20
15.6313
 30
0.0
 10
-12.5105
 20
15.6313
 30
0.0
  0
SPLINE
  5
12B
330
1F
100
AcDbEntity
  8
Standard layer
 62
   250
100
AcDbSpline
210
0.0
220
0.0
230
1.0
 70
    11
 71
     3
 72
    64
 73
    60
 74
     0
 42
0.0000000001
 43
0.0000000001
 40
0.0
 40
0.0
 40
0.0
 40
0.0
 40
0.0625
 40
0.0625
 40
0.0625
 40
0.0625
 40
0.125
 40
0.125
 40
0.125
 40
0.125
 40
0.1875
 40
0.1875
 40
0.1875
 40
0.1875
 40
0.25
 40
0.25
 40
0.25
 40
0.25
 40
0.3125
 40
0.3125
 40
0.3125
 40
0.3125
 40
0.375
 40
0.375
 40
0.375
 40
0.375
 40
0.4375
 40
0.4375
 40
0.4375
 40
0.4375
 40
0.5
 40
0.5
 40
0.5
 40
0.5
 40
0.5625
 40
0.5625
 40
0.5625
 40
0.5625
 40
0.625
 40
0.625
 40
0.625
 40
0.625
 40
0.6875
 40
0.6875
 40
0.6875
 40
0.6875
 40
0.75
 40
0.75
 40
0.75
 40
0.75
 40
0.8125
 40
0.8125
 40
0.8125
 40
0.8125
 40
0.875
 40
0.875
 40
0.875
 40
0.875
 40
1.0
 40
1.0
 40
1.0
 40
1.0
 10
-13.0965
 20
13.2913
 30
0.0
 10
-13.187
 20
13.2919
 30
0.0
 10
-13.2666
 20
13.31
 30
0.0
 10
-13.3358
 20
13.3463
 30
0.0
 10
-13.3358
 20
13.3463
 30
0.0
 10
-13.4044
 20
13.3825
 30
0.0
 10
-13.4626
 20
13.4329
 30
0.0
 10
-13.5098
 20
13.4983
 30
0.0
 10
-13.5098
 20
13.4983
 30
0.0
 10
-13.557
 20
13.5636
 30
0.0
 10
-13.5926
 20
13.6405
 30
0.0
 10
-13.6171
 20
13.7285
 30
0.0
 10
-13.6171
 20
13.7285
 30
0.0
 10
-13.6417
 20
13.8165
 30
0.0
 10
-13.654
 20
13.9128
 30
0.0
 10
-13.6553
 20
14.0169
 30
0.0
 10
-13.6553
 20
14.0169
 30
0.0
 10
-13.6553
 20
14.048
 30
0.0
 10
-13.6514
 20
14.0752
 30
0.0
 10
-13.6449
 20
14.0997
 30
0.0
 10
-13.6449
 20
14.0997
 30
0.0
 10
-13.6385
 20
14.1237
 30
0.0
 10
-13.6301
 20
14.145
 30
0.0
 10
-13.6204
 20
14.1644
 30
0.0
 10
-13.6204
 20
14.1644
 30
0.0
 10
-13.5887
 20
14.2272
 30
0.0
 10
-13.5479
 20
14.2815
 30
0.0
 10
-13.4968
 20
14.328
 30
0.0
 10
-13.4968
 20
14.328
 30
0.0
 10
-13.4464
 20
14.374
 30
0.0
 10
-13.3895
 20
14.4102
 30
0.0
 10
-13.3261
 20
14.436
 30
0.0
 10
-13.3261
 20
14.436
 30
0.0
 10
-13.2627
 20
14.4613
 30
0.0
 10
-13.1967
 20
14.4749
 30
0.0
 10
-13.1275
 20
14.4749
 30
0.0
 10
-13.1275
 20
14.4749
 30
0.0
 10
-13.0221
 20
14.4742
 30
0.0
 10
-12.9309
 20
14.4509
 30
0.0
 10
-12.8527
 20
14.405
 30
0.0
 10
-12.8527
 20
14.405
 30
0.0
 10
-12.775
 20
14.3591
 30
0.0
 10
-12.7149
 20
14.2931
 30
0.0
 10
-12.6722
 20
14.2071
 30
0.0
 10
-12.6722
 20
14.2071
 30
0.0
 10
-12.6295
 20
14.1211
 30
0.0
 10
-12.6082
 20
14.0176
 30
0.0
 10
-12.6075
 20
13.8966
 30
0.0
 10
-12.6075
 20
13.8966
 30
0.0
 10
-12.6082
 20
13.7757
 30
0.0
 10
-12.6289
 20
13.6697
 30
0.0
 10
-12.6696
 20
13.5791
 30
0.0
 10
-12.6696
 20
13.5791
 30
0.0
 10
-12.7104
 20
13.4885
 30
0.0
 10
-12.7673
 20
13.4187
 30
0.0
 10
-12.8404
 20
13.3682
 30
0.0
 10
-12.8404
 20
13.3682
 30
0.0
 10
-12.9135
 20
13.3178
 30
0.0
 10
-12.9988
 20
13.2919
 30
0.0
 10
-13.0965
 20
13.2913
 30
0.0
  0
SPLINE
  5
12C
330
1F
100
AcDbEntity
  8
Standard layer
 62
   250
100
AcDbSpline
210
0.0
220
0.0
230
1.0
 70
    11
 71
     3
 72
   104
 73
   100
 74
     0
 42
0.0000000001
 43
0.0000000001
 40
0.0
 40
0.0
 40
0.0
 40
0.0
 40
0.0384615384615385
 40
0.0384615384615385
 40
0.0384615384615385
 40
0.0384615384615385
 40
0.0769230769230769
 40
0.0769230769230769
 40
0.0769230769230769
 40
0.0769230769230769
 40
0.1153846153846154
 40
0.1153846153846154
 40
0.1153846153846154
 40
0.1153846153846154
 40
0.1538461538461539
 40
0.1538461538461539
 40
0.1538461538461539
 40
0.1538461538461539
 40
0.1923076923076923
 40
0.1923076923076923
 40
0.1923076923076923
 40
0.1923076923076923
 40
0.2307692307692308
 40
0.2307692307692308
 40
0.2307692307692308
 40
0.2307692307692308
 40
0.2692307692307692
 40
0.2692307692307692
 40
0.2692307692307692
 40
0.2692307692307692
 40
0.3076923076923077
 40
0.3076923076923077
 40
0.3076923076923077
 40
0.3076923076923077
 40
0.3461538461538461
 40
0.3461538461538461
 40
0.3461538461538461
 40
0.3461538461538461
 40
0.3846153846153846
 40
0.3846153846153846
 40
0.3846153846153846
 40
0.3846153846153846
 40
0.4230769230769231
 40
0.4230769230769231
 40
0.4230769230769231
 40
0.4230769230769231
 40
0.4615384615384616
 40
0.4615384615384616
 40
0.4615384615384616
 40
0.4615384615384616
 40
0.5
 40
0.5
 40
0.5
 40
0.5
 40
0.5384615384615384
 40
0.5384615384615384
 40
0.5384615384615384
 40
0.5384615384615384
 40
0.5769230769230769
 40
0.5769230769230769
 40
0.5769230769230769
 40
0.5769230769230769
 40
0.6153846153846154
 40
0.6153846153846154
 40
0.6153846153846154
 40
0.6153846153846154
 40
0.6538461538461539
 40
0.6538461538461539
 40
0.6538461538461539
 40
0.6538461538461539
 40
0.6923076923076923
 40
0.6923076923076923
 40
0.6923076923076923
 40
0.6923076923076923
 40
0.7307692307692307
 40
0.7307692307692307
 40
0.7307692307692307
 40
0.7307692307692307
 40
0.7692307692307693
 40
0.7692307692307693
 40
0.7692307692307693
 40
0.7692307692307693
 40
0.8076923076923077
 40
0.8076923076923077
 40
0.8076923076923077
 40
0.8076923076923077
 40
0.8461538461538461
 40
0.8461538461538461
 40
0.8461538461538461
 40
0.8461538461538461
 40
0.8846153846153846
 40
0.8846153846153846
 40
0.8846153846153846
 40
0.8846153846153846
 40
0.9230769230769231
 40
0.9230769230769231
 40
0.9230769230769231
 40
0.9230769230769231
 40
1.0
 40
1.0
 40
1.0
 40
1.0
 10
-26.4051
 20
-10.0312
 30
0.0
 10
-26.4051
 20
-10.0312
 30
0.0
 10
-25.9962
 20
-9.9681
 30
0.0
 10
-25.9962
 20
-9.9681
 30
0.0
 10
-25.9962
 20
-9.9681
 30
0.0
 10
-25.9779
 20
-10.0824
 30
0.0
 10
-25.9423
 20
-10.1922
 30
0.0
 10
-25.8888
 20
-10.296
 30
0.0
 10
-25.8888
 20
-10.296
 30
0.0
 10
-25.8348
 20
-10.4003
 30
0.0
 10
-25.7648
 20
-10.4958
 30
0.0
 10
-25.6779
 20
-10.5827
 30
0.0
 10
-25.6779
 20
-10.5827
 30
0.0
 10
-25.5887
 20
-10.6719
 30
0.0
 10
-25.489
 20
-10.7451
 30
0.0
 10
-25.3802
 20
-10.8018
 30
0.0
 10
-25.3802
 20
-10.8018
 30
0.0
 10
-25.2714
 20
-10.8585
 30
0.0
 10
-25.1557
 20
-10.8965
 30
0.0
 10
-25.0331
 20
-10.9148
 30
0.0
 10
-25.0331
 20
-10.9148
 30
0.0
 10
-24.9105
 20
-10.934
 30
0.0
 10
-24.7838
 20
-10.9307
 30
0.0
 10
-24.653
 20
-10.9061
 30
0.0
 10
-24.653
 20
-10.9061
 30
0.0
 10
-24.5227
 20
-10.8809
 30
0.0
 10
-24.391
 20
-10.8315
 30
0.0
 10
-24.2575
 20
-10.7574
 30
0.0
 10
-24.2575
 20
-10.7574
 30
0.0
 10
-24.1248
 20
-10.6833
 30
0.0
 10
-23.9936
 20
-10.5823
 30
0.0
 10
-23.8642
 20
-10.4538
 30
0.0
 10
-23.8642
 20
-10.4538
 30
0.0
 10
-23.7732
 20
-10.3627
 30
0.0
 10
-23.6959
 20
-10.2672
 30
0.0
 10
-23.6323
 20
-10.1661
 30
0.0
 10
-23.6323
 20
-10.1661
 30
0.0
 10
-23.5678
 20
-10.065
 30
0.0
 10
-23.518
 20
-9.9612
 30
0.0
 10
-23.4823
 20
-9.8551
 30
0.0
 10
-23.4823
 20
-9.8551
 30
0.0
 10
-23.4471
 20
-9.7486
 30
0.0
 10
-23.4274
 20
-9.642
 30
0.0
 10
-23.4224
 20
-9.5345
 30
0.0
 10
-23.4224
 20
-9.5345
 30
0.0
 10
-23.4224
 20
-9.5345
 30
0.0
 10
-23.0163
 20
-9.4687
 30
0.0
 10
-23.0163
 20
-9.4687
 30
0.0
 10
-23.0163
 20
-9.4687
 30
0.0
 10
-23.0163
 20
-9.4687
 30
0.0
 10
-23.0629
 20
-9.2245
 30
0.0
 10
-23.0629
 20
-9.2245
 30
0.0
 10
-23.0629
 20
-9.2245
 30
0.0
 10
-23.0629
 20
-9.2245
 30
0.0
 10
-23.4471
 20
-9.2848
 30
0.0
 10
-23.4471
 20
-9.2848
 30
0.0
 10
-23.4471
 20
-9.2848
 30
0.0
 10
-23.464
 20
-9.1691
 30
0.0
 10
-23.4988
 20
-9.0603
 30
0.0
 10
-23.5518
 20
-8.9579
 30
0.0
 10
-23.5518
 20
-8.9579
 30
0.0
 10
-23.6053
 20
-8.8549
 30
0.0
 10
-23.6744
 20
-8.7612
 30
0.0
 10
-23.7599
 20
-8.6757
 30
0.0
 10
-23.7599
 20
-8.6757
 30
0.0
 10
-23.8825
 20
-8.554
 30
0.0
 10
-24.0178
 20
-8.4644
 30
0.0
 10
-24.1669
 20
-8.4058
 30
0.0
 10
-24.1669
 20
-8.4058
 30
0.0
 10
-24.3156
 20
-8.3478
 30
0.0
 10
-24.471
 20
-8.3231
 30
0.0
 10
-24.6325
 20
-8.3309
 30
0.0
 10
-24.6325
 20
-8.3309
 30
0.0
 10
-24.7944
 20
-8.3382
 30
0.0
 10
-24.9553
 20
-8.3802
 30
0.0
 10
-25.1168
 20
-8.4557
 30
0.0
 10
-25.1168
 20
-8.4557
 30
0.0
 10
-25.2778
 20
-8.5316
 30
0.0
 10
-25.4319
 20
-8.6418
 30
0.0
 10
-25.5791
 20
-8.7882
 30
0.0
 10
-25.5791
 20
-8.7882
 30
0.0
 10
-25.6715
 20
-8.8806
 30
0.0
 10
-25.7497
 20
-8.9789
 30
0.0
 10
-25.8138
 20
-9.0813
 30
0.0
 10
-25.8138
 20
-9.0813
 30
0.0
 10
-25.8778
 20
-9.1838
 30
0.0
 10
-25.9272
 20
-9.2889
 30
0.0
 10
-25.9619
 20
-9.396
 30
0.0
 10
-25.9619
 20
-9.396
 30
0.0
 10
-25.9962
 20
-9.5034
 30
0.0
 10
-26.0159
 20
-9.6109
 30
0.0
 10
-26.0209
 20
-9.7184
 30
0.0
 10
-26.0209
 20
-9.7184
 30
0.0
 10
-26.0209
 20
-9.7184
 30
0.0
 10
-26.4298
 20
-9.787
 30
0.0
 10
-26.4298
 20
-9.787
 30
0.0
 10
-26.4298
 20
-9.787
 30
0.0
 10
-26.4298
 20
-9.787
 30
0.0
 10
-26.4051
 20
-10.0312
 30
0.0
 10
-26.4051
 20
-10.0312
 30
0.0
  0
SPLINE
  5
12D
330
1F
100
AcDbEntity
  8
Standard layer
 62
   250
100
AcDbSpline
210
0.0
220
0.0
230
1.0
 70
    11
 71
     3
 72
    52
 73
    48
 74
     0
 42
0.0000000001
 43
0.0000000001
 40
0.0
 40
0.0
 40
0.0
 40
0.0
 40
0.0769230769230769
 40
0.0769230769230769
 40
0.0769230769230769
 40
0.0769230769230769
 40
0.1538461538461539
 40
0.1538461538461539
 40
0.1538461538461539
 40
0.1538461538461539
 40
0.2307692307692308
 40
0.2307692307692308
 40
0.2307692307692308
 40
0.2307692307692308
 40
0.3076923076923077
 40
0.3076923076923077
 40
0.3076923076923077
 40
0.3076923076923077
 40
0.3846153846153846
 40
0.3846153846153846
 40
0.3846153846153846
 40
0.3846153846153846
 40
0.4615384615384616
 40
0.4615384615384616
 40
0.4615384615384616
 40
0.4615384615384616
 40
0.5384615384615384
 40
0.5384615384615384
 40
0.5384615384615384
 40
0.5384615384615384
 40
0.6153846153846154
 40
0.6153846153846154
 40
0.6153846153846154
 40
0.6153846153846154
 40
0.6923076923076923
 40
0.6923076923076923
 40
0.6923076923076923
 40
0.6923076923076923
 40
0.7692307692307693
 40
0.7692307692307693
 40
0.7692307692307693
 40
0.7692307692307693
 40
0.8461538461538461
 40
0.8461538461538461
 40
0.8461538461538461
 40
0.8461538461538461
 40
1.0
 40
1.0
 40
1.0
 40
1.0
 10
-25.6779
 20
-9.6553
 30
0.0
 10
-25.6779
 20
-9.6553
 30
0.0
 10
-25.6862
 20
-9.6525
 30
0.0
 10
-25.6862
 20
-9.6525
 30
0.0
 10
-25.6862
 20
-9.6525
 30
0.0
 10
-25.6665
 20
-9.578
 30
0.0
 10
-25.6413
 20
-9.5053
 30
0.0
 10
-25.6111
 20
-9.4348
 30
0.0
 10
-25.6111
 20
-9.4348
 30
0.0
 10
-25.5805
 20
-9.3639
 30
0.0
 10
-25.5426
 20
-9.2949
 30
0.0
 10
-25.4959
 20
-9.2263
 30
0.0
 10
-25.4959
 20
-9.2263
 30
0.0
 10
-25.4497
 20
-9.1582
 30
0.0
 10
-25.3921
 20
-9.0895
 30
0.0
 10
-25.324
 20
-9.0214
 30
0.0
 10
-25.324
 20
-9.0214
 30
0.0
 10
-25.2453
 20
-8.9427
 30
0.0
 10
-25.1611
 20
-8.8751
 30
0.0
 10
-25.0706
 20
-8.8165
 30
0.0
 10
-25.0706
 20
-8.8165
 30
0.0
 10
-24.98
 20
-8.7589
 30
0.0
 10
-24.8863
 20
-8.7136
 30
0.0
 10
-24.7903
 20
-8.6816
 30
0.0
 10
-24.7903
 20
-8.6816
 30
0.0
 10
-24.6933
 20
-8.6496
 30
0.0
 10
-24.5963
 20
-8.6331
 30
0.0
 10
-24.4994
 20
-8.6331
 30
0.0
 10
-24.4994
 20
-8.6331
 30
0.0
 10
-24.402
 20
-8.6327
 30
0.0
 10
-24.3078
 20
-8.651
 30
0.0
 10
-24.2163
 20
-8.6876
 30
0.0
 10
-24.2163
 20
-8.6876
 30
0.0
 10
-24.1239
 20
-8.7242
 30
0.0
 10
-24.0379
 20
-8.7827
 30
0.0
 10
-23.9575
 20
-8.8623
 30
0.0
 10
-23.9575
 20
-8.8623
 30
0.0
 10
-23.8879
 20
-8.9327
 30
0.0
 10
-23.8354
 20
-9.0082
 30
0.0
 10
-23.8006
 20
-9.0886
 30
0.0
 10
-23.8006
 20
-9.0886
 30
0.0
 10
-23.7649
 20
-9.1691
 30
0.0
 10
-23.7443
 20
-9.2528
 30
0.0
 10
-23.7379
 20
-9.3397
 30
0.0
 10
-23.7379
 20
-9.3397
 30
0.0
 10
-23.7379
 20
-9.3397
 30
0.0
 10
-25.6779
 20
-9.6553
 30
0.0
 10
-25.6779
 20
-9.6553
 30
0.0
  0
SPLINE
  5
12E
330
1F
100
AcDbEntity
  8
Standard layer
 62
   250
100
AcDbSpline
210
0.0
220
0.0
230
1.0
 70
    11
 71
     3
 72
    48
 73
    44
 74
     0
 42
0.0000000001
 43
0.0000000001
 40
0.0
 40
0.0
 40
0.0
 40
0.0
 40
0.0833333333333333
 40
0.0833333333333333
 40
0.0833333333333333
 40
0.0833333333333333
 40
0.1666666666666667
 40
0.1666666666666667
 40
0.1666666666666667
 40
0.1666666666666667
 40
0.25
 40
0.25
 40
0.25
 40
0.25
 40
0.3333333333333333
 40
0.3333333333333333
 40
0.3333333333333333
 40
0.3333333333333333
 40
0.4166666666666667
 40
0.4166666666666667
 40
0.4166666666666667
 40
0.4166666666666667
 40
0.5
 40
0.5
 40
0.5
 40
0.5
 40
0.5833333333333334
 40
0.5833333333333334
 40
0.5833333333333334
 40
0.5833333333333334
 40
0.6666666666666666
 40
0.6666666666666666
 40
0.6666666666666666
 40
0.6666666666666666
 40
0.75
 40
0.75
 40
0.75
 40
0.75
 40
0.8333333333333334
 40
0.8333333333333334
 40
0.8333333333333334
 40
0.8333333333333334
 40
1.0
 40
1.0
 40
1.0
 40
1.0
 10
-23.7709
 20
-9.5976
 30
0.0
 10
-23.7709
 20
-9.5976
 30
0.0
 10
-23.7626
 20
-9.6059
 30
0.0
 10
-23.7626
 20
-9.6059
 30
0.0
 10
-23.7626
 20
-9.6059
 30
0.0
 10
-23.7946
 20
-9.733
 30
0.0
 10
-23.8417
 20
-9.8469
 30
0.0
 10
-23.9035
 20
-9.9479
 30
0.0
 10
-23.9035
 20
-9.9479
 30
0.0
 10
-23.9648
 20
-10.0486
 30
0.0
 10
-24.0357
 20
-10.1387
 30
0.0
 10
-24.1166
 20
-10.2178
 30
0.0
 10
-24.1166
 20
-10.2178
 30
0.0
 10
-24.1998
 20
-10.301
 30
0.0
 10
-24.2881
 20
-10.3719
 30
0.0
 10
-24.3814
 20
-10.4314
 30
0.0
 10
-24.3814
 20
-10.4314
 30
0.0
 10
-24.4747
 20
-10.4908
 30
0.0
 10
-24.5703
 20
-10.5361
 30
0.0
 10
-24.6677
 20
-10.5676
 30
0.0
 10
-24.6677
 20
-10.5676
 30
0.0
 10
-24.7656
 20
-10.5987
 30
0.0
 10
-24.8625
 20
-10.6143
 30
0.0
 10
-24.9585
 20
-10.6134
 30
0.0
 10
-24.9585
 20
-10.6134
 30
0.0
 10
-25.0555
 20
-10.6124
 30
0.0
 10
-25.1488
 20
-10.5942
 30
0.0
 10
-25.2384
 20
-10.5576
 30
0.0
 10
-25.2384
 20
-10.5576
 30
0.0
 10
-25.3281
 20
-10.521
 30
0.0
 10
-25.4113
 20
-10.4643
 30
0.0
 10
-25.4886
 20
-10.3879
 30
0.0
 10
-25.4886
 20
-10.3879
 30
0.0
 10
-25.5631
 20
-10.3134
 30
0.0
 10
-25.6171
 20
-10.2365
 30
0.0
 10
-25.65
 20
-10.1588
 30
0.0
 10
-25.65
 20
-10.1588
 30
0.0
 10
-25.6834
 20
-10.0806
 30
0.0
 10
-25.7003
 20
-9.9978
 30
0.0
 10
-25.7026
 20
-9.9105
 30
0.0
 10
-25.7026
 20
-9.9105
 30
0.0
 10
-25.7026
 20
-9.9105
 30
0.0
 10
-23.7709
 20
-9.5976
 30
0.0
 10
-23.7709
 20
-9.5976
 30
0.0
  0
SPLINE
  5
12F
330
1F
100
AcDbEntity
  8
Standard layer
 62
   250
100
AcDbSpline
210
0.0
220
0.0
230
1.0
 70
    11
 71
     3
 72
    48
 73
    44
 74
     0
 42
0.0000000001
 43
0.0000000001
 40
0.0
 40
0.0
 40
0.0
 40
0.0
 40
0.0833333333333333
 40
0.0833333333333333
 40
0.0833333333333333
 40
0.0833333333333333
 40
0.1666666666666667
 40
0.1666666666666667
 40
0.1666666666666667
 40
0.1666666666666667
 40
0.25
 40
0.25
 40
0.25
 40
0.25
 40
0.3333333333333333
 40
0.3333333333333333
 40
0.3333333333333333
 40
0.3333333333333333
 40
0.4166666666666667
 40
0.4166666666666667
 40
0.4166666666666667
 40
0.4166666666666667
 40
0.5
 40
0.5
 40
0.5
 40
0.5
 40
0.5833333333333334
 40
0.5833333333333334
 40
0.5833333333333334
 40
0.5833333333333334
 40
0.6666666666666666
 40
0.6666666666666666
 40
0.6666666666666666
 40
0.6666666666666666
 40
0.75
 40
0.75
 40
0.75
 40
0.75
 40
0.8333333333333334
 40
0.8333333333333334
 40
0.8333333333333334
 40
0.8333333333333334
 40
1.0
 40
1.0
 40
1.0
 40
1.0
 10
-23.6062
 20
-12.594
 30
0.0
 10
-23.6062
 20
-12.594
 30
0.0
 10
-23.1178
 20
-12.1056
 30
0.0
 10
-23.1178
 20
-12.1056
 30
0.0
 10
-23.1178
 20
-12.1056
 30
0.0
 10
-23.1178
 20
-12.1056
 30
0.0
 10
-22.8681
 20
-12.3553
 30
0.0
 10
-22.8681
 20
-12.3553
 30
0.0
 10
-22.8681
 20
-12.3553
 30
0.0
 10
-22.8681
 20
-12.3553
 30
0.0
 10
-22.6815
 20
-12.1687
 30
0.0
 10
-22.6815
 20
-12.1687
 30
0.0
 10
-22.6815
 20
-12.1687
 30
0.0
 10
-22.6815
 20
-12.1687
 30
0.0
 10
-22.9312
 20
-11.919
 30
0.0
 10
-22.9312
 20
-11.919
 30
0.0
 10
-22.9312
 20
-11.919
 30
0.0
 10
-22.9312
 20
-11.919
 30
0.0
 10
-21.8227
 20
-10.8105
 30
0.0
 10
-21.8227
 20
-10.8105
 30
0.0
 10
-21.8227
 20
-10.8105
 30
0.0
 10
-21.8227
 20
-10.8105
 30
0.0
 10
-22.0833
 20
-10.5498
 30
0.0
 10
-22.0833
 20
-10.5498
 30
0.0
 10
-22.0833
 20
-10.5498
 30
0.0
 10
-22.0833
 20
-10.5498
 30
0.0
 10
-24.0178
 20
-10.8928
 30
0.0
 10
-24.0178
 20
-10.8928
 30
0.0
 10
-24.0178
 20
-10.8928
 30
0.0
 10
-24.0178
 20
-10.8928
 30
0.0
 10
-24.1742
 20
-11.0492
 30
0.0
 10
-24.1742
 20
-11.0492
 30
0.0
 10
-24.1742
 20
-11.0492
 30
0.0
 10
-24.1742
 20
-11.0492
 30
0.0
 10
-23.3455
 20
-11.8779
 30
0.0
 10
-23.3455
 20
-11.8779
 30
0.0
 10
-23.3455
 20
-11.8779
 30
0.0
 10
-23.3455
 20
-11.8779
 30
0.0
 10
-23.834
 20
-12.3663
 30
0.0
 10
-23.834
 20
-12.3663
 30
0.0
 10
-23.834
 20
-12.3663
 30
0.0
 10
-23.834
 20
-12.3663
 30
0.0
 10
-23.6062
 20
-12.594
 30
0.0
 10
-23.6062
 20
-12.594
 30
0.0
  0
SPLINE
  5
130
330
1F
100
AcDbEntity
  8
Standard layer
 62
   250
100
AcDbSpline
210
0.0
220
0.0
230
1.0
 70
    11
 71
     3
 72
    36
 73
    32
 74
     0
 42
0.0000000001
 43
0.0000000001
 40
0.0
 40
0.0
 40
0.0
 40
0.0
 40
0.1111111111111111
 40
0.1111111111111111
 40
0.1111111111111111
 40
0.1111111111111111
 40
0.2222222222222222
 40
0.2222222222222222
 40
0.2222222222222222
 40
0.2222222222222222
 40
0.3333333333333333
 40
0.3333333333333333
 40
0.3333333333333333
 40
0.3333333333333333
 40
0.4444444444444444
 40
0.4444444444444444
 40
0.4444444444444444
 40
0.4444444444444444
 40
0.5555555555555556
 40
0.5555555555555556
 40
0.5555555555555556
 40
0.5555555555555556
 40
0.6666666666666666
 40
0.6666666666666666
 40
0.6666666666666666
 40
0.6666666666666666
 40
0.7777777777777778
 40
0.7777777777777778
 40
0.7777777777777778
 40
0.7777777777777778
 40
1.0
 40
1.0
 40
1.0
 40
1.0
 10
-23.7434
 20
-11.1068
 30
0.0
 10
-23.7434
 20
-11.1068
 30
0.0
 10
-23.7379
 20
-11.1013
 30
0.0
 10
-23.7379
 20
-11.1013
 30
0.0
 10
-23.7379
 20
-11.1013
 30
0.0
 10
-23.7379
 20
-11.1013
 30
0.0
 10
-22.6952
 20
-10.9312
 30
0.0
 10
-22.6952
 20
-10.9312
 30
0.0
 10
-22.6952
 20
-10.9312
 30
0.0
 10
-22.6303
 20
-10.9148
 30
0.0
 10
-22.5649
 20
-10.8978
 30
0.0
 10
-22.4995
 20
-10.88
 30
0.0
 10
-22.4995
 20
-10.88
 30
0.0
 10
-22.4341
 20
-10.8612
 30
0.0
 10
-22.3618
 20
-10.8402
 30
0.0
 10
-22.2836
 20
-10.816
 30
0.0
 10
-22.2836
 20
-10.816
 30
0.0
 10
-22.2836
 20
-10.816
 30
0.0
 10
-22.2754
 20
-10.8242
 30
0.0
 10
-22.2754
 20
-10.8242
 30
0.0
 10
-22.2754
 20
-10.8242
 30
0.0
 10
-22.3742
 20
-10.912
 30
0.0
 10
-22.4702
 20
-11.0026
 30
0.0
 10
-22.5635
 20
-11.0959
 30
0.0
 10
-22.5635
 20
-11.0959
 30
0.0
 10
-22.5635
 20
-11.0959
 30
0.0
 10
-23.159
 20
-11.6913
 30
0.0
 10
-23.159
 20
-11.6913
 30
0.0
 10
-23.159
 20
-11.6913
 30
0.0
 10
-23.159
 20
-11.6913
 30
0.0
 10
-23.7434
 20
-11.1068
 30
0.0
 10
-23.7434
 20
-11.1068
 30
0.0
  0
SPLINE
  5
131
330
1F
100
AcDbEntity
  8
Standard layer
 62
   250
100
AcDbSpline
210
0.0
220
0.0
230
1.0
 70
    11
 71
     3
 72
   132
 73
   128
 74
     0
 42
0.0000000001
 43
0.0000000001
 40
0.0
 40
0.0
 40
0.0
 40
0.0
 40
0.0303030303030303
 40
0.0303030303030303
 40
0.0303030303030303
 40
0.0303030303030303
 40
0.0606060606060606
 40
0.0606060606060606
 40
0.0606060606060606
 40
0.0606060606060606
 40
0.0909090909090909
 40
0.0909090909090909
 40
0.0909090909090909
 40
0.0909090909090909
 40
0.1212121212121212
 40
0.1212121212121212
 40
0.1212121212121212
 40
0.1212121212121212
 40
0.1515151515151515
 40
0.1515151515151515
 40
0.1515151515151515
 40
0.1515151515151515
 40
0.1818181818181818
 40
0.1818181818181818
 40
0.1818181818181818
 40
0.1818181818181818
 40
0.2121212121212121
 40
0.2121212121212121
 40
0.2121212121212121
 40
0.2121212121212121
 40
0.2424242424242424
 40
0.2424242424242424
 40
0.2424242424242424
 40
0.2424242424242424
 40
0.2727272727272727
 40
0.2727272727272727
 40
0.2727272727272727
 40
0.2727272727272727
 40
0.303030303030303
 40
0.303030303030303
 40
0.303030303030303
 40
0.303030303030303
 40
0.3333333333333333
 40
0.3333333333333333
 40
0.3333333333333333
 40
0.3333333333333333
 40
0.3636363636363636
 40
0.3636363636363636
 40
0.3636363636363636
 40
0.3636363636363636
 40
0.3939393939393939
 40
0.3939393939393939
 40
0.3939393939393939
 40
0.3939393939393939
 40
0.4242424242424243
 40
0.4242424242424243
 40
0.4242424242424243
 40
0.4242424242424243
 40
0.4545454545454545
 40
0.4545454545454545
 40
0.4545454545454545
 40
0.4545454545454545
 40
0.4848484848484849
 40
0.4848484848484849
 40
0.4848484848484849
 40
0.4848484848484849
 40
0.5151515151515151
 40
0.5151515151515151
 40
0.5151515151515151
 40
0.5151515151515151
 40
0.5454545454545454
 40
0.5454545454545454
 40
0.5454545454545454
 40
0.5454545454545454
 40
0.5757575757575758
 40
0.5757575757575758
 40
0.5757575757575758
 40
0.5757575757575758
 40
0.6060606060606061
 40
0.6060606060606061
 40
0.6060606060606061
 40
0.6060606060606061
 40
0.6363636363636364
 40
0.6363636363636364
 40
0.6363636363636364
 40
0.6363636363636364
 40
0.6666666666666666
 40
0.6666666666666666
 40
0.6666666666666666
 40
0.6666666666666666
 40
0.696969696969697
 40
0.696969696969697
 40
0.696969696969697
 40
0.696969696969697
 40
0.7272727272727273
 40
0.7272727272727273
 40
0.7272727272727273
 40
0.7272727272727273
 40
0.7575757575757576
 40
0.7575757575757576
 40
0.7575757575757576
 40
0.7575757575757576
 40
0.7878787878787878
 40
0.7878787878787878
 40
0.7878787878787878
 40
0.7878787878787878
 40
0.8181818181818182
 40
0.8181818181818182
 40
0.8181818181818182
 40
0.8181818181818182
 40
0.8484848484848485
 40
0.8484848484848485
 40
0.8484848484848485
 40
0.8484848484848485
 40
0.8787878787878788
 40
0.8787878787878788
 40
0.8787878787878788
 40
0.8787878787878788
 40
0.9090909090909091
 40
0.9090909090909091
 40
0.9090909090909091
 40
0.9090909090909091
 40
0.9393939393939394
 40
0.9393939393939394
 40
0.9393939393939394
 40
0.9393939393939394
 40
1.0
 40
1.0
 40
1.0
 40
1.0
 10
-20.3245
 20
-12.3087
 30
0.0
 10
-20.3245
 20
-12.3087
 30
0.0
 10
-21.1778
 20
-11.4553
 30
0.0
 10
-21.1778
 20
-11.4553
 30
0.0
 10
-21.1778
 20
-11.4553
 30
0.0
 10
-21.1778
 20
-11.4553
 30
0.0
 10
-22.1492
 20
-12.1962
 30
0.0
 10
-22.1492
 20
-12.1962
 30
0.0
 10
-22.1492
 20
-12.1962
 30
0.0
 10
-22.1117
 20
-12.2245
 30
0.0
 10
-22.0714
 20
-12.2575
 30
0.0
 10
-22.0271
 20
-12.2954
 30
0.0
 10
-22.0271
 20
-12.2954
 30
0.0
 10
-21.9832
 20
-12.3329
 30
0.0
 10
-21.9347
 20
-12.3777
 30
0.0
 10
-21.883
 20
-12.4294
 30
0.0
 10
-21.883
 20
-12.4294
 30
0.0
 10
-21.7655
 20
-12.5479
 30
0.0
 10
-21.6859
 20
-12.6613
 30
0.0
 10
-21.6438
 20
-12.7692
 30
0.0
 10
-21.6438
 20
-12.7692
 30
0.0
 10
-21.6018
 20
-12.8781
 30
0.0
 10
-21.5917
 20
-12.9796
 30
0.0
 10
-21.6141
 20
-13.0742
 30
0.0
 10
-21.6141
 20
-13.0742
 30
0.0
 10
-21.637
 20
-13.1694
 30
0.0
 10
-21.6873
 20
-13.2553
 30
0.0
 10
-21.765
 20
-13.3322
 30
0.0
 10
-21.765
 20
-13.3322
 30
0.0
 10
-21.8245
 20
-13.3925
 30
0.0
 10
-21.889
 20
-13.4351
 30
0.0
 10
-21.9589
 20
-13.4602
 30
0.0
 10
-21.9589
 20
-13.4602
 30
0.0
 10
-22.0289
 20
-13.4863
 30
0.0
 10
-22.0998
 20
-13.4959
 30
0.0
 10
-22.1725
 20
-13.4909
 30
0.0
 10
-22.1725
 20
-13.4909
 30
0.0
 10
-22.2448
 20
-13.4854
 30
0.0
 10
-22.3152
 20
-13.4662
 30
0.0
 10
-22.3838
 20
-13.4332
 30
0.0
 10
-22.3838
 20
-13.4332
 30
0.0
 10
-22.4524
 20
-13.4003
 30
0.0
 10
-22.5151
 20
-13.356
 30
0.0
 10
-22.5718
 20
-13.2992
 30
0.0
 10
-22.5718
 20
-13.2992
 30
0.0
 10
-22.6266
 20
-13.2434
 30
0.0
 10
-22.6737
 20
-13.1863
 30
0.0
 10
-22.7122
 20
-13.1268
 30
0.0
 10
-22.7122
 20
-13.1268
 30
0.0
 10
-22.751
 20
-13.0678
 30
0.0
 10
-22.7826
 20
-13.0116
 30
0.0
 10
-22.8064
 20
-12.9576
 30
0.0
 10
-22.8064
 20
-12.9576
 30
0.0
 10
-22.8301
 20
-12.9037
 30
0.0
 10
-22.8471
 20
-12.8565
 30
0.0
 10
-22.8571
 20
-12.8163
 30
0.0
 10
-22.8571
 20
-12.8163
 30
0.0
 10
-22.8571
 20
-12.8163
 30
0.0
 10
-23.1014
 20
-12.9398
 30
0.0
 10
-23.1014
 20
-12.9398
 30
0.0
 10
-23.1014
 20
-12.9398
 30
0.0
 10
-23.0904
 20
-12.9883
 30
0.0
 10
-23.0707
 20
-13.0427
 30
0.0
 10
-23.0433
 20
-13.104
 30
0.0
 10
-23.0433
 20
-13.104
 30
0.0
 10
-23.0154
 20
-13.1648
 30
0.0
 10
-22.9783
 20
-13.2284
 30
0.0
 10
-22.9326
 20
-13.2951
 30
0.0
 10
-22.9326
 20
-13.2951
 30
0.0
 10
-22.8864
 20
-13.3624
 30
0.0
 10
-22.8311
 20
-13.4287
 30
0.0
 10
-22.7666
 20
-13.4941
 30
0.0
 10
-22.7666
 20
-13.4941
 30
0.0
 10
-22.6687
 20
-13.591
 30
0.0
 10
-22.5644
 20
-13.6642
 30
0.0
 10
-22.4533
 20
-13.7149
 30
0.0
 10
-22.4533
 20
-13.7149
 30
0.0
 10
-22.3422
 20
-13.7657
 30
0.0
 10
-22.2297
 20
-13.7932
 30
0.0
 10
-22.1158
 20
-13.7973
 30
0.0
 10
-22.1158
 20
-13.7973
 30
0.0
 10
-22.0015
 20
-13.8018
 30
0.0
 10
-21.8913
 20
-13.7831
 30
0.0
 10
-21.7852
 20
-13.7419
 30
0.0
 10
-21.7852
 20
-13.7419
 30
0.0
 10
-21.6786
 20
-13.7003
 30
0.0
 10
-21.5812
 20
-13.6358
 30
0.0
 10
-21.4934
 20
-13.5489
 30
0.0
 10
-21.4934
 20
-13.5489
 30
0.0
 10
-21.4197
 20
-13.4744
 30
0.0
 10
-21.3649
 20
-13.3957
 30
0.0
 10
-21.3287
 20
-13.3139
 30
0.0
 10
-21.3287
 20
-13.3139
 30
0.0
 10
-21.2926
 20
-13.232
 30
0.0
 10
-21.272
 20
-13.1511
 30
0.0
 10
-21.2675
 20
-13.0697
 30
0.0
 10
-21.2675
 20
-13.0697
 30
0.0
 10
-21.2629
 20
-12.9883
 30
0.0
 10
-21.2716
 20
-12.911
 30
0.0
 10
-21.2931
 20
-12.8383
 30
0.0
 10
-21.2931
 20
-12.8383
 30
0.0
 10
-21.3146
 20
-12.7491
 30
0.0
 10
-21.3498
 20
-12.6645
 30
0.0
 10
-21.4001
 20
-12.584
 30
0.0
 10
-21.4001
 20
-12.584
 30
0.0
 10
-21.4504
 20
-12.5035
 30
0.0
 10
-21.5103
 20
-12.428
 30
0.0
 10
-21.5812
 20
-12.3581
 30
0.0
 10
-21.5812
 20
-12.3581
 30
0.0
 10
-21.6132
 20
-12.3261
 30
0.0
 10
-21.6411
 20
-12.2991
 30
0.0
 10
-21.6649
 20
-12.278
 30
0.0
 10
-21.6649
 20
-12.278
 30
0.0
 10
-21.6887
 20
-12.257
 30
0.0
 10
-21.712
 20
-12.2382
 30
0.0
 10
-21.7348
 20
-12.2209
 30
0.0
 10
-21.7348
 20
-12.2209
 30
0.0
 10
-21.7348
 20
-12.2209
 30
0.0
 10
-21.208
 20
-11.8312
 30
0.0
 10
-21.208
 20
-11.8312
 30
0.0
 10
-21.208
 20
-11.8312
 30
0.0
 10
-21.208
 20
-11.8312
 30
0.0
 10
-20.5275
 20
-12.5117
 30
0.0
 10
-20.5275
 20
-12.5117
 30
0.0
 10
-20.5275
 20
-12.5117
 30
0.0
 10
-20.5275
 20
-12.5117
 30
0.0
 10
-20.3245
 20
-12.3087
 30
0.0
 10
-20.3245
 20
-12.3087
 30
0.0
  0
SPLINE
  5
132
330
1F
100
AcDbEntity
  8
Standard layer
 62
   250
370
    15
100
AcDbSpline
210
0.0
220
0.0
230
1.0
 70
    24
 71
     3
 72
     8
 73
     4
 74
     0
 42
0.0000000001
 43
0.0000000001
 40
0.0
 40
0.0
 40
0.0
 40
0.0
 40
1.0
 40
1.0
 40
1.0
 40
1.0
 10
2.5522
 20
-5.711
 30
0.0
 10
2.5522
 20
-5.711
 30
0.0
 10
2.5522
 20
31.061
 30
0.0
 10
2.5522
 20
31.061
 30
0.0
  0
SPLINE
  5
133
330
1F
100
AcDbEntity
  8
Standard layer
 62
   250
100
AcDbSpline
210
0.0
220
0.0
230
1.0
 70
    11
 71
     3
 72
    36
 73
    32
 74
     0
 42
0.0000000001
 43
0.0000000001
 40
0.0
 40
0.0
 40
0.0
 40
0.0
 40
0.1111111111111111
 40
0.1111111111111111
 40
0.1111111111111111
 40
0.1111111111111111
 40
0.2222222222222222
 40
0.2222222222222222
 40
0.2222222222222222
 40
0.2222222222222222
 40
0.3333333333333333
 40
0.3333333333333333
 40
0.3333333333333333
 40
0.3333333333333333
 40
0.4444444444444444
 40
0.4444444444444444
 40
0.4444444444444444
 40
0.4444444444444444
 40
0.5555555555555556
 40
0.5555555555555556
 40
0.5555555555555556
 40
0.5555555555555556
 40
0.6666666666666666
 40
0.6666666666666666
 40
0.6666666666666666
 40
0.6666666666666666
 40
0.7777777777777778
 40
0.7777777777777778
 40
0.7777777777777778
 40
0.7777777777777778
 40
1.0
 40
1.0
 40
1.0
 40
1.0
 10
-0.5724
 20
8.3079
 30
0.0
 10
-0.5724
 20
8.3079
 30
0.0
 10
-0.2892
 20
8.3079
 30
0.0
 10
-0.2892
 20
8.3079
 30
0.0
 10
-0.2892
 20
8.3079
 30
0.0
 10
-0.2892
 20
8.3079
 30
0.0
 10
-0.2892
 20
9.5419
 30
0.0
 10
-0.2892
 20
9.5419
 30
0.0
 10
-0.2892
 20
9.5419
 30
0.0
 10
-0.2892
 20
9.5419
 30
0.0
 10
-0.2814
 20
9.5419
 30
0.0
 10
-0.2814
 20
9.5419
 30
0.0
 10
-0.2814
 20
9.5419
 30
0.0
 10
-0.2814
 20
9.5419
 30
0.0
 10
1.9499
 20
8.4476
 30
0.0
 10
1.9499
 20
8.4476
 30
0.0
 10
1.9499
 20
8.4476
 30
0.0
 10
1.9499
 20
8.4476
 30
0.0
 10
1.9499
 20
8.8007
 30
0.0
 10
1.9499
 20
8.8007
 30
0.0
 10
1.9499
 20
8.8007
 30
0.0
 10
1.9499
 20
8.8007
 30
0.0
 10
-0.3474
 20
9.8989
 30
0.0
 10
-0.3474
 20
9.8989
 30
0.0
 10
-0.3474
 20
9.8989
 30
0.0
 10
-0.3474
 20
9.8989
 30
0.0
 10
-0.5724
 20
9.8989
 30
0.0
 10
-0.5724
 20
9.8989
 30
0.0
 10
-0.5724
 20
9.8989
 30
0.0
 10
-0.5724
 20
9.8989
 30
0.0
 10
-0.5724
 20
8.3079
 30
0.0
 10
-0.5724
 20
8.3079
 30
0.0
  0
SPLINE
  5
134
330
1F
100
AcDbEntity
  8
Standard layer
 62
   250
100
AcDbSpline
210
0.0
220
0.0
230
1.0
 70
    11
 71
     3
 72
    56
 73
    52
 74
     0
 42
0.0000000001
 43
0.0000000001
 40
0.0
 40
0.0
 40
0.0
 40
0.0
 40
0.0714285714285714
 40
0.0714285714285714
 40
0.0714285714285714
 40
0.0714285714285714
 40
0.1428571428571428
 40
0.1428571428571428
 40
0.1428571428571428
 40
0.1428571428571428
 40
0.2142857142857143
 40
0.2142857142857143
 40
0.2142857142857143
 40
0.2142857142857143
 40
0.2857142857142857
 40
0.2857142857142857
 40
0.2857142857142857
 40
0.2857142857142857
 40
0.3571428571428572
 40
0.3571428571428572
 40
0.3571428571428572
 40
0.3571428571428572
 40
0.4285714285714285
 40
0.4285714285714285
 40
0.4285714285714285
 40
0.4285714285714285
 40
0.5
 40
0.5
 40
0.5
 40
0.5
 40
0.5714285714285714
 40
0.5714285714285714
 40
0.5714285714285714
 40
0.5714285714285714
 40
0.6428571428571429
 40
0.6428571428571429
 40
0.6428571428571429
 40
0.6428571428571429
 40
0.7142857142857143
 40
0.7142857142857143
 40
0.7142857142857143
 40
0.7142857142857143
 40
0.7857142857142857
 40
0.7857142857142857
 40
0.7857142857142857
 40
0.7857142857142857
 40
0.8571428571428571
 40
0.8571428571428571
 40
0.8571428571428571
 40
0.8571428571428571
 40
1.0
 40
1.0
 40
1.0
 40
1.0
 10
-0.6151
 20
11.098
 30
0.0
 10
-0.6151
 20
10.9693
 30
0.0
 10
-0.5867
 20
10.8516
 30
0.0
 10
-0.5298
 20
10.7442
 30
0.0
 10
-0.5298
 20
10.7442
 30
0.0
 10
-0.4729
 20
10.6369
 30
0.0
 10
-0.3894
 20
10.5444
 30
0.0
 10
-0.2782
 20
10.4655
 30
0.0
 10
-0.2782
 20
10.4655
 30
0.0
 10
-0.1669
 20
10.3866
 30
0.0
 10
-0.0298
 20
10.3258
 30
0.0
 10
0.1332
 20
10.2824
 30
0.0
 10
0.1332
 20
10.2824
 30
0.0
 10
0.2961
 20
10.2397
 30
0.0
 10
0.4837
 20
10.2178
 30
0.0
 10
0.6965
 20
10.2171
 30
0.0
 10
0.6965
 20
10.2171
 30
0.0
 10
0.9752
 20
10.221
 30
0.0
 10
1.2107
 20
10.2579
 30
0.0
 10
1.4034
 20
10.3284
 30
0.0
 10
1.4034
 20
10.3284
 30
0.0
 10
1.5961
 20
10.3989
 30
0.0
 10
1.7423
 20
10.4965
 30
0.0
 10
1.8419
 20
10.6207
 30
0.0
 10
1.8419
 20
10.6207
 30
0.0
 10
1.9415
 20
10.7449
 30
0.0
 10
1.9919
 20
10.8897
 30
0.0
 10
1.9926
 20
11.0553
 30
0.0
 10
1.9926
 20
11.0553
 30
0.0
 10
1.9919
 20
11.2409
 30
0.0
 10
1.9402
 20
11.3987
 30
0.0
 10
1.838
 20
11.5294
 30
0.0
 10
1.838
 20
11.5294
 30
0.0
 10
1.7358
 20
11.66
 30
0.0
 10
1.5858
 20
11.7596
 30
0.0
 10
1.3879
 20
11.8282
 30
0.0
 10
1.3879
 20
11.8282
 30
0.0
 10
1.19
 20
11.8974
 30
0.0
 10
0.9481
 20
11.9317
 30
0.0
 10
0.6616
 20
11.9323
 30
0.0
 10
0.6616
 20
11.9323
 30
0.0
 10
0.3932
 20
11.9317
 30
0.0
 10
0.1636
 20
11.8987
 30
0.0
 10
-0.0266
 20
11.8334
 30
0.0
 10
-0.0266
 20
11.8334
 30
0.0
 10
-0.2167
 20
11.768
 30
0.0
 10
-0.3623
 20
11.673
 30
0.0
 10
-0.4625
 20
11.5488
 30
0.0
 10
-0.4625
 20
11.5488
 30
0.0
 10
-0.5634
 20
11.4246
 30
0.0
 10
-0.6145
 20
11.2746
 30
0.0
 10
-0.6151
 20
11.098
 30
0.0
  0
SPLINE
  5
135
330
1F
100
AcDbEntity
  8
Standard layer
 62
   250
100
AcDbSpline
210
0.0
220
0.0
230
1.0
 70
    11
 71
     3
 72
    56
 73
    52
 74
     0
 42
0.0000000001
 43
0.0000000001
 40
0.0
 40
0.0
 40
0.0
 40
0.0
 40
0.0714285714285714
 40
0.0714285714285714
 40
0.0714285714285714
 40
0.0714285714285714
 40
0.1428571428571428
 40
0.1428571428571428
 40
0.1428571428571428
 40
0.1428571428571428
 40
0.2142857142857143
 40
0.2142857142857143
 40
0.2142857142857143
 40
0.2142857142857143
 40
0.2857142857142857
 40
0.2857142857142857
 40
0.2857142857142857
 40
0.2857142857142857
 40
0.3571428571428572
 40
0.3571428571428572
 40
0.3571428571428572
 40
0.3571428571428572
 40
0.4285714285714285
 40
0.4285714285714285
 40
0.4285714285714285
 40
0.4285714285714285
 40
0.5
 40
0.5
 40
0.5
 40
0.5
 40
0.5714285714285714
 40
0.5714285714285714
 40
0.5714285714285714
 40
0.5714285714285714
 40
0.6428571428571429
 40
0.6428571428571429
 40
0.6428571428571429
 40
0.6428571428571429
 40
0.7142857142857143
 40
0.7142857142857143
 40
0.7142857142857143
 40
0.7142857142857143
 40
0.7857142857142857
 40
0.7857142857142857
 40
0.7857142857142857
 40
0.7857142857142857
 40
0.8571428571428571
 40
0.8571428571428571
 40
0.8571428571428571
 40
0.8571428571428571
 40
1.0
 40
1.0
 40
1.0
 40
1.0
 10
-0.3513
 20
11.0747
 30
0.0
 10
-0.3506
 20
11.164
 30
0.0
 10
-0.3267
 20
11.2409
 30
0.0
 10
-0.2782
 20
11.3056
 30
0.0
 10
-0.2782
 20
11.3056
 30
0.0
 10
-0.2297
 20
11.3703
 30
0.0
 10
-0.1605
 20
11.4233
 30
0.0
 10
-0.0699
 20
11.4647
 30
0.0
 10
-0.0699
 20
11.4647
 30
0.0
 10
0.02
 20
11.5061
 30
0.0
 10
0.1286
 20
11.5372
 30
0.0
 10
0.2541
 20
11.5572
 30
0.0
 10
0.2541
 20
11.5572
 30
0.0
 10
0.3802
 20
11.5773
 30
0.0
 10
0.5212
 20
11.5869
 30
0.0
 10
0.6771
 20
11.5869
 30
0.0
 10
0.6771
 20
11.5869
 30
0.0
 10
0.8931
 20
11.5869
 30
0.0
 10
1.0794
 20
11.5682
 30
0.0
 10
1.2359
 20
11.5307
 30
0.0
 10
1.2359
 20
11.5307
 30
0.0
 10
1.393
 20
11.4938
 30
0.0
 10
1.514
 20
11.4369
 30
0.0
 10
1.5994
 20
11.3612
 30
0.0
 10
1.5994
 20
11.3612
 30
0.0
 10
1.6847
 20
11.2856
 30
0.0
 10
1.7274
 20
11.1898
 30
0.0
 10
1.7287
 20
11.0747
 30
0.0
 10
1.7287
 20
11.0747
 30
0.0
 10
1.7281
 20
10.9706
 30
0.0
 10
1.688
 20
10.8807
 30
0.0
 10
1.6078
 20
10.8037
 30
0.0
 10
1.6078
 20
10.8037
 30
0.0
 10
1.5276
 20
10.7274
 30
0.0
 10
1.4112
 20
10.6686
 30
0.0
 10
1.2585
 20
10.6265
 30
0.0
 10
1.2585
 20
10.6265
 30
0.0
 10
1.1052
 20
10.5845
 30
0.0
 10
0.9196
 20
10.5631
 30
0.0
 10
0.7004
 20
10.5625
 30
0.0
 10
0.7004
 20
10.5625
 30
0.0
 10
0.4708
 20
10.5631
 30
0.0
 10
0.2787
 20
10.5858
 30
0.0
 10
0.1222
 20
10.6298
 30
0.0
 10
0.1222
 20
10.6298
 30
0.0
 10
-0.0337
 20
10.6737
 30
0.0
 10
-0.1514
 20
10.7339
 30
0.0
 10
-0.2316
 20
10.8108
 30
0.0
 10
-0.2316
 20
10.8108
 30
0.0
 10
-0.3112
 20
10.8878
 30
0.0
 10
-0.3513
 20
10.9758
 30
0.0
 10
-0.3513
 20
11.0747
 30
0.0
  0
SPLINE
  5
136
330
1F
100
AcDbEntity
  8
Standard layer
 62
   250
100
AcDbSpline
210
0.0
220
0.0
230
1.0
 70
    11
 71
     3
 72
   124
 73
   120
 74
     0
 42
0.0000000001
 43
0.0000000001
 40
0.0
 40
0.0
 40
0.0
 40
0.0
 40
0.032258064516129
 40
0.032258064516129
 40
0.032258064516129
 40
0.032258064516129
 40
0.0645161290322581
 40
0.0645161290322581
 40
0.0645161290322581
 40
0.0645161290322581
 40
0.0967741935483871
 40
0.0967741935483871
 40
0.0967741935483871
 40
0.0967741935483871
 40
0.1290322580645161
 40
0.1290322580645161
 40
0.1290322580645161
 40
0.1290322580645161
 40
0.1612903225806452
 40
0.1612903225806452
 40
0.1612903225806452
 40
0.1612903225806452
 40
0.1935483870967742
 40
0.1935483870967742
 40
0.1935483870967742
 40
0.1935483870967742
 40
0.2258064516129032
 40
0.2258064516129032
 40
0.2258064516129032
 40
0.2258064516129032
 40
0.2580645161290323
 40
0.2580645161290323
 40
0.2580645161290323
 40
0.2580645161290323
 40
0.2903225806451613
 40
0.2903225806451613
 40
0.2903225806451613
 40
0.2903225806451613
 40
0.3225806451612903
 40
0.3225806451612903
 40
0.3225806451612903
 40
0.3225806451612903
 40
0.3548387096774194
 40
0.3548387096774194
 40
0.3548387096774194
 40
0.3548387096774194
 40
0.3870967741935484
 40
0.3870967741935484
 40
0.3870967741935484
 40
0.3870967741935484
 40
0.4193548387096774
 40
0.4193548387096774
 40
0.4193548387096774
 40
0.4193548387096774
 40
0.4516129032258064
 40
0.4516129032258064
 40
0.4516129032258064
 40
0.4516129032258064
 40
0.4838709677419355
 40
0.4838709677419355
 40
0.4838709677419355
 40
0.4838709677419355
 40
0.5161290322580645
 40
0.5161290322580645
 40
0.5161290322580645
 40
0.5161290322580645
 40
0.5483870967741935
 40
0.5483870967741935
 40
0.5483870967741935
 40
0.5483870967741935
 40
0.5806451612903226
 40
0.5806451612903226
 40
0.5806451612903226
 40
0.5806451612903226
 40
0.6129032258064516
 40
0.6129032258064516
 40
0.6129032258064516
 40
0.6129032258064516
 40
0.6451612903225806
 40
0.6451612903225806
 40
0.6451612903225806
 40
0.6451612903225806
 40
0.6774193548387096
 40
0.6774193548387096
 40
0.6774193548387096
 40
0.6774193548387096
 40
0.7096774193548387
 40
0.7096774193548387
 40
0.7096774193548387
 40
0.7096774193548387
 40
0.7419354838709677
 40
0.7419354838709677
 40
0.7419354838709677
 40
0.7419354838709677
 40
0.7741935483870968
 40
0.7741935483870968
 40
0.7741935483870968
 40
0.7741935483870968
 40
0.8064516129032258
 40
0.8064516129032258
 40
0.8064516129032258
 40
0.8064516129032258
 40
0.8387096774193549
 40
0.8387096774193549
 40
0.8387096774193549
 40
0.8387096774193549
 40
0.8709677419354839
 40
0.8709677419354839
 40
0.8709677419354839
 40
0.8709677419354839
 40
0.9032258064516129
 40
0.9032258064516129
 40
0.9032258064516129
 40
0.9032258064516129
 40
0.9354838709677419
 40
0.9354838709677419
 40
0.9354838709677419
 40
0.9354838709677419
 40
1.0
 40
1.0
 40
1.0
 40
1.0
 10
2.117
 20
27.0578
 30
0.0
 10
2.117
 20
27.0578
 30
0.0
 10
1.8337
 20
27.0578
 30
0.0
 10
1.8337
 20
27.0578
 30
0.0
 10
1.8337
 20
27.0578
 30
0.0
 10
1.8337
 20
27.0578
 30
0.0
 10
1.8337
 20
25.9285
 30
0.0
 10
1.8337
 20
25.9285
 30
0.0
 10
1.8337
 20
25.9285
 30
0.0
 10
1.8337
 20
25.9285
 30
0.0
 10
1.826
 20
25.9285
 30
0.0
 10
1.826
 20
25.9285
 30
0.0
 10
1.826
 20
25.9285
 30
0.0
 10
1.826
 20
25.9285
 30
0.0
 10
1.6397
 20
26.1264
 30
0.0
 10
1.6397
 20
26.1264
 30
0.0
 10
1.6397
 20
26.1264
 30
0.0
 10
1.5123
 20
26.2596
 30
0.0
 10
1.3913
 20
26.3799
 30
0.0
 10
1.2775
 20
26.4867
 30
0.0
 10
1.2775
 20
26.4867
 30
0.0
 10
1.1637
 20
26.5934
 30
0.0
 10
1.0524
 20
26.6846
 30
0.0
 10
0.9451
 20
26.7602
 30
0.0
 10
0.9451
 20
26.7602
 30
0.0
 10
0.8377
 20
26.8366
 30
0.0
 10
0.7297
 20
26.8941
 30
0.0
 10
0.621
 20
26.9349
 30
0.0
 10
0.621
 20
26.9349
 30
0.0
 10
0.513
 20
26.975
 30
0.0
 10
0.4011
 20
26.995
 30
0.0
 10
0.2854
 20
26.9957
 30
0.0
 10
0.2854
 20
26.9957
 30
0.0
 10
0.1942
 20
26.9957
 30
0.0
 10
0.1049
 20
26.9814
 30
0.0
 10
0.0183
 20
26.9517
 30
0.0
 10
0.0183
 20
26.9517
 30
0.0
 10
-0.0684
 20
26.9219
 30
0.0
 10
-0.1466
 20
26.8754
 30
0.0
 10
-0.2165
 20
26.8133
 30
0.0
 10
-0.2165
 20
26.8133
 30
0.0
 10
-0.287
 20
26.7512
 30
0.0
 10
-0.3426
 20
26.671
 30
0.0
 10
-0.384
 20
26.5733
 30
0.0
 10
-0.384
 20
26.5733
 30
0.0
 10
-0.4261
 20
26.4757
 30
0.0
 10
-0.4474
 20
26.3593
 30
0.0
 10
-0.448
 20
26.2234
 30
0.0
 10
-0.448
 20
26.2234
 30
0.0
 10
-0.4474
 20
26.1277
 30
0.0
 10
-0.4364
 20
26.0365
 30
0.0
 10
-0.4138
 20
25.9498
 30
0.0
 10
-0.4138
 20
25.9498
 30
0.0
 10
-0.3911
 20
25.8632
 30
0.0
 10
-0.3607
 20
25.783
 30
0.0
 10
-0.3219
 20
25.7093
 30
0.0
 10
-0.3219
 20
25.7093
 30
0.0
 10
-0.2838
 20
25.6362
 30
0.0
 10
-0.2404
 20
25.5708
 30
0.0
 10
-0.1919
 20
25.5133
 30
0.0
 10
-0.1919
 20
25.5133
 30
0.0
 10
-0.1919
 20
25.5133
 30
0.0
 10
0.0487
 20
25.6219
 30
0.0
 10
0.0487
 20
25.6219
 30
0.0
 10
0.0487
 20
25.6219
 30
0.0
 10
0.0157
 20
25.6608
 30
0.0
 10
-0.0173
 20
25.7073
 30
0.0
 10
-0.0496
 20
25.7617
 30
0.0
 10
-0.0496
 20
25.7617
 30
0.0
 10
-0.0826
 20
25.816
 30
0.0
 10
-0.1091
 20
25.8761
 30
0.0
 10
-0.1311
 20
25.9427
 30
0.0
 10
-0.1311
 20
25.9427
 30
0.0
 10
-0.1525
 20
26.0094
 30
0.0
 10
-0.1641
 20
26.0811
 30
0.0
 10
-0.1648
 20
26.1575
 30
0.0
 10
-0.1648
 20
26.1575
 30
0.0
 10
-0.1641
 20
26.2513
 30
0.0
 10
-0.1505
 20
26.3301
 30
0.0
 10
-0.124
 20
26.3942
 30
0.0
 10
-0.124
 20
26.3942
 30
0.0
 10
-0.0969
 20
26.4576
 30
0.0
 10
-0.0606
 20
26.5087
 30
0.0
 10
-0.0147
 20
26.5468
 30
0.0
 10
-0.0147
 20
26.5468
 30
0.0
 10
0.0319
 20
26.585
 30
0.0
 10
0.0842
 20
26.6128
 30
0.0
 10
0.1431
 20
26.6296
 30
0.0
 10
0.1431
 20
26.6296
 30
0.0
 10
0.2019
 20
26.6464
 30
0.0
 10
0.2634
 20
26.6548
 30
0.0
 10
0.3281
 20
26.6542
 30
0.0
 10
0.3281
 20
26.6542
 30
0.0
 10
0.4225
 20
26.6542
 30
0.0
 10
0.5156
 20
26.6354
 30
0.0
 10
0.6081
 20
26.5979
 30
0.0
 10
0.6081
 20
26.5979
 30
0.0
 10
0.7012
 20
26.5604
 30
0.0
 10
0.7983
 20
26.5035
 30
0.0
 10
0.9005
 20
26.4265
 30
0.0
 10
0.9005
 20
26.4265
 30
0.0
 10
1.0026
 20
26.3496
 30
0.0
 10
1.1145
 20
26.2519
 30
0.0
 10
1.2361
 20
26.1335
 30
0.0
 10
1.2361
 20
26.1335
 30
0.0
 10
1.3577
 20
26.0158
 30
0.0
 10
1.4948
 20
25.8761
 30
0.0
 10
1.6475
 20
25.7151
 30
0.0
 10
1.6475
 20
25.7151
 30
0.0
 10
1.6475
 20
25.7151
 30
0.0
 10
1.9074
 20
25.4473
 30
0.0
 10
1.9074
 20
25.4473
 30
0.0
 10
1.9074
 20
25.4473
 30
0.0
 10
1.9074
 20
25.4473
 30
0.0
 10
2.117
 20
25.4473
 30
0.0
 10
2.117
 20
25.4473
 30
0.0
 10
2.117
 20
25.4473
 30
0.0
 10
2.117
 20
25.4473
 30
0.0
 10
2.117
 20
27.0578
 30
0.0
 10
2.117
 20
27.0578
 30
0.0
  0
SPLINE
  5
137
330
1F
100
AcDbEntity
  8
Standard layer
 62
   250
100
AcDbSpline
210
0.0
220
0.0
230
1.0
 70
    11
 71
     3
 72
    56
 73
    52
 74
     0
 42
0.0000000001
 43
0.0000000001
 40
0.0
 40
0.0
 40
0.0
 40
0.0
 40
0.0714285714285714
 40
0.0714285714285714
 40
0.0714285714285714
 40
0.0714285714285714
 40
0.1428571428571428
 40
0.1428571428571428
 40
0.1428571428571428
 40
0.1428571428571428
 40
0.2142857142857143
 40
0.2142857142857143
 40
0.2142857142857143
 40
0.2142857142857143
 40
0.2857142857142857
 40
0.2857142857142857
 40
0.2857142857142857
 40
0.2857142857142857
 40
0.3571428571428572
 40
0.3571428571428572
 40
0.3571428571428572
 40
0.3571428571428572
 40
0.4285714285714285
 40
0.4285714285714285
 40
0.4285714285714285
 40
0.4285714285714285
 40
0.5
 40
0.5
 40
0.5
 40
0.5
 40
0.5714285714285714
 40
0.5714285714285714
 40
0.5714285714285714
 40
0.5714285714285714
 40
0.6428571428571429
 40
0.6428571428571429
 40
0.6428571428571429
 40
0.6428571428571429
 40
0.7142857142857143
 40
0.7142857142857143
 40
0.7142857142857143
 40
0.7142857142857143
 40
0.7857142857142857
 40
0.7857142857142857
 40
0.7857142857142857
 40
0.7857142857142857
 40
0.8571428571428571
 40
0.8571428571428571
 40
0.8571428571428571
 40
0.8571428571428571
 40
1.0
 40
1.0
 40
1.0
 40
1.0
 10
-0.448
 20
28.284
 30
0.0
 10
-0.448
 20
28.1553
 30
0.0
 10
-0.4196
 20
28.0376
 30
0.0
 10
-0.3627
 20
27.9302
 30
0.0
 10
-0.3627
 20
27.9302
 30
0.0
 10
-0.3058
 20
27.8229
 30
0.0
 10
-0.2223
 20
27.7304
 30
0.0
 10
-0.1111
 20
27.6515
 30
0.0
 10
-0.1111
 20
27.6515
 30
0.0
 10
0.0002
 20
27.5726
 30
0.0
 10
0.1373
 20
27.5118
 30
0.0
 10
0.3003
 20
27.4684
 30
0.0
 10
0.3003
 20
27.4684
 30
0.0
 10
0.4632
 20
27.4257
 30
0.0
 10
0.6508
 20
27.4038
 30
0.0
 10
0.8636
 20
27.4031
 30
0.0
 10
0.8636
 20
27.4031
 30
0.0
 10
1.1423
 20
27.407
 30
0.0
 10
1.3778
 20
27.4439
 30
0.0
 10
1.5705
 20
27.5144
 30
0.0
 10
1.5705
 20
27.5144
 30
0.0
 10
1.7632
 20
27.5849
 30
0.0
 10
1.9094
 20
27.6825
 30
0.0
 10
2.009
 20
27.8067
 30
0.0
 10
2.009
 20
27.8067
 30
0.0
 10
2.1086
 20
27.9309
 30
0.0
 10
2.159
 20
28.0757
 30
0.0
 10
2.1597
 20
28.2413
 30
0.0
 10
2.1597
 20
28.2413
 30
0.0
 10
2.159
 20
28.4269
 30
0.0
 10
2.1073
 20
28.5847
 30
0.0
 10
2.0051
 20
28.7154
 30
0.0
 10
2.0051
 20
28.7154
 30
0.0
 10
1.9029
 20
28.846
 30
0.0
 10
1.7529
 20
28.9456
 30
0.0
 10
1.555
 20
29.0142
 30
0.0
 10
1.555
 20
29.0142
 30
0.0
 10
1.3571
 20
29.0834
 30
0.0
 10
1.1152
 20
29.1177
 30
0.0
 10
0.8287
 20
29.1183
 30
0.0
 10
0.8287
 20
29.1183
 30
0.0
 10
0.5603
 20
29.1177
 30
0.0
 10
0.3307
 20
29.0847
 30
0.0
 10
0.1405
 20
29.0194
 30
0.0
 10
0.1405
 20
29.0194
 30
0.0
 10
-0.0496
 20
28.954
 30
0.0
 10
-0.1952
 20
28.859
 30
0.0
 10
-0.2954
 20
28.7348
 30
0.0
 10
-0.2954
 20
28.7348
 30
0.0
 10
-0.3963
 20
28.6106
 30
0.0
 10
-0.4474
 20
28.4606
 30
0.0
 10
-0.448
 20
28.284
 30
0.0
  0
SPLINE
  5
138
330
1F
100
AcDbEntity
  8
Standard layer
 62
   250
100
AcDbSpline
210
0.0
220
0.0
230
1.0
 70
    11
 71
     3
 72
    56
 73
    52
 74
     0
 42
0.0000000001
 43
0.0000000001
 40
0.0
 40
0.0
 40
0.0
 40
0.0
 40
0.0714285714285714
 40
0.0714285714285714
 40
0.0714285714285714
 40
0.0714285714285714
 40
0.1428571428571428
 40
0.1428571428571428
 40
0.1428571428571428
 40
0.1428571428571428
 40
0.2142857142857143
 40
0.2142857142857143
 40
0.2142857142857143
 40
0.2142857142857143
 40
0.2857142857142857
 40
0.2857142857142857
 40
0.2857142857142857
 40
0.2857142857142857
 40
0.3571428571428572
 40
0.3571428571428572
 40
0.3571428571428572
 40
0.3571428571428572
 40
0.4285714285714285
 40
0.4285714285714285
 40
0.4285714285714285
 40
0.4285714285714285
 40
0.5
 40
0.5
 40
0.5
 40
0.5
 40
0.5714285714285714
 40
0.5714285714285714
 40
0.5714285714285714
 40
0.5714285714285714
 40
0.6428571428571429
 40
0.6428571428571429
 40
0.6428571428571429
 40
0.6428571428571429
 40
0.7142857142857143
 40
0.7142857142857143
 40
0.7142857142857143
 40
0.7142857142857143
 40
0.7857142857142857
 40
0.7857142857142857
 40
0.7857142857142857
 40
0.7857142857142857
 40
0.8571428571428571
 40
0.8571428571428571
 40
0.8571428571428571
 40
0.8571428571428571
 40
1.0
 40
1.0
 40
1.0
 40
1.0
 10
-0.1842
 20
28.2607
 30
0.0
 10
-0.1835
 20
28.35
 30
0.0
 10
-0.1596
 20
28.4269
 30
0.0
 10
-0.1111
 20
28.4916
 30
0.0
 10
-0.1111
 20
28.4916
 30
0.0
 10
-0.0626
 20
28.5563
 30
0.0
 10
0.0066
 20
28.6093
 30
0.0
 10
0.0972
 20
28.6507
 30
0.0
 10
0.0972
 20
28.6507
 30
0.0
 10
0.1871
 20
28.6921
 30
0.0
 10
0.2957
 20
28.7232
 30
0.0
 10
0.4212
 20
28.7432
 30
0.0
 10
0.4212
 20
28.7432
 30
0.0
 10
0.5473
 20
28.7633
 30
0.0
 10
0.6883
 20
28.7729
 30
0.0
 10
0.8442
 20
28.7729
 30
0.0
 10
0.8442
 20
28.7729
 30
0.0
 10
1.0602
 20
28.7729
 30
0.0
 10
1.2465
 20
28.7542
 30
0.0
 10
1.403
 20
28.7167
 30
0.0
 10
1.403
 20
28.7167
 30
0.0
 10
1.5601
 20
28.6798
 30
0.0
 10
1.6811
 20
28.6229
 30
0.0
 10
1.7665
 20
28.5472
 30
0.0
 10
1.7665
 20
28.5472
 30
0.0
 10
1.8518
 20
28.4716
 30
0.0
 10
1.8945
 20
28.3758
 30
0.0
 10
1.8958
 20
28.2607
 30
0.0
 10
1.8958
 20
28.2607
 30
0.0
 10
1.8952
 20
28.1566
 30
0.0
 10
1.8551
 20
28.0667
 30
0.0
 10
1.7749
 20
27.9897
 30
0.0
 10
1.7749
 20
27.9897
 30
0.0
 10
1.6947
 20
27.9134
 30
0.0
 10
1.5783
 20
27.8546
 30
0.0
 10
1.4256
 20
27.8125
 30
0.0
 10
1.4256
 20
27.8125
 30
0.0
 10
1.2723
 20
27.7705
 30
0.0
 10
1.0867
 20
27.7491
 30
0.0
 10
0.8675
 20
27.7485
 30
0.0
 10
0.8675
 20
27.7485
 30
0.0
 10
0.6379
 20
27.7491
 30
0.0
 10
0.4458
 20
27.7718
 30
0.0
 10
0.2893
 20
27.8158
 30
0.0
 10
0.2893
 20
27.8158
 30
0.0
 10
0.1334
 20
27.8597
 30
0.0
 10
0.0157
 20
27.9199
 30
0.0
 10
-0.0645
 20
27.9968
 30
0.0
 10
-0.0645
 20
27.9968
 30
0.0
 10
-0.1441
 20
28.0738
 30
0.0
 10
-0.1842
 20
28.1618
 30
0.0
 10
-0.1842
 20
28.2607
 30
0.0
  0
SPLINE
  5
139
330
1F
100
AcDbEntity
  8
Standard layer
 62
   250
370
    15
100
AcDbSpline
210
0.0
220
0.0
230
1.0
 70
    24
 71
     3
 72
     8
 73
     4
 74
     0
 42
0.0000000001
 43
0.0000000001
 40
0.0
 40
0.0
 40
0.0
 40
0.0
 40
1.0
 40
1.0
 40
1.0
 40
1.0
 10
-5.0849
 20
23.2184
 30
0.0
 10
-5.0849
 20
23.2184
 30
0.0
 10
2.9438
 20
23.2184
 30
0.0
 10
2.9438
 20
23.2184
 30
0.0
  0
SPLINE
  5
13A
330
1F
100
AcDbEntity
  8
Standard layer
 62
   250
370
    15
100
AcDbSpline
210
0.0
220
0.0
230
1.0
 70
    24
 71
     3
 72
     8
 73
     4
 74
     0
 42
0.0000000001
 43
0.0000000001
 40
0.0
 40
0.0
 40
0.0
 40
0.0
 40
1.0
 40
1.0
 40
1.0
 40
1.0
 10
-18.2585
 20
31.5733
 30
0.0
 10
-18.2585
 20
31.5733
 30
0.0
 10
3.2533
 20
31.5733
 30
0.0
 10
3.2533
 20
31.5733
 30
0.0
  0
SPLINE
  5
13B
330
1F
100
AcDbEntity
  8
Standard layer
 62
   250
370
    15
100
AcDbSpline
210
0.0
220
0.0
230
1.0
 70
    24
 71
     3
 72
     8
 73
     4
 74
     0
 42
0.0000000001
 43
0.0000000001
 40
0.0
 40
0.0
 40
0.0
 40
0.0
 40
1.0
 40
1.0
 40
1.0
 40
1.0
 10
-8.0187
 20
-6.1064
 30
0.0
 10
-8.0187
 20
-6.1064
 30
0.0
 10
3.0844
 20
-6.1064
 30
0.0
 10
3.0844
 20
-6.1064
 30
0.0
  0
SPLINE
  5
13C
330
1F
100
AcDbEntity
  8
Standard layer
  6
New Line27
 62
   250
370
    13
100
AcDbSpline
210
0.0
220
0.0
230
1.0
 70
    24
 71
     3
 72
     8
 73
     4
 74
     0
 42
0.0000000001
 43
0.0000000001
 40
0.0
 40
0.0
 40
0.0
 40
0.0
 40
1.0
 40
1.0
 40
1.0
 40
1.0
 10
-19.6007
 20
25.9018
 30
0.0
 10
-19.6007
 20
25.9018
 30
0.0
 10
-19.6007
 20
31.8769
 30
0.0
 10
-19.6007
 20
31.8769
 30
0.0
  0
SPLINE
  5
13E
330
1F
100
AcDbEntity
  8
Standard layer
  6
New Line28
 62
   250
370
    13
100
AcDbSpline
210
0.0
220
0.0
230
1.0
 70
    24
 71
     3
 72
     8
 73
     4
 74
     0
 42
0.0000000001
 43
0.0000000001
 40
0.0
 40
0.0
 40
0.0
 40
0.0
 40
1.0
 40
1.0
 40
1.0
 40
1.0
 10
22.6253
 20
25.6456
 30
0.0
 10
22.6253
 20
25.6456
 30
0.0
 10
22.6253
 20
31.6207
 30
0.0
 10
22.6253
 20
31.6207
 30
0.0
  0
SPLINE
  5
140
330
1F
100
AcDbEntity
  8
Standard layer
  6
New Line29
 62
   250
370
    13
100
AcDbSpline
210
0.0
220
0.0
230
1.0
 70
    24
 71
     3
 72
     8
 73
     4
 74
     0
 42
0.0000000001
 43
0.0000000001
 40
0.0
 40
0.0
 40
0.0
 40
0.0
 40
1.0
 40
1.0
 40
1.0
 40
1.0
 10
-19.3911
 20
-24.6823
 30
0.0
 10
-19.3911
 20
-24.6823
 30
0.0
 10
-19.3911
 20
-20.2571
 30
0.0
 10
-19.3911
 20
-20.2571
 30
0.0
  0
SPLINE
  5
142
330
1F
100
AcDbEntity
  8
Standard layer
  6
New Line30
 62
   250
370
    13
100
AcDbSpline
210
0.0
220
0.0
230
1.0
 70
    24
 71
     3
 72
     8
 73
     4
 74
     0
 42
0.0000000001
 43
0.0000000001
 40
0.0
 40
0.0
 40
0.0
 40
0.0
 40
1.0
 40
1.0
 40
1.0
 40
1.0
 10
-11.667
 20
-27.7854
 30
0.0
 10
-11.667
 20
-27.7854
 30
0.0
 10
-11.667
 20
-17.28
 30
0.0
 10
-11.667
 20
-17.28
 30
0.0
  0
SPLINE
  5
144
330
1F
100
AcDbEntity
  8
Standard layer
  6
New Line31
 62
   250
370
    13
100
AcDbSpline
210
0.0
220
0.0
230
1.0
 70
    24
 71
     3
 72
     8
 73
     4
 74
     0
 42
0.0000000001
 43
0.0000000001
 40
0.0
 40
0.0
 40
0.0
 40
0.0
 40
1.0
 40
1.0
 40
1.0
 40
1.0
 10
-9.409
 20
-24.1474
 30
0.0
 10
-9.409
 20
-24.1474
 30
0.0
 10
-9.409
 20
-10.912
 30
0.0
 10
-9.409
 20
-10.912
 30
0.0
  0
SPLINE
  5
146
330
1F
100
AcDbEntity
  8
Standard layer
  6
New Line32
 62
   250
370
    13
100
AcDbSpline
210
0.0
220
0.0
230
1.0
 70
    24
 71
     3
 72
     8
 73
     4
 74
     0
 42
0.0000000001
 43
0.0000000001
 40
0.0
 40
0.0
 40
0.0
 40
0.0
 40
1.0
 40
1.0
 40
1.0
 40
1.0
 10
-21.457
 20
-22.5753
 30
0.0
 10
-21.457
 20
-22.5753
 30
0.0
 10
-6.4112
 20
-22.5753
 30
0.0
 10
-6.4112
 20
-22.5753
 30
0.0
  0
SPLINE
  5
148
330
1F
100
AcDbEntity
  8
Standard layer
  6
New Line33
 62
   250
370
    13
100
AcDbSpline
210
0.0
220
0.0
230
1.0
 70
    24
 71
     3
 72
     8
 73
     4
 74
     0
 42
0.0000000001
 43
0.0000000001
 40
0.0
 40
0.0
 40
0.0
 40
0.0
 40
1.0
 40
1.0
 40
1.0
 40
1.0
 10
-9.5548
 20
-6.0336
 30
0.0
 10
-9.5548
 20
-6.0336
 30
0.0
 10
-9.5548
 20
23.8151
 30
0.0
 10
-9.5548
 20
23.8151
 30
0.0
  0
SPLINE
  5
14A
330
1F
100
AcDbEntity
  8
Standard layer
  6
New Line34
 62
   250
370
    13
100
AcDbSpline
210
0.0
220
0.0
230
1.0
 70
    24
 71
     3
 72
     8
 73
     4
 74
     0
 42
0.0000000001
 43
0.0000000001
 40
0.0
 40
0.0
 40
0.0
 40
0.0
 40
1.0
 40
1.0
 40
1.0
 40
1.0
 10
12.5379
 20
-6.4966
 30
0.0
 10
12.5379
 20
-6.4966
 30
0.0
 10
12.5379
 20
23.7158
 30
0.0
 10
12.5379
 20
23.7158
 30
0.0
  0
SPLINE
  5
14C
330
1F
100
AcDbEntity
  8
Standard layer
 62
   250
100
AcDbSpline
210
0.0
220
0.0
230
1.0
 70
    11
 71
     3
 72
    44
 73
    40
 74
     0
 42
0.0000000001
 43
0.0000000001
 40
0.0
 40
0.0
 40
0.0
 40
0.0
 40
0.0909090909090909
 40
0.0909090909090909
 40
0.0909090909090909
 40
0.0909090909090909
 40
0.1818181818181818
 40
0.1818181818181818
 40
0.1818181818181818
 40
0.1818181818181818
 40
0.2727272727272727
 40
0.2727272727272727
 40
0.2727272727272727
 40
0.2727272727272727
 40
0.3636363636363636
 40
0.3636363636363636
 40
0.3636363636363636
 40
0.3636363636363636
 40
0.4545454545454545
 40
0.4545454545454545
 40
0.4545454545454545
 40
0.4545454545454545
 40
0.5454545454545454
 40
0.5454545454545454
 40
0.5454545454545454
 40
0.5454545454545454
 40
0.6363636363636364
 40
0.6363636363636364
 40
0.6363636363636364
 40
0.6363636363636364
 40
0.7272727272727273
 40
0.7272727272727273
 40
0.7272727272727273
 40
0.7272727272727273
 40
0.8181818181818182
 40
0.8181818181818182
 40
0.8181818181818182
 40
0.8181818181818182
 40
1.0
 40
1.0
 40
1.0
 40
1.0
 10
-13.5026
 20
-13.0247
 30
0.0
 10
-13.5026
 20
-13.0247
 30
0.0
 10
-14.3729
 20
-12.4363
 30
0.0
 10
-14.3729
 20
-12.4363
 30
0.0
 10
-14.3729
 20
-12.4363
 30
0.0
 10
-14.3729
 20
-12.4363
 30
0.0
 10
-13.4781
 20
-11.7867
 30
0.0
 10
-13.4781
 20
-11.7867
 30
0.0
 10
-13.4781
 20
-11.7867
 30
0.0
 10
-13.4781
 20
-11.7867
 30
0.0
 10
-13.4781
 20
-12.1667
 30
0.0
 10
-13.4781
 20
-12.1667
 30
0.0
 10
-13.4781
 20
-12.1667
 30
0.0
 10
-13.4781
 20
-12.1667
 30
0.0
 10
-10.7202
 20
-12.1667
 30
0.0
 10
-10.7202
 20
-12.1667
 30
0.0
 10
-10.7202
 20
-12.1667
 30
0.0
 10
-10.7202
 20
-12.1667
 30
0.0
 10
-10.7202
 20
-11.8112
 30
0.0
 10
-10.7202
 20
-11.8112
 30
0.0
 10
-10.7202
 20
-11.8112
 30
0.0
 10
-10.7202
 20
-11.8112
 30
0.0
 10
-9.8499
 20
-12.4118
 30
0.0
 10
-9.8499
 20
-12.4118
 30
0.0
 10
-9.8499
 20
-12.4118
 30
0.0
 10
-9.8499
 20
-12.4118
 30
0.0
 10
-10.7202
 20
-13.0124
 30
0.0
 10
-10.7202
 20
-13.0124
 30
0.0
 10
-10.7202
 20
-13.0124
 30
0.0
 10
-10.7202
 20
-13.0124
 30
0.0
 10
-10.7202
 20
-12.657
 30
0.0
 10
-10.7202
 20
-12.657
 30
0.0
 10
-10.7202
 20
-12.657
 30
0.0
 10
-10.7202
 20
-12.657
 30
0.0
 10
-13.5026
 20
-12.657
 30
0.0
 10
-13.5026
 20
-12.657
 30
0.0
 10
-13.5026
 20
-12.657
 30
0.0
 10
-13.5026
 20
-12.657
 30
0.0
 10
-13.5026
 20
-13.0247
 30
0.0
 10
-13.5026
 20
-13.0247
 30
0.0
  0
SPLINE
  5
14D
330
1F
100
AcDbEntity
  8
Standard layer
  6
New Line35
 62
   250
370
    13
100
AcDbSpline
210
0.0
220
0.0
230
1.0
 70
    24
 71
     3
 72
     8
 73
     4
 74
     0
 42
0.0000000001
 43
0.0000000001
 40
0.0
 40
0.0
 40
0.0
 40
0.0
 40
1.0
 40
1.0
 40
1.0
 40
1.0
 10
-14.77
 20
-24.1954
 30
0.0
 10
-14.77
 20
-24.1954
 30
0.0
 10
-14.77
 20
-11.0902
 30
0.0
 10
-14.77
 20
-11.0902
 30
0.0
  0
SPLINE
  5
14F
330
1F
100
AcDbEntity
  8
Standard layer
 62
   250
370
    18
100
AcDbSpline
210
0.0
220
0.0
230
1.0
 70
    11
 71
     3
 72
    52
 73
    48
 74
     0
 42
0.0000000001
 43
0.0000000001
 40
0.0
 40
0.0
 40
0.0
 40
0.0
 40
0.0769230769230769
 40
0.0769230769230769
 40
0.0769230769230769
 40
0.0769230769230769
 40
0.1538461538461539
 40
0.1538461538461539
 40
0.1538461538461539
 40
0.1538461538461539
 40
0.2307692307692308
 40
0.2307692307692308
 40
0.2307692307692308
 40
0.2307692307692308
 40
0.3076923076923077
 40
0.3076923076923077
 40
0.3076923076923077
 40
0.3076923076923077
 40
0.3846153846153846
 40
0.3846153846153846
 40
0.3846153846153846
 40
0.3846153846153846
 40
0.4615384615384616
 40
0.4615384615384616
 40
0.4615384615384616
 40
0.4615384615384616
 40
0.5384615384615384
 40
0.5384615384615384
 40
0.5384615384615384
 40
0.5384615384615384
 40
0.6153846153846154
 40
0.6153846153846154
 40
0.6153846153846154
 40
0.6153846153846154
 40
0.6923076923076923
 40
0.6923076923076923
 40
0.6923076923076923
 40
0.6923076923076923
 40
0.7692307692307693
 40
0.7692307692307693
 40
0.7692307692307693
 40
0.7692307692307693
 40
0.8461538461538461
 40
0.8461538461538461
 40
0.8461538461538461
 40
0.8461538461538461
 40
1.0
 40
1.0
 40
1.0
 40
1.0
 10
-11.7271
 20
-26.3754
 30
0.0
 10
-13.8352
 20
-26.3754
 30
0.0
 10
-15.5442
 20
-24.6664
 30
0.0
 10
-15.5442
 20
-22.5583
 30
0.0
 10
-15.5442
 20
-22.5583
 30
0.0
 10
-15.5442
 20
-20.4502
 30
0.0
 10
-13.8352
 20
-18.7412
 30
0.0
 10
-11.7271
 20
-18.7412
 30
0.0
 10
-11.7271
 20
-18.7412
 30
0.0
 10
-11.7271
 20
-18.7412
 30
0.0
 10
-11.7271
 20
-18.105
 30
0.0
 10
-11.7271
 20
-18.105
 30
0.0
 10
-11.7271
 20
-18.105
 30
0.0
 10
-11.7271
 20
-18.105
 30
0.0
 10
-9.8185
 20
-19.0593
 30
0.0
 10
-9.8185
 20
-19.0593
 30
0.0
 10
-9.8185
 20
-19.0593
 30
0.0
 10
-9.8185
 20
-19.0593
 30
0.0
 10
-11.7271
 20
-20.0136
 30
0.0
 10
-11.7271
 20
-20.0136
 30
0.0
 10
-11.7271
 20
-20.0136
 30
0.0
 10
-11.7271
 20
-20.0136
 30
0.0
 10
-11.7271
 20
-19.3774
 30
0.0
 10
-11.7271
 20
-19.3774
 30
0.0
 10
-11.7271
 20
-19.3774
 30
0.0
 10
-13.4839
 20
-19.3774
 30
0.0
 10
-14.908
 20
-20.8016
 30
0.0
 10
-14.908
 20
-22.5583
 30
0.0
 10
-14.908
 20
-22.5583
 30
0.0
 10
-14.908
 20
-24.315
 30
0.0
 10
-13.4839
 20
-25.7393
 30
0.0
 10
-11.7271
 20
-25.7393
 30
0.0
 10
-11.7271
 20
-25.7393
 30
0.0
 10
-11.7271
 20
-25.7393
 30
0.0
 10
-11.7271
 20
-25.103
 30
0.0
 10
-11.7271
 20
-25.103
 30
0.0
 10
-11.7271
 20
-25.103
 30
0.0
 10
-11.7271
 20
-25.103
 30
0.0
 10
-9.8185
 20
-26.0573
 30
0.0
 10
-9.8185
 20
-26.0573
 30
0.0
 10
-9.8185
 20
-26.0573
 30
0.0
 10
-9.8185
 20
-26.0573
 30
0.0
 10
-11.7271
 20
-27.0116
 30
0.0
 10
-11.7271
 20
-27.0116
 30
0.0
 10
-11.7271
 20
-27.0116
 30
0.0
 10
-11.7271
 20
-27.0116
 30
0.0
 10
-11.7271
 20
-26.3754
 30
0.0
 10
-11.7271
 20
-26.3754
 30
0.0
  0
SPLINE
  5
150
330
1F
100
AcDbEntity
  8
Standard layer
 62
   250
370
    30
100
AcDbSpline
210
0.0
220
0.0
230
1.0
 70
    11
 71
     3
 72
    20
 73
    16
 74
     0
 42
0.0000000001
 43
0.0000000001
 40
0.0
 40
0.0
 40
0.0
 40
0.0
 40
0.2
 40
0.2
 40
0.2
 40
0.2
 40
0.4
 40
0.4
 40
0.4
 40
0.4
 40
0.6
 40
0.6
 40
0.6
 40
0.6
 40
1.0
 40
1.0
 40
1.0
 40
1.0
 10
8.1481
 20
-22.4104
 30
0.0
 10
8.1481
 20
-17.2589
 30
0.0
 10
12.3242
 20
-13.0828
 30
0.0
 10
17.4757
 20
-13.0828
 30
0.0
 10
17.4757
 20
-13.0828
 30
0.0
 10
22.6271
 20
-13.0828
 30
0.0
 10
26.8033
 20
-17.2589
 30
0.0
 10
26.8033
 20
-22.4104
 30
0.0
 10
26.8033
 20
-22.4104
 30
0.0
 10
26.8033
 20
-27.5619
 30
0.0
 10
22.6271
 20
-31.738
 30
0.0
 10
17.4757
 20
-31.738
 30
0.0
 10
17.4757
 20
-31.738
 30
0.0
 10
12.3242
 20
-31.738
 30
0.0
 10
8.1481
 20
-27.5619
 30
0.0
 10
8.1481
 20
-22.4104
 30
0.0
  0
SPLINE
  5
151
330
1F
100
AcDbEntity
  8
Standard layer
  6
New Line36
 62
   250
370
    15
100
AcDbSpline
210
0.0
220
0.0
230
1.0
 70
     8
 71
     3
 72
    12
 73
     8
 74
     0
 42
0.0000000001
 43
0.0000000001
 40
0.0
 40
0.0
 40
0.0
 40
0.0
 40
0.3333333333333333
 40
0.3333333333333333
 40
0.3333333333333333
 40
0.3333333333333333
 40
1.0
 40
1.0
 40
1.0
 40
1.0
 10
11.8272
 20
-22.0048
 30
0.0
 10
12.0288
 20
-20.6081
 30
0.0
 10
13.2256
 20
-19.5716
 30
0.0
 10
14.6368
 20
-19.5716
 30
0.0
 10
14.6368
 20
-19.5716
 30
0.0
 10
16.048
 20
-19.5716
 30
0.0
 10
17.245
 20
-20.6081
 30
0.0
 10
17.4466
 20
-22.0048
 30
0.0
  0
SPLINE
  5
153
330
1F
100
AcDbEntity
  8
Standard layer
  6
New Line37
 62
   250
370
    15
100
AcDbSpline
210
0.0
220
0.0
230
1.0
 70
     8
 71
     3
 72
    12
 73
     8
 74
     0
 42
0.0000000001
 43
0.0000000001
 40
0.0
 40
0.0
 40
0.0
 40
0.0
 40
0.3333333333333333
 40
0.3333333333333333
 40
0.3333333333333333
 40
0.3333333333333333
 40
1.0
 40
1.0
 40
1.0
 40
1.0
 10
17.4466
 20
-22.8159
 30
0.0
 10
17.245
 20
-24.2127
 30
0.0
 10
16.048
 20
-25.2492
 30
0.0
 10
14.6368
 20
-25.2492
 30
0.0
 10
14.6368
 20
-25.2492
 30
0.0
 10
13.2256
 20
-25.2492
 30
0.0
 10
12.0288
 20
-24.2127
 30
0.0
 10
11.8272
 20
-22.8159
 30
0.0
  0
SPLINE
  5
155
330
1F
100
AcDbEntity
  8
Standard layer
 62
   250
370
    30
100
AcDbSpline
210
0.0
220
0.0
230
1.0
 70
    11
 71
     3
 72
    20
 73
    16
 74
     0
 42
0.0000000001
 43
0.0000000001
 40
0.0
 40
0.0
 40
0.0
 40
0.0
 40
0.2
 40
0.2
 40
0.2
 40
0.2
 40
0.4
 40
0.4
 40
0.4
 40
0.4
 40
0.6
 40
0.6
 40
0.6
 40
0.6
 40
1.0
 40
1.0
 40
1.0
 40
1.0
 10
20.7201
 20
-22.4104
 30
0.0
 10
20.7201
 20
-21.5145
 30
0.0
 10
21.4463
 20
-20.7882
 30
0.0
 10
22.3423
 20
-20.7882
 30
0.0
 10
22.3423
 20
-20.7882
 30
0.0
 10
23.2381
 20
-20.7882
 30
0.0
 10
23.9644
 20
-21.5145
 30
0.0
 10
23.9644
 20
-22.4104
 30
0.0
 10
23.9644
 20
-22.4104
 30
0.0
 10
23.9644
 20
-23.3063
 30
0.0
 10
23.2381
 20
-24.0326
 30
0.0
 10
22.3423
 20
-24.0326
 30
0.0
 10
22.3423
 20
-24.0326
 30
0.0
 10
21.4463
 20
-24.0326
 30
0.0
 10
20.7201
 20
-23.3063
 30
0.0
 10
20.7201
 20
-22.4104
 30
0.0
  0
SPLINE
  5
156
330
1F
100
AcDbEntity
  8
Standard layer
 62
   250
370
    30
100
AcDbSpline
210
0.0
220
0.0
230
1.0
 70
    11
 71
     3
 72
    20
 73
    16
 74
     0
 42
0.0000000001
 43
0.0000000001
 40
0.0
 40
0.0
 40
0.0
 40
0.0
 40
0.2
 40
0.2
 40
0.2
 40
0.2
 40
0.4
 40
0.4
 40
0.4
 40
0.4
 40
0.6
 40
0.6
 40
0.6
 40
0.6
 40
1.0
 40
1.0
 40
1.0
 40
1.0
 10
21.3284
 20
-22.4104
 30
0.0
 10
21.3284
 20
-21.8505
 30
0.0
 10
21.7823
 20
-21.3965
 30
0.0
 10
22.3423
 20
-21.3965
 30
0.0
 10
22.3423
 20
-21.3965
 30
0.0
 10
22.9022
 20
-21.3965
 30
0.0
 10
23.3561
 20
-21.8505
 30
0.0
 10
23.3561
 20
-22.4104
 30
0.0
 10
23.3561
 20
-22.4104
 30
0.0
 10
23.3561
 20
-22.9703
 30
0.0
 10
22.9022
 20
-23.4243
 30
0.0
 10
22.3423
 20
-23.4243
 30
0.0
 10
22.3423
 20
-23.4243
 30
0.0
 10
21.7823
 20
-23.4243
 30
0.0
 10
21.3284
 20
-22.9703
 30
0.0
 10
21.3284
 20
-22.4104
 30
0.0
  0
SPLINE
  5
157
330
1F
100
AcDbEntity
  8
Standard layer
  6
New Line38
 62
   250
370
    15
100
AcDbSpline
210
0.0
220
0.0
230
1.0
 70
    11
 71
     3
 72
    20
 73
    16
 74
     0
 42
0.0000000001
 43
0.0000000001
 40
0.0
 40
0.0
 40
0.0
 40
0.0
 40
0.2
 40
0.2
 40
0.2
 40
0.2
 40
0.4
 40
0.4
 40
0.4
 40
0.4
 40
0.6
 40
0.6
 40
0.6
 40
0.6
 40
1.0
 40
1.0
 40
1.0
 40
1.0
 10
13.0147
 20
-22.4104
 30
0.0
 10
13.0147
 20
-21.5145
 30
0.0
 10
13.7409
 20
-20.7882
 30
0.0
 10
14.6368
 20
-20.7882
 30
0.0
 10
14.6368
 20
-20.7882
 30
0.0
 10
15.5327
 20
-20.7882
 30
0.0
 10
16.259
 20
-21.5145
 30
0.0
 10
16.259
 20
-22.4104
 30
0.0
 10
16.259
 20
-22.4104
 30
0.0
 10
16.259
 20
-23.3063
 30
0.0
 10
15.5327
 20
-24.0326
 30
0.0
 10
14.6368
 20
-24.0326
 30
0.0
 10
14.6368
 20
-24.0326
 30
0.0
 10
13.7409
 20
-24.0326
 30
0.0
 10
13.0147
 20
-23.3063
 30
0.0
 10
13.0147
 20
-22.4104
 30
0.0
  0
SPLINE
  5
159
330
1F
100
AcDbEntity
  8
Standard layer
  6
New Line39
 62
   250
370
    15
100
AcDbSpline
210
0.0
220
0.0
230
1.0
 70
    11
 71
     3
 72
    20
 73
    16
 74
     0
 42
0.0000000001
 43
0.0000000001
 40
0.0
 40
0.0
 40
0.0
 40
0.0
 40
0.2
 40
0.2
 40
0.2
 40
0.2
 40
0.4
 40
0.4
 40
0.4
 40
0.4
 40
0.6
 40
0.6
 40
0.6
 40
0.6
 40
1.0
 40
1.0
 40
1.0
 40
1.0
 10
13.4202
 20
-22.4104
 30
0.0
 10
13.4202
 20
-21.7385
 30
0.0
 10
13.9649
 20
-21.1937
 30
0.0
 10
14.6368
 20
-21.1937
 30
0.0
 10
14.6368
 20
-21.1937
 30
0.0
 10
15.3087
 20
-21.1937
 30
0.0
 10
15.8535
 20
-21.7385
 30
0.0
 10
15.8535
 20
-22.4104
 30
0.0
 10
15.8535
 20
-22.4104
 30
0.0
 10
15.8535
 20
-23.0823
 30
0.0
 10
15.3087
 20
-23.627
 30
0.0
 10
14.6368
 20
-23.627
 30
0.0
 10
14.6368
 20
-23.627
 30
0.0
 10
13.9649
 20
-23.627
 30
0.0
 10
13.4202
 20
-23.0823
 30
0.0
 10
13.4202
 20
-22.4104
 30
0.0
  0
SPLINE
  5
15B
330
1F
100
AcDbEntity
  8
Standard layer
  6
New Line40
 62
   250
370
    15
100
AcDbSpline
210
0.0
220
0.0
230
1.0
 70
    24
 71
     3
 72
     8
 73
     4
 74
     0
 42
0.0000000001
 43
0.0000000001
 40
0.0
 40
0.0
 40
0.0
 40
0.0
 40
1.0
 40
1.0
 40
1.0
 40
1.0
 10
13.8387
 20
-20.991
 30
0.0
 10
13.8387
 20
-20.991
 30
0.0
 10
12.6133
 20
-20.991
 30
0.0
 10
12.6133
 20
-20.991
 30
0.0
  0
SPLINE
  5
15D
330
1F
100
AcDbEntity
  8
Standard layer
  6
New Line41
 62
   250
370
    15
100
AcDbSpline
210
0.0
220
0.0
230
1.0
 70
    24
 71
     3
 72
     8
 73
     4
 74
     0
 42
0.0000000001
 43
0.0000000001
 40
0.0
 40
0.0
 40
0.0
 40
0.0
 40
1.0
 40
1.0
 40
1.0
 40
1.0
 10
12.6107
 20
-23.83
 30
0.0
 10
12.6107
 20
-23.83
 30
0.0
 10
13.8354
 20
-23.83
 30
0.0
 10
13.8354
 20
-23.83
 30
0.0
  0
SPLINE
  5
15F
330
1F
100
AcDbEntity
  8
Standard layer
  6
New Line42
 62
   250
370
    15
100
AcDbSpline
210
0.0
220
0.0
230
1.0
 70
    24
 71
     3
 72
     8
 73
     4
 74
     0
 42
0.0000000001
 43
0.0000000001
 40
0.0
 40
0.0
 40
0.0
 40
0.0
 40
1.0
 40
1.0
 40
1.0
 40
1.0
 10
12.6091
 20
-25.2492
 30
0.0
 10
12.6091
 20
-25.2492
 30
0.0
 10
17.4757
 20
-25.2492
 30
0.0
 10
17.4757
 20
-25.2492
 30
0.0
  0
SPLINE
  5
161
330
1F
100
AcDbEntity
  8
Standard layer
  6
New Line43
 62
   250
370
    15
100
AcDbSpline
210
0.0
220
0.0
230
1.0
 70
    24
 71
     3
 72
     8
 73
     4
 74
     0
 42
0.0000000001
 43
0.0000000001
 40
0.0
 40
0.0
 40
0.0
 40
0.0
 40
1.0
 40
1.0
 40
1.0
 40
1.0
 10
15.4412
 20
-23.8299
 30
0.0
 10
15.4412
 20
-23.8299
 30
0.0
 10
17.4757
 20
-23.8299
 30
0.0
 10
17.4757
 20
-23.8299
 30
0.0
  0
SPLINE
  5
163
330
1F
100
AcDbEntity
  8
Standard layer
  6
New Line44
 62
   250
370
    15
100
AcDbSpline
210
0.0
220
0.0
230
1.0
 70
    24
 71
     3
 72
     8
 73
     4
 74
     0
 42
0.0000000001
 43
0.0000000001
 40
0.0
 40
0.0
 40
0.0
 40
0.0
 40
1.0
 40
1.0
 40
1.0
 40
1.0
 10
14.4341
 20
-23.2215
 30
0.0
 10
14.4341
 20
-23.2215
 30
0.0
 10
14.8396
 20
-23.2215
 30
0.0
 10
14.8396
 20
-23.2215
 30
0.0
  0
SPLINE
  5
165
330
1F
100
AcDbEntity
  8
Standard layer
  6
New Line45
 62
   250
370
    15
100
AcDbSpline
210
0.0
220
0.0
230
1.0
 70
    24
 71
     3
 72
     8
 73
     4
 74
     0
 42
0.0000000001
 43
0.0000000001
 40
0.0
 40
0.0
 40
0.0
 40
0.0
 40
1.0
 40
1.0
 40
1.0
 40
1.0
 10
13.8257
 20
-22.6132
 30
0.0
 10
13.8257
 20
-22.6132
 30
0.0
 10
14.4341
 20
-22.6132
 30
0.0
 10
14.4341
 20
-22.6132
 30
0.0
  0
SPLINE
  5
167
330
1F
100
AcDbEntity
  8
Standard layer
  6
New Line46
 62
   250
370
    15
100
AcDbSpline
210
0.0
220
0.0
230
1.0
 70
    24
 71
     3
 72
     8
 73
     4
 74
     0
 42
0.0000000001
 43
0.0000000001
 40
0.0
 40
0.0
 40
0.0
 40
0.0
 40
1.0
 40
1.0
 40
1.0
 40
1.0
 10
14.8396
 20
-22.6132
 30
0.0
 10
14.8396
 20
-22.6132
 30
0.0
 10
15.4479
 20
-22.6132
 30
0.0
 10
15.4479
 20
-22.6132
 30
0.0
  0
SPLINE
  5
169
330
1F
100
AcDbEntity
  8
Standard layer
  6
New Line47
 62
   250
370
    15
100
AcDbSpline
210
0.0
220
0.0
230
1.0
 70
    24
 71
     3
 72
     8
 73
     4
 74
     0
 42
0.0000000001
 43
0.0000000001
 40
0.0
 40
0.0
 40
0.0
 40
0.0
 40
1.0
 40
1.0
 40
1.0
 40
1.0
 10
15.4479
 20
-22.2076
 30
0.0
 10
15.4479
 20
-22.2076
 30
0.0
 10
14.8396
 20
-22.2076
 30
0.0
 10
14.8396
 20
-22.2076
 30
0.0
  0
SPLINE
  5
16B
330
1F
100
AcDbEntity
  8
Standard layer
  6
New Line48
 62
   250
370
    15
100
AcDbSpline
210
0.0
220
0.0
230
1.0
 70
    24
 71
     3
 72
     8
 73
     4
 74
     0
 42
0.0000000001
 43
0.0000000001
 40
0.0
 40
0.0
 40
0.0
 40
0.0
 40
1.0
 40
1.0
 40
1.0
 40
1.0
 10
14.4341
 20
-22.2076
 30
0.0
 10
14.4341
 20
-22.2076
 30
0.0
 10
13.8257
 20
-22.2076
 30
0.0
 10
13.8257
 20
-22.2076
 30
0.0
  0
SPLINE
  5
16D
330
1F
100
AcDbEntity
  8
Standard layer
  6
New Line49
 62
   250
370
    15
100
AcDbSpline
210
0.0
220
0.0
230
1.0
 70
    24
 71
     3
 72
     8
 73
     4
 74
     0
 42
0.0000000001
 43
0.0000000001
 40
0.0
 40
0.0
 40
0.0
 40
0.0
 40
1.0
 40
1.0
 40
1.0
 40
1.0
 10
14.8396
 20
-21.5993
 30
0.0
 10
14.8396
 20
-21.5993
 30
0.0
 10
14.4341
 20
-21.5993
 30
0.0
 10
14.4341
 20
-21.5993
 30
0.0
  0
SPLINE
  5
16F
330
1F
100
AcDbEntity
  8
Standard layer
  6
New Line50
 62
   250
370
    15
100
AcDbSpline
210
0.0
220
0.0
230
1.0
 70
    24
 71
     3
 72
     8
 73
     4
 74
     0
 42
0.0000000001
 43
0.0000000001
 40
0.0
 40
0.0
 40
0.0
 40
0.0
 40
1.0
 40
1.0
 40
1.0
 40
1.0
 10
17.4757
 20
-20.991
 30
0.0
 10
17.4757
 20
-20.991
 30
0.0
 10
15.4339
 20
-20.991
 30
0.0
 10
15.4339
 20
-20.991
 30
0.0
  0
SPLINE
  5
171
330
1F
100
AcDbEntity
  8
Standard layer
  6
New Line51
 62
   250
370
    15
100
AcDbSpline
210
0.0
220
0.0
230
1.0
 70
    24
 71
     3
 72
     8
 73
     4
 74
     0
 42
0.0000000001
 43
0.0000000001
 40
0.0
 40
0.0
 40
0.0
 40
0.0
 40
1.0
 40
1.0
 40
1.0
 40
1.0
 10
15.4479
 20
-22.6132
 30
0.0
 10
15.4479
 20
-22.6132
 30
0.0
 10
15.4479
 20
-22.2076
 30
0.0
 10
15.4479
 20
-22.2076
 30
0.0
  0
SPLINE
  5
173
330
1F
100
AcDbEntity
  8
Standard layer
  6
New Line52
 62
   250
370
    15
100
AcDbSpline
210
0.0
220
0.0
230
1.0
 70
    24
 71
     3
 72
     8
 73
     4
 74
     0
 42
0.0000000001
 43
0.0000000001
 40
0.0
 40
0.0
 40
0.0
 40
0.0
 40
1.0
 40
1.0
 40
1.0
 40
1.0
 10
14.8396
 20
-23.2215
 30
0.0
 10
14.8396
 20
-23.2215
 30
0.0
 10
14.8396
 20
-22.6132
 30
0.0
 10
14.8396
 20
-22.6132
 30
0.0
  0
SPLINE
  5
175
330
1F
100
AcDbEntity
  8
Standard layer
  6
New Line53
 62
   250
370
    15
100
AcDbSpline
210
0.0
220
0.0
230
1.0
 70
    24
 71
     3
 72
     8
 73
     4
 74
     0
 42
0.0000000001
 43
0.0000000001
 40
0.0
 40
0.0
 40
0.0
 40
0.0
 40
1.0
 40
1.0
 40
1.0
 40
1.0
 10
14.8396
 20
-22.2076
 30
0.0
 10
14.8396
 20
-22.2076
 30
0.0
 10
14.8396
 20
-21.5993
 30
0.0
 10
14.8396
 20
-21.5993
 30
0.0
  0
SPLINE
  5
177
330
1F
100
AcDbEntity
  8
Standard layer
  6
New Line54
 62
   250
370
    15
100
AcDbSpline
210
0.0
220
0.0
230
1.0
 70
    24
 71
     3
 72
     8
 73
     4
 74
     0
 42
0.0000000001
 43
0.0000000001
 40
0.0
 40
0.0
 40
0.0
 40
0.0
 40
1.0
 40
1.0
 40
1.0
 40
1.0
 10
14.4341
 20
-21.5993
 30
0.0
 10
14.4341
 20
-21.5993
 30
0.0
 10
14.4341
 20
-22.2076
 30
0.0
 10
14.4341
 20
-22.2076
 30
0.0
  0
SPLINE
  5
179
330
1F
100
AcDbEntity
  8
Standard layer
  6
New Line55
 62
   250
370
    15
100
AcDbSpline
210
0.0
220
0.0
230
1.0
 70
    24
 71
     3
 72
     8
 73
     4
 74
     0
 42
0.0000000001
 43
0.0000000001
 40
0.0
 40
0.0
 40
0.0
 40
0.0
 40
1.0
 40
1.0
 40
1.0
 40
1.0
 10
14.4341
 20
-22.6132
 30
0.0
 10
14.4341
 20
-22.6132
 30
0.0
 10
14.4341
 20
-23.2215
 30
0.0
 10
14.4341
 20
-23.2215
 30
0.0
  0
SPLINE
  5
17B
330
1F
100
AcDbEntity
  8
Standard layer
  6
New Line56
 62
   250
370
    15
100
AcDbSpline
210
0.0
220
0.0
230
1.0
 70
    24
 71
     3
 72
     8
 73
     4
 74
     0
 42
0.0000000001
 43
0.0000000001
 40
0.0
 40
0.0
 40
0.0
 40
0.0
 40
1.0
 40
1.0
 40
1.0
 40
1.0
 10
17.4757
 20
-19.5716
 30
0.0
 10
17.4757
 20
-19.5716
 30
0.0
 10
12.6091
 20
-19.5716
 30
0.0
 10
12.6091
 20
-19.5716
 30
0.0
  0
SPLINE
  5
17D
330
1F
100
AcDbEntity
  8
Standard layer
  6
New Line57
 62
   250
370
    15
100
AcDbSpline
210
0.0
220
0.0
230
1.0
 70
    24
 71
     3
 72
     8
 73
     4
 74
     0
 42
0.0000000001
 43
0.0000000001
 40
0.0
 40
0.0
 40
0.0
 40
0.0
 40
1.0
 40
1.0
 40
1.0
 40
1.0
 10
13.8257
 20
-22.2076
 30
0.0
 10
13.8257
 20
-22.2076
 30
0.0
 10
13.8257
 20
-22.6132
 30
0.0
 10
13.8257
 20
-22.6132
 30
0.0
  0
SPLINE
  5
17F
330
1F
100
AcDbEntity
  8
Standard layer
  6
New Line58
 62
   250
370
    15
100
AcDbSpline
210
0.0
220
0.0
230
1.0
 70
     8
 71
     3
 72
    12
 73
     8
 74
     0
 42
0.0000000001
 43
0.0000000001
 40
0.0
 40
0.0
 40
0.0
 40
0.0
 40
0.3333333333333333
 40
0.3333333333333333
 40
0.3333333333333333
 40
0.3333333333333333
 40
1.0
 40
1.0
 40
1.0
 40
1.0
 10
17.4757
 20
-19.5716
 30
0.0
 10
19.0435
 20
-19.5716
 30
0.0
 10
20.3145
 20
-20.8425
 30
0.0
 10
20.3145
 20
-22.4104
 30
0.0
 10
20.3145
 20
-22.4104
 30
0.0
 10
20.3145
 20
-23.9782
 30
0.0
 10
19.0435
 20
-25.2492
 30
0.0
 10
17.4757
 20
-25.2492
 30
0.0
  0
SPLINE
  5
181
330
1F
100
AcDbEntity
  8
Standard layer
  6
New Line59
 62
   250
370
    15
100
AcDbSpline
210
0.0
220
0.0
230
1.0
 70
     8
 71
     3
 72
    12
 73
     8
 74
     0
 42
0.0000000001
 43
0.0000000001
 40
0.0
 40
0.0
 40
0.0
 40
0.0
 40
0.3333333333333333
 40
0.3333333333333333
 40
0.3333333333333333
 40
0.3333333333333333
 40
1.0
 40
1.0
 40
1.0
 40
1.0
 10
17.4757
 20
-20.991
 30
0.0
 10
18.2596
 20
-20.991
 30
0.0
 10
18.8951
 20
-21.6265
 30
0.0
 10
18.8951
 20
-22.4104
 30
0.0
 10
18.8951
 20
-22.4104
 30
0.0
 10
18.8951
 20
-23.1943
 30
0.0
 10
18.2596
 20
-23.8298
 30
0.0
 10
17.4757
 20
-23.8298
 30
0.0
  0
SPLINE
  5
183
330
1F
100
AcDbEntity
  8
Standard layer
  6
New Line60
 62
   250
370
    15
100
AcDbSpline
210
0.0
220
0.0
230
1.0
 70
     8
 71
     3
 72
    12
 73
     8
 74
     0
 42
0.0000000001
 43
0.0000000001
 40
0.0
 40
0.0
 40
0.0
 40
0.0
 40
0.3333333333333333
 40
0.3333333333333333
 40
0.3333333333333333
 40
0.3333333333333333
 40
1.0
 40
1.0
 40
1.0
 40
1.0
 10
12.6091
 20
-25.2492
 30
0.0
 10
11.0413
 20
-25.2492
 30
0.0
 10
9.7703
 20
-23.9782
 30
0.0
 10
9.7703
 20
-22.4104
 30
0.0
 10
9.7703
 20
-22.4104
 30
0.0
 10
9.7703
 20
-20.8425
 30
0.0
 10
11.0413
 20
-19.5716
 30
0.0
 10
12.6091
 20
-19.5716
 30
0.0
  0
SPLINE
  5
185
330
1F
100
AcDbEntity
  8
Standard layer
  6
New Line61
 62
   250
370
    15
100
AcDbSpline
210
0.0
220
0.0
230
1.0
 70
     8
 71
     3
 72
    12
 73
     8
 74
     0
 42
0.0000000001
 43
0.0000000001
 40
0.0
 40
0.0
 40
0.0
 40
0.0
 40
0.3333333333333333
 40
0.3333333333333333
 40
0.3333333333333333
 40
0.3333333333333333
 40
1.0
 40
1.0
 40
1.0
 40
1.0
 10
12.6091
 20
-23.8298
 30
0.0
 10
11.8252
 20
-23.8298
 30
0.0
 10
11.1897
 20
-23.1943
 30
0.0
 10
11.1897
 20
-22.4104
 30
0.0
 10
11.1897
 20
-22.4104
 30
0.0
 10
11.1897
 20
-21.6265
 30
0.0
 10
11.8252
 20
-20.991
 30
0.0
 10
12.6091
 20
-20.991
 30
0.0
  0
SPLINE
  5
187
330
1F
100
AcDbEntity
  8
Standard layer
 62
   250
370
    30
100
AcDbSpline
210
0.0
220
0.0
230
1.0
 70
    11
 71
     3
 72
    20
 73
    16
 74
     0
 42
0.0000000001
 43
0.0000000001
 40
0.0
 40
0.0
 40
0.0
 40
0.0
 40
0.2
 40
0.2
 40
0.2
 40
0.2
 40
0.4
 40
0.4
 40
0.4
 40
0.4
 40
0.6
 40
0.6
 40
0.6
 40
0.6
 40
1.0
 40
1.0
 40
1.0
 40
1.0
 10
8.5536
 20
-22.4104
 30
0.0
 10
8.5536
 20
-17.4829
 30
0.0
 10
12.5482
 20
-13.4883
 30
0.0
 10
17.4757
 20
-13.4883
 30
0.0
 10
17.4757
 20
-13.4883
 30
0.0
 10
22.4032
 20
-13.4883
 30
0.0
 10
26.3977
 20
-17.4829
 30
0.0
 10
26.3977
 20
-22.4104
 30
0.0
 10
26.3977
 20
-22.4104
 30
0.0
 10
26.3977
 20
-27.3379
 30
0.0
 10
22.4032
 20
-31.3325
 30
0.0
 10
17.4757
 20
-31.3325
 30
0.0
 10
17.4757
 20
-31.3325
 30
0.0
 10
12.5482
 20
-31.3325
 30
0.0
 10
8.5536
 20
-27.3379
 30
0.0
 10
8.5536
 20
-22.4104
 30
0.0
  0
SPLINE
  5
188
330
1F
100
AcDbEntity
  8
Standard layer
  6
New Line62
 62
   250
370
    13
100
AcDbSpline
210
0.0
220
0.0
230
1.0
 70
    24
 71
     3
 72
     8
 73
     4
 74
     0
 42
0.0000000001
 43
0.0000000001
 40
0.0
 40
0.0
 40
0.0
 40
0.0
 40
1.0
 40
1.0
 40
1.0
 40
1.0
 10
22.3411
 20
-24.5442
 30
0.0
 10
22.3411
 20
-24.5442
 30
0.0
 10
22.3411
 20
-20.119
 30
0.0
 10
22.3411
 20
-20.119
 30
0.0
  0
SPLINE
  5
18A
330
1F
100
AcDbEntity
  8
Standard layer
  6
New Line63
 62
   250
370
    13
100
AcDbSpline
210
0.0
220
0.0
230
1.0
 70
    24
 71
     3
 72
     8
 73
     4
 74
     0
 42
0.0000000001
 43
0.0000000001
 40
0.0
 40
0.0
 40
0.0
 40
0.0
 40
1.0
 40
1.0
 40
1.0
 40
1.0
 10
14.617
 20
-27.6473
 30
0.0
 10
14.617
 20
-27.6473
 30
0.0
 10
14.617
 20
-17.1419
 30
0.0
 10
14.617
 20
-17.1419
 30
0.0
  0
SPLINE
  5
18C
330
1F
100
AcDbEntity
  8
Standard layer
  6
New Line64
 62
   250
370
    13
100
AcDbSpline
210
0.0
220
0.0
230
1.0
 70
    24
 71
     3
 72
     8
 73
     4
 74
     0
 42
0.0000000001
 43
0.0000000001
 40
0.0
 40
0.0
 40
0.0
 40
0.0
 40
1.0
 40
1.0
 40
1.0
 40
1.0
 10
24.407
 20
-22.4372
 30
0.0
 10
24.407
 20
-22.4372
 30
0.0
 10
9.3612
 20
-22.4372
 30
0.0
 10
9.3612
 20
-22.4372
 30
0.0
  0
SPLINE
  5
18E
330
1F
100
AcDbEntity
  8
Standard layer
 62
   250
370
     9
100
AcDbSpline
210
0.0
220
0.0
230
1.0
 70
    11
 71
     3
 72
    32
 73
    28
 74
     0
 42
0.0000000001
 43
0.0000000001
 40
0.0
 40
0.0
 40
0.0
 40
0.0
 40
0.125
 40
0.125
 40
0.125
 40
0.125
 40
0.25
 40
0.25
 40
0.25
 40
0.25
 40
0.375
 40
0.375
 40
0.375
 40
0.375
 40
0.5
 40
0.5
 40
0.5
 40
0.5
 40
0.625
 40
0.625
 40
0.625
 40
0.625
 40
0.75
 40
0.75
 40
0.75
 40
0.75
 40
1.0
 40
1.0
 40
1.0
 40
1.0
 10
-7.3243
 20
-30.5126
 30
0.0
 10
-7.3243
 20
-30.5126
 30
0.0
 10
-7.3243
 20
-30.5126
 30
0.0
 10
-7.3243
 20
-30.5126
 30
0.0
 10
-7.3243
 20
-30.5126
 30
0.0
 10
-7.3243
 20
-30.5126
 30
0.0
 10
-7.3243
 20
-30.5126
 30
0.0
 10
-7.3243
 20
-30.5126
 30
0.0
 10
-7.3243
 20
-30.5126
 30
0.0
 10
-7.3243
 20
-30.5126
 30
0.0
 10
-7.9108
 20
-29.2991
 30
0.0
 10
-7.9108
 20
-29.2991
 30
0.0
 10
-7.9108
 20
-29.2991
 30
0.0
 10
-7.9108
 20
-29.2991
 30
0.0
 10
-6.6972
 20
-29.8856
 30
0.0
 10
-6.6972
 20
-29.8856
 30
0.0
 10
-6.6972
 20
-29.8856
 30
0.0
 10
-6.6972
 20
-29.8856
 30
0.0
 10
-6.6972
 20
-29.8856
 30
0.0
 10
-6.6972
 20
-29.8856
 30
0.0
 10
-6.6972
 20
-29.8856
 30
0.0
 10
-6.6972
 20
-29.8856
 30
0.0
 10
-6.6972
 20
-29.8856
 30
0.0
 10
-6.6972
 20
-29.8856
 30
0.0
 10
-6.6972
 20
-29.8856
 30
0.0
 10
-6.6972
 20
-29.8856
 30
0.0
 10
-7.3243
 20
-30.5126
 30
0.0
 10
-7.3243
 20
-30.5126
 30
0.0
  0
SPLINE
  5
18F
330
1F
100
AcDbEntity
  8
Standard layer
 62
   250
370
     9
100
AcDbSpline
210
0.0
220
0.0
230
1.0
 70
    11
 71
     3
 72
    32
 73
    28
 74
     0
 42
0.0000000001
 43
0.0000000001
 40
0.0
 40
0.0
 40
0.0
 40
0.0
 40
0.125
 40
0.125
 40
0.125
 40
0.125
 40
0.25
 40
0.25
 40
0.25
 40
0.25
 40
0.375
 40
0.375
 40
0.375
 40
0.375
 40
0.5
 40
0.5
 40
0.5
 40
0.5
 40
0.625
 40
0.625
 40
0.625
 40
0.625
 40
0.75
 40
0.75
 40
0.75
 40
0.75
 40
1.0
 40
1.0
 40
1.0
 40
1.0
 10
-16.0859
 20
-11.9121
 30
0.0
 10
-16.0859
 20
-11.9121
 30
0.0
 10
-16.0859
 20
-11.9121
 30
0.0
 10
-16.0859
 20
-11.9121
 30
0.0
 10
-16.0859
 20
-11.9121
 30
0.0
 10
-16.0859
 20
-11.9121
 30
0.0
 10
-16.0859
 20
-11.9121
 30
0.0
 10
-16.0859
 20
-11.9121
 30
0.0
 10
-16.0859
 20
-11.9121
 30
0.0
 10
-16.0859
 20
-11.9121
 30
0.0
 10
-14.8131
 20
-11.4687
 30
0.0
 10
-14.8131
 20
-11.4687
 30
0.0
 10
-14.8131
 20
-11.4687
 30
0.0
 10
-14.8131
 20
-11.4687
 30
0.0
 10
-16.0859
 20
-11.0253
 30
0.0
 10
-16.0859
 20
-11.0253
 30
0.0
 10
-16.0859
 20
-11.0253
 30
0.0
 10
-16.0859
 20
-11.0253
 30
0.0
 10
-16.0859
 20
-11.0253
 30
0.0
 10
-16.0859
 20
-11.0253
 30
0.0
 10
-16.0859
 20
-11.0253
 30
0.0
 10
-16.0859
 20
-11.0253
 30
0.0
 10
-16.0859
 20
-11.0253
 30
0.0
 10
-16.0859
 20
-11.0253
 30
0.0
 10
-16.0859
 20
-11.0253
 30
0.0
 10
-16.0859
 20
-11.0253
 30
0.0
 10
-16.0859
 20
-11.9121
 30
0.0
 10
-16.0859
 20
-11.9121
 30
0.0
  0
SPLINE
  5
190
330
1F
100
AcDbEntity
  8
Standard layer
 62
   250
370
     9
100
AcDbSpline
210
0.0
220
0.0
230
1.0
 70
    11
 71
     3
 72
    32
 73
    28
 74
     0
 42
0.0000000001
 43
0.0000000001
 40
0.0
 40
0.0
 40
0.0
 40
0.0
 40
0.125
 40
0.125
 40
0.125
 40
0.125
 40
0.25
 40
0.25
 40
0.25
 40
0.25
 40
0.375
 40
0.375
 40
0.375
 40
0.375
 40
0.5
 40
0.5
 40
0.5
 40
0.5
 40
0.625
 40
0.625
 40
0.625
 40
0.625
 40
0.75
 40
0.75
 40
0.75
 40
0.75
 40
1.0
 40
1.0
 40
1.0
 40
1.0
 10
-12.1226
 20
12.1807
 30
0.0
 10
-12.1226
 20
12.1807
 30
0.0
 10
-12.1226
 20
12.1807
 30
0.0
 10
-12.1226
 20
12.1807
 30
0.0
 10
-12.1226
 20
12.1807
 30
0.0
 10
-12.1226
 20
12.1807
 30
0.0
 10
-12.1226
 20
12.1807
 30
0.0
 10
-12.1226
 20
12.1807
 30
0.0
 10
-12.1226
 20
12.1807
 30
0.0
 10
-12.1226
 20
12.1807
 30
0.0
 10
-10.8498
 20
12.6241
 30
0.0
 10
-10.8498
 20
12.6241
 30
0.0
 10
-10.8498
 20
12.6241
 30
0.0
 10
-10.8498
 20
12.6241
 30
0.0
 10
-12.1226
 20
13.0675
 30
0.0
 10
-12.1226
 20
13.0675
 30
0.0
 10
-12.1226
 20
13.0675
 30
0.0
 10
-12.1226
 20
13.0675
 30
0.0
 10
-12.1226
 20
13.0675
 30
0.0
 10
-12.1226
 20
13.0675
 30
0.0
 10
-12.1226
 20
13.0675
 30
0.0
 10
-12.1226
 20
13.0675
 30
0.0
 10
-12.1226
 20
13.0675
 30
0.0
 10
-12.1226
 20
13.0675
 30
0.0
 10
-12.1226
 20
13.0675
 30
0.0
 10
-12.1226
 20
13.0675
 30
0.0
 10
-12.1226
 20
12.1807
 30
0.0
 10
-12.1226
 20
12.1807
 30
0.0
  0
SPLINE
  5
191
330
1F
100
AcDbEntity
  8
Standard layer
 62
   250
370
     9
100
AcDbSpline
210
0.0
220
0.0
230
1.0
 70
    11
 71
     3
 72
    32
 73
    28
 74
     0
 42
0.0000000001
 43
0.0000000001
 40
0.0
 40
0.0
 40
0.0
 40
0.0
 40
0.125
 40
0.125
 40
0.125
 40
0.125
 40
0.25
 40
0.25
 40
0.25
 40
0.25
 40
0.375
 40
0.375
 40
0.375
 40
0.375
 40
0.5
 40
0.5
 40
0.5
 40
0.5
 40
0.625
 40
0.625
 40
0.625
 40
0.625
 40
0.75
 40
0.75
 40
0.75
 40
0.75
 40
1.0
 40
1.0
 40
1.0
 40
1.0
 10
-22.5792
 20
27.2578
 30
0.0
 10
-22.5792
 20
27.2578
 30
0.0
 10
-22.5792
 20
27.2578
 30
0.0
 10
-22.5792
 20
27.2578
 30
0.0
 10
-22.5792
 20
27.2578
 30
0.0
 10
-22.5792
 20
27.2578
 30
0.0
 10
-22.5792
 20
27.2578
 30
0.0
 10
-22.5792
 20
27.2578
 30
0.0
 10
-22.5792
 20
27.2578
 30
0.0
 10
-22.5792
 20
27.2578
 30
0.0
 10
-21.3064
 20
27.7012
 30
0.0
 10
-21.3064
 20
27.7012
 30
0.0
 10
-21.3064
 20
27.7012
 30
0.0
 10
-21.3064
 20
27.7012
 30
0.0
 10
-22.5792
 20
28.1446
 30
0.0
 10
-22.5792
 20
28.1446
 30
0.0
 10
-22.5792
 20
28.1446
 30
0.0
 10
-22.5792
 20
28.1446
 30
0.0
 10
-22.5792
 20
28.1446
 30
0.0
 10
-22.5792
 20
28.1446
 30
0.0
 10
-22.5792
 20
28.1446
 30
0.0
 10
-22.5792
 20
28.1446
 30
0.0
 10
-22.5792
 20
28.1446
 30
0.0
 10
-22.5792
 20
28.1446
 30
0.0
 10
-22.5792
 20
28.1446
 30
0.0
 10
-22.5792
 20
28.1446
 30
0.0
 10
-22.5792
 20
27.2578
 30
0.0
 10
-22.5792
 20
27.2578
 30
0.0
  0
SPLINE
  5
192
330
1F
100
AcDbEntity
  8
Standard layer
 62
   250
370
     9
100
AcDbSpline
210
0.0
220
0.0
230
1.0
 70
    11
 71
     3
 72
    32
 73
    28
 74
     0
 42
0.0000000001
 43
0.0000000001
 40
0.0
 40
0.0
 40
0.0
 40
0.0
 40
0.125
 40
0.125
 40
0.125
 40
0.125
 40
0.25
 40
0.25
 40
0.25
 40
0.25
 40
0.375
 40
0.375
 40
0.375
 40
0.375
 40
0.5
 40
0.5
 40
0.5
 40
0.5
 40
0.625
 40
0.625
 40
0.625
 40
0.625
 40
0.75
 40
0.75
 40
0.75
 40
0.75
 40
1.0
 40
1.0
 40
1.0
 40
1.0
 10
2.9951
 20
30.2767
 30
0.0
 10
2.9951
 20
30.2767
 30
0.0
 10
2.9951
 20
30.2767
 30
0.0
 10
2.9951
 20
30.2767
 30
0.0
 10
2.9951
 20
30.2767
 30
0.0
 10
2.9951
 20
30.2767
 30
0.0
 10
2.9951
 20
30.2767
 30
0.0
 10
2.9951
 20
30.2767
 30
0.0
 10
2.9951
 20
30.2767
 30
0.0
 10
2.9951
 20
30.2767
 30
0.0
 10
2.5517
 20
31.5495
 30
0.0
 10
2.5517
 20
31.5495
 30
0.0
 10
2.5517
 20
31.5495
 30
0.0
 10
2.5517
 20
31.5495
 30
0.0
 10
2.1083
 20
30.2767
 30
0.0
 10
2.1083
 20
30.2767
 30
0.0
 10
2.1083
 20
30.2767
 30
0.0
 10
2.1083
 20
30.2767
 30
0.0
 10
2.1083
 20
30.2767
 30
0.0
 10
2.1083
 20
30.2767
 30
0.0
 10
2.1083
 20
30.2767
 30
0.0
 10
2.1083
 20
30.2767
 30
0.0
 10
2.1083
 20
30.2767
 30
0.0
 10
2.1083
 20
30.2767
 30
0.0
 10
2.1083
 20
30.2767
 30
0.0
 10
2.1083
 20
30.2767
 30
0.0
 10
2.9951
 20
30.2767
 30
0.0
 10
2.9951
 20
30.2767
 30
0.0
  0
SPLINE
  5
193
330
1F
100
AcDbEntity
  8
Standard layer
 62
   250
370
     9
100
AcDbSpline
210
0.0
220
0.0
230
1.0
 70
    11
 71
     3
 72
    32
 73
    28
 74
     0
 42
0.0000000001
 43
0.0000000001
 40
0.0
 40
0.0
 40
0.0
 40
0.0
 40
0.125
 40
0.125
 40
0.125
 40
0.125
 40
0.25
 40
0.25
 40
0.25
 40
0.25
 40
0.375
 40
0.375
 40
0.375
 40
0.375
 40
0.5
 40
0.5
 40
0.5
 40
0.5
 40
0.625
 40
0.625
 40
0.625
 40
0.625
 40
0.75
 40
0.75
 40
0.75
 40
0.75
 40
1.0
 40
1.0
 40
1.0
 40
1.0
 10
3.0228
 20
21.9038
 30
0.0
 10
3.0228
 20
21.9038
 30
0.0
 10
3.0228
 20
21.9038
 30
0.0
 10
3.0228
 20
21.9038
 30
0.0
 10
3.0228
 20
21.9038
 30
0.0
 10
3.0228
 20
21.9038
 30
0.0
 10
3.0228
 20
21.9038
 30
0.0
 10
3.0228
 20
21.9038
 30
0.0
 10
3.0228
 20
21.9038
 30
0.0
 10
3.0228
 20
21.9038
 30
0.0
 10
2.5794
 20
23.1766
 30
0.0
 10
2.5794
 20
23.1766
 30
0.0
 10
2.5794
 20
23.1766
 30
0.0
 10
2.5794
 20
23.1766
 30
0.0
 10
2.136
 20
21.9038
 30
0.0
 10
2.136
 20
21.9038
 30
0.0
 10
2.136
 20
21.9038
 30
0.0
 10
2.136
 20
21.9038
 30
0.0
 10
2.136
 20
21.9038
 30
0.0
 10
2.136
 20
21.9038
 30
0.0
 10
2.136
 20
21.9038
 30
0.0
 10
2.136
 20
21.9038
 30
0.0
 10
2.136
 20
21.9038
 30
0.0
 10
2.136
 20
21.9038
 30
0.0
 10
2.136
 20
21.9038
 30
0.0
 10
2.136
 20
21.9038
 30
0.0
 10
3.0228
 20
21.9038
 30
0.0
 10
3.0228
 20
21.9038
 30
0.0
  0
SPLINE
  5
194
330
1F
100
AcDbEntity
  8
Standard layer
 62
   250
370
     9
100
AcDbSpline
210
0.0
220
0.0
230
1.0
 70
    11
 71
     3
 72
    32
 73
    28
 74
     0
 42
0.0000000001
 43
0.0000000001
 40
0.0
 40
0.0
 40
0.0
 40
0.0
 40
0.125
 40
0.125
 40
0.125
 40
0.125
 40
0.25
 40
0.25
 40
0.25
 40
0.25
 40
0.375
 40
0.375
 40
0.375
 40
0.375
 40
0.5
 40
0.5
 40
0.5
 40
0.5
 40
0.625
 40
0.625
 40
0.625
 40
0.625
 40
0.75
 40
0.75
 40
0.75
 40
0.75
 40
1.0
 40
1.0
 40
1.0
 40
1.0
 10
-22.4818
 20
-15.357
 30
0.0
 10
-22.4818
 20
-15.357
 30
0.0
 10
-22.4818
 20
-15.357
 30
0.0
 10
-22.4818
 20
-15.357
 30
0.0
 10
-22.4818
 20
-15.357
 30
0.0
 10
-22.4818
 20
-15.357
 30
0.0
 10
-22.4818
 20
-15.357
 30
0.0
 10
-22.4818
 20
-15.357
 30
0.0
 10
-22.4818
 20
-15.357
 30
0.0
 10
-22.4818
 20
-15.357
 30
0.0
 10
-21.2683
 20
-15.9435
 30
0.0
 10
-21.2683
 20
-15.9435
 30
0.0
 10
-21.2683
 20
-15.9435
 30
0.0
 10
-21.2683
 20
-15.9435
 30
0.0
 10
-21.8548
 20
-14.73
 30
0.0
 10
-21.8548
 20
-14.73
 30
0.0
 10
-21.8548
 20
-14.73
 30
0.0
 10
-21.8548
 20
-14.73
 30
0.0
 10
-21.8548
 20
-14.73
 30
0.0
 10
-21.8548
 20
-14.73
 30
0.0
 10
-21.8548
 20
-14.73
 30
0.0
 10
-21.8548
 20
-14.73
 30
0.0
 10
-21.8548
 20
-14.73
 30
0.0
 10
-21.8548
 20
-14.73
 30
0.0
 10
-21.8548
 20
-14.73
 30
0.0
 10
-21.8548
 20
-14.73
 30
0.0
 10
-22.4818
 20
-15.357
 30
0.0
 10
-22.4818
 20
-15.357
 30
0.0
  0
SPLINE
  5
195
330
1F
100
AcDbEntity
  8
Standard layer
 62
   250
370
     9
100
AcDbSpline
210
0.0
220
0.0
230
1.0
 70
    11
 71
     3
 72
    32
 73
    28
 74
     0
 42
0.0000000001
 43
0.0000000001
 40
0.0
 40
0.0
 40
0.0
 40
0.0
 40
0.125
 40
0.125
 40
0.125
 40
0.125
 40
0.25
 40
0.25
 40
0.25
 40
0.25
 40
0.375
 40
0.375
 40
0.375
 40
0.375
 40
0.5
 40
0.5
 40
0.5
 40
0.5
 40
0.625
 40
0.625
 40
0.625
 40
0.625
 40
0.75
 40
0.75
 40
0.75
 40
0.75
 40
1.0
 40
1.0
 40
1.0
 40
1.0
 10
-8.0882
 20
-11.8822
 30
0.0
 10
-8.0882
 20
-11.8822
 30
0.0
 10
-8.0882
 20
-11.8822
 30
0.0
 10
-8.0882
 20
-11.8822
 30
0.0
 10
-8.0882
 20
-11.8822
 30
0.0
 10
-8.0882
 20
-11.8822
 30
0.0
 10
-8.0882
 20
-11.8822
 30
0.0
 10
-8.0882
 20
-11.8822
 30
0.0
 10
-8.0882
 20
-11.8822
 30
0.0
 10
-8.0882
 20
-11.8822
 30
0.0
 10
-9.361
 20
-11.4388
 30
0.0
 10
-9.361
 20
-11.4388
 30
0.0
 10
-9.361
 20
-11.4388
 30
0.0
 10
-9.361
 20
-11.4388
 30
0.0
 10
-8.0882
 20
-10.9954
 30
0.0
 10
-8.0882
 20
-10.9954
 30
0.0
 10
-8.0882
 20
-10.9954
 30
0.0
 10
-8.0882
 20
-10.9954
 30
0.0
 10
-8.0882
 20
-10.9954
 30
0.0
 10
-8.0882
 20
-10.9954
 30
0.0
 10
-8.0882
 20
-10.9954
 30
0.0
 10
-8.0882
 20
-10.9954
 30
0.0
 10
-8.0882
 20
-10.9954
 30
0.0
 10
-8.0882
 20
-10.9954
 30
0.0
 10
-8.0882
 20
-10.9954
 30
0.0
 10
-8.0882
 20
-10.9954
 30
0.0
 10
-8.0882
 20
-11.8822
 30
0.0
 10
-8.0882
 20
-11.8822
 30
0.0
  0
SPLINE
  5
196
330
1F
100
AcDbEntity
  8
Standard layer
 62
   250
370
     9
100
AcDbSpline
210
0.0
220
0.0
230
1.0
 70
    11
 71
     3
 72
    32
 73
    28
 74
     0
 42
0.0000000001
 43
0.0000000001
 40
0.0
 40
0.0
 40
0.0
 40
0.0
 40
0.125
 40
0.125
 40
0.125
 40
0.125
 40
0.25
 40
0.25
 40
0.25
 40
0.25
 40
0.375
 40
0.375
 40
0.375
 40
0.375
 40
0.5
 40
0.5
 40
0.5
 40
0.5
 40
0.625
 40
0.625
 40
0.625
 40
0.625
 40
0.75
 40
0.75
 40
0.75
 40
0.75
 40
1.0
 40
1.0
 40
1.0
 40
1.0
 10
-6.881
 20
12.1886
 30
0.0
 10
-6.881
 20
12.1886
 30
0.0
 10
-6.881
 20
12.1886
 30
0.0
 10
-6.881
 20
12.1886
 30
0.0
 10
-6.881
 20
12.1886
 30
0.0
 10
-6.881
 20
12.1886
 30
0.0
 10
-6.881
 20
12.1886
 30
0.0
 10
-6.881
 20
12.1886
 30
0.0
 10
-6.881
 20
12.1886
 30
0.0
 10
-6.881
 20
12.1886
 30
0.0
 10
-8.1538
 20
12.632
 30
0.0
 10
-8.1538
 20
12.632
 30
0.0
 10
-8.1538
 20
12.632
 30
0.0
 10
-8.1538
 20
12.632
 30
0.0
 10
-6.881
 20
13.0754
 30
0.0
 10
-6.881
 20
13.0754
 30
0.0
 10
-6.881
 20
13.0754
 30
0.0
 10
-6.881
 20
13.0754
 30
0.0
 10
-6.881
 20
13.0754
 30
0.0
 10
-6.881
 20
13.0754
 30
0.0
 10
-6.881
 20
13.0754
 30
0.0
 10
-6.881
 20
13.0754
 30
0.0
 10
-6.881
 20
13.0754
 30
0.0
 10
-6.881
 20
13.0754
 30
0.0
 10
-6.881
 20
13.0754
 30
0.0
 10
-6.881
 20
13.0754
 30
0.0
 10
-6.881
 20
12.1886
 30
0.0
 10
-6.881
 20
12.1886
 30
0.0
  0
SPLINE
  5
197
330
1F
100
AcDbEntity
  8
Standard layer
 62
   250
370
     9
100
AcDbSpline
210
0.0
220
0.0
230
1.0
 70
    11
 71
     3
 72
    32
 73
    28
 74
     0
 42
0.0000000001
 43
0.0000000001
 40
0.0
 40
0.0
 40
0.0
 40
0.0
 40
0.125
 40
0.125
 40
0.125
 40
0.125
 40
0.25
 40
0.25
 40
0.25
 40
0.25
 40
0.375
 40
0.375
 40
0.375
 40
0.375
 40
0.5
 40
0.5
 40
0.5
 40
0.5
 40
0.625
 40
0.625
 40
0.625
 40
0.625
 40
0.75
 40
0.75
 40
0.75
 40
0.75
 40
1.0
 40
1.0
 40
1.0
 40
1.0
 10
-16.7202
 20
27.2547
 30
0.0
 10
-16.7202
 20
27.2547
 30
0.0
 10
-16.7202
 20
27.2547
 30
0.0
 10
-16.7202
 20
27.2547
 30
0.0
 10
-16.7202
 20
27.2547
 30
0.0
 10
-16.7202
 20
27.2547
 30
0.0
 10
-16.7202
 20
27.2547
 30
0.0
 10
-16.7202
 20
27.2547
 30
0.0
 10
-16.7202
 20
27.2547
 30
0.0
 10
-16.7202
 20
27.2547
 30
0.0
 10
-17.993
 20
27.6981
 30
0.0
 10
-17.993
 20
27.6981
 30
0.0
 10
-17.993
 20
27.6981
 30
0.0
 10
-17.993
 20
27.6981
 30
0.0
 10
-16.7202
 20
28.1415
 30
0.0
 10
-16.7202
 20
28.1415
 30
0.0
 10
-16.7202
 20
28.1415
 30
0.0
 10
-16.7202
 20
28.1415
 30
0.0
 10
-16.7202
 20
28.1415
 30
0.0
 10
-16.7202
 20
28.1415
 30
0.0
 10
-16.7202
 20
28.1415
 30
0.0
 10
-16.7202
 20
28.1415
 30
0.0
 10
-16.7202
 20
28.1415
 30
0.0
 10
-16.7202
 20
28.1415
 30
0.0
 10
-16.7202
 20
28.1415
 30
0.0
 10
-16.7202
 20
28.1415
 30
0.0
 10
-16.7202
 20
27.2547
 30
0.0
 10
-16.7202
 20
27.2547
 30
0.0
  0
SPLINE
  5
198
330
1F
100
AcDbEntity
  8
Standard layer
 62
   250
370
     9
100
AcDbSpline
210
0.0
220
0.0
230
1.0
 70
    11
 71
     3
 72
    32
 73
    28
 74
     0
 42
0.0000000001
 43
0.0000000001
 40
0.0
 40
0.0
 40
0.0
 40
0.0
 40
0.125
 40
0.125
 40
0.125
 40
0.125
 40
0.25
 40
0.25
 40
0.25
 40
0.25
 40
0.375
 40
0.375
 40
0.375
 40
0.375
 40
0.5
 40
0.5
 40
0.5
 40
0.5
 40
0.625
 40
0.625
 40
0.625
 40
0.625
 40
0.75
 40
0.75
 40
0.75
 40
0.75
 40
1.0
 40
1.0
 40
1.0
 40
1.0
 10
3.0259
 20
24.5657
 30
0.0
 10
3.0259
 20
24.5657
 30
0.0
 10
3.0259
 20
24.5657
 30
0.0
 10
3.0259
 20
24.5657
 30
0.0
 10
3.0259
 20
24.5657
 30
0.0
 10
3.0259
 20
24.5657
 30
0.0
 10
3.0259
 20
24.5657
 30
0.0
 10
3.0259
 20
24.5657
 30
0.0
 10
3.0259
 20
24.5657
 30
0.0
 10
3.0259
 20
24.5657
 30
0.0
 10
2.5825
 20
23.2929
 30
0.0
 10
2.5825
 20
23.2929
 30
0.0
 10
2.5825
 20
23.2929
 30
0.0
 10
2.5825
 20
23.2929
 30
0.0
 10
2.1391
 20
24.5657
 30
0.0
 10
2.1391
 20
24.5657
 30
0.0
 10
2.1391
 20
24.5657
 30
0.0
 10
2.1391
 20
24.5657
 30
0.0
 10
2.1391
 20
24.5657
 30
0.0
 10
2.1391
 20
24.5657
 30
0.0
 10
2.1391
 20
24.5657
 30
0.0
 10
2.1391
 20
24.5657
 30
0.0
 10
2.1391
 20
24.5657
 30
0.0
 10
2.1391
 20
24.5657
 30
0.0
 10
2.1391
 20
24.5657
 30
0.0
 10
2.1391
 20
24.5657
 30
0.0
 10
3.0259
 20
24.5657
 30
0.0
 10
3.0259
 20
24.5657
 30
0.0
  0
SPLINE
  5
199
330
1F
100
AcDbEntity
  8
Standard layer
 62
   250
370
     9
100
AcDbSpline
210
0.0
220
0.0
230
1.0
 70
    11
 71
     3
 72
    32
 73
    28
 74
     0
 42
0.0000000001
 43
0.0000000001
 40
0.0
 40
0.0
 40
0.0
 40
0.0
 40
0.125
 40
0.125
 40
0.125
 40
0.125
 40
0.25
 40
0.25
 40
0.25
 40
0.25
 40
0.375
 40
0.375
 40
0.375
 40
0.375
 40
0.5
 40
0.5
 40
0.5
 40
0.5
 40
0.625
 40
0.625
 40
0.625
 40
0.625
 40
0.75
 40
0.75
 40
0.75
 40
0.75
 40
1.0
 40
1.0
 40
1.0
 40
1.0
 10
3.0148
 20
-4.7864
 30
0.0
 10
3.0148
 20
-4.7864
 30
0.0
 10
3.0148
 20
-4.7864
 30
0.0
 10
3.0148
 20
-4.7864
 30
0.0
 10
3.0148
 20
-4.7864
 30
0.0
 10
3.0148
 20
-4.7864
 30
0.0
 10
3.0148
 20
-4.7864
 30
0.0
 10
3.0148
 20
-4.7864
 30
0.0
 10
3.0148
 20
-4.7864
 30
0.0
 10
3.0148
 20
-4.7864
 30
0.0
 10
2.5714
 20
-6.0592
 30
0.0
 10
2.5714
 20
-6.0592
 30
0.0
 10
2.5714
 20
-6.0592
 30
0.0
 10
2.5714
 20
-6.0592
 30
0.0
 10
2.128
 20
-4.7864
 30
0.0
 10
2.128
 20
-4.7864
 30
0.0
 10
2.128
 20
-4.7864
 30
0.0
 10
2.128
 20
-4.7864
 30
0.0
 10
2.128
 20
-4.7864
 30
0.0
 10
2.128
 20
-4.7864
 30
0.0
 10
2.128
 20
-4.7864
 30
0.0
 10
2.128
 20
-4.7864
 30
0.0
 10
2.128
 20
-4.7864
 30
0.0
 10
2.128
 20
-4.7864
 30
0.0
 10
2.128
 20
-4.7864
 30
0.0
 10
2.128
 20
-4.7864
 30
0.0
 10
3.0148
 20
-4.7864
 30
0.0
 10
3.0148
 20
-4.7864
 30
0.0
  0
ENDSEC
  0
SECTION
  2
OBJECTS
  0
DICTIONARY
  5
C
330
0
100
AcDbDictionary
281
     1
  3
ACAD_GROUP
350
D
  3
ACAD_LAYOUT
350
1A
  3
ACAD_MATERIAL
350
3B
  3
ACAD_MLEADERSTYLE
350
19C
  3
ACAD_MLINESTYLE
350
17
  3
ACAD_PLOTSETTINGS
350
19
  3
ACAD_PLOTSTYLENAME
350
E
  3
ACAD_VISUALSTYLE
350
2A
  3
AcDbVariableDictionary
350
19A
  0
DICTIONARY
  5
D
102
{ACAD_REACTORS
330
C
102
}
330
C
100
AcDbDictionary
281
     1
  0
DICTIONARY
  5
1A
102
{ACAD_REACTORS
330
C
102
}
330
C
100
AcDbDictionary
281
     1
  3
Layout1
350
1E
  3
Layout2
350
26
  3
Model
350
22
  0
DICTIONARY
  5
3B
102
{ACAD_REACTORS
330
C
102
}
330
C
100
AcDbDictionary
281
     1
  3
ByBlock
350
3D
  3
ByLayer
350
3C
  3
Global
350
3E
  0
DICTIONARY
  5
19C
102
{ACAD_REACTORS
330
C
102
}
330
C
100
AcDbDictionary
281
     1
  0
DICTIONARY
  5
17
102
{ACAD_REACTORS
330
C
102
}
330
C
100
AcDbDictionary
281
     1
  3
Standard
350
18
  0
DICTIONARY
  5
19
102
{ACAD_REACTORS
330
C
102
}
330
C
100
AcDbDictionary
281
     1
  0
ACDBDICTIONARYWDFLT
  5
E
102
{ACAD_REACTORS
330
C
102
}
330
C
100
AcDbDictionary
281
     1
  3
Normal
350
F
100
AcDbDictionaryWithDefault
340
F
  0
DICTIONARY
  5
2A
102
{ACAD_REACTORS
330
C
102
}
330
C
100
AcDbDictionary
281
     1
  3
2dWireframe
350
2F
  3
3D Hidden
350
31
  3
3dWireframe
350
30
  3
Basic
350
32
  3
Brighten
350
36
  3
ColorChange
350
3A
  3
Conceptual
350
34
  3
Dim
350
35
  3
Facepattern
350
39
  3
Flat
350
2B
  3
FlatWithEdges
350
2C
  3
Gouraud
350
2D
  3
GouraudWithEdges
350
2E
  3
Linepattern
350
38
  3
Realistic
350
33
  3
Thicken
350
37
  0
DICTIONARY
  5
19A
102
{ACAD_REACTORS
330
C
102
}
330
C
100
AcDbDictionary
281
     1
  3
DIMASSOC
350
19D
  3
HIDETEXT
350
19E
  0
LAYOUT
  5
1E
102
{ACAD_REACTORS
330
1A
102
}
330
1A
100
AcDbPlotSettings
  1

  2
none_device
  4

  6

 40
0.0
 41
0.0
 42
0.0
 43
0.0
 44
0.0
 45
0.0
 46
0.0
 47
0.0
 48
0.0
 49
0.0
140
0.0
141
0.0
142
1.0
143
1.0
 70
   688
 72
     0
 73
     0
 74
     5
  7

 75
    16
147
1.0
148
0.0
149
0.0
100
AcDbLayout
  1
Layout1
 70
     1
 71
     1
 10
0.0
 20
0.0
 11
12.0
 21
9.0
 12
0.0
 22
0.0
 32
0.0
 14
1.000000000000000E+20
 24
1.000000000000000E+20
 34
1.000000000000000E+20
 15
-1.000000000000000E+20
 25
-1.000000000000000E+20
 35
-1.000000000000000E+20
146
0.0
 13
0.0
 23
0.0
 33
0.0
 16
1.0
 26
0.0
 36
0.0
 17
0.0
 27
1.0
 37
0.0
 76
     0
330
1B
  0
LAYOUT
  5
26
102
{ACAD_REACTORS
330
1A
102
}
330
1A
100
AcDbPlotSettings
  1

  2
none_device
  4

  6

 40
0.0
 41
0.0
 42
0.0
 43
0.0
 44
0.0
 45
0.0
 46
0.0
 47
0.0
 48
0.0
 49
0.0
140
0.0
141
0.0
142
1.0
143
1.0
 70
   688
 72
     0
 73
     0
 74
     5
  7

 75
    16
147
1.0
148
0.0
149
0.0
100
AcDbLayout
  1
Layout2
 70
     1
 71
     2
 10
0.0
 20
0.0
 11
0.0
 21
0.0
 12
0.0
 22
0.0
 32
0.0
 14
0.0
 24
0.0
 34
0.0
 15
0.0
 25
0.0
 35
0.0
146
0.0
 13
0.0
 23
0.0
 33
0.0
 16
1.0
 26
0.0
 36
0.0
 17
0.0
 27
1.0
 37
0.0
 76
     0
330
23
  0
LAYOUT
  5
22
102
{ACAD_REACTORS
330
1A
102
}
330
1A
100
AcDbPlotSettings
  1

  2
none_device
  4

  6

 40
0.0
 41
0.0
 42
0.0
 43
0.0
 44
0.0
 45
0.0
 46
0.0
 47
0.0
 48
0.0
 49
0.0
140
0.0
141
0.0
142
1.0
143
1.0
 70
  1712
 72
     0
 73
     0
 74
     0
  7

 75
     0
147
1.0
148
0.0
149
0.0
100
AcDbLayout
  1
Model
 70
     1
 71
     0
 10
0.0
 20
0.0
 11
12.0
 21
9.0
 12
0.0
 22
0.0
 32
0.0
 14
-26.9669
 24
-32.0172
 34
0.0
 15
27.058
 25
31.9369
 35
0.0
146
0.0
 13
0.0
 23
0.0
 33
0.0
 16
1.0
 26
0.0
 36
0.0
 17
0.0
 27
1.0
 37
0.0
 76
     0
330
1F
331
29
  0
MATERIAL
  5
3D
102
{ACAD_REACTORS
330
3B
102
}
102
{ACAD_XDICTIONARY
360
1C1
102
}
330
3B
100
AcDbMaterial
  1
ByBlock
  0
MATERIAL
  5
3C
102
{ACAD_REACTORS
330
3B
102
}
102
{ACAD_XDICTIONARY
360
1BF
102
}
330
3B
100
AcDbMaterial
  1
ByLayer
  0
MATERIAL
  5
3E
102
{ACAD_REACTORS
330
3B
102
}
102
{ACAD_XDICTIONARY
360
1C3
102
}
330
3B
100
AcDbMaterial
  1
Global
  0
MLINESTYLE
  5
18
102
{ACAD_REACTORS
330
17
102
}
330
17
100
AcDbMlineStyle
  2
Standard
 70
     0
  3

 62
   256
 51
90.0
 52
90.0
 71
     2
 49
0.5
 62
   256
  6
BYLAYER
 49
-0.5
 62
   256
  6
BYLAYER
  0
ACDBPLACEHOLDER
  5
F
102
{ACAD_REACTORS
330
E
102
}
330
E
  0
VISUALSTYLE
  5
2F
102
{ACAD_REACTORS
330
2A
102
}
102
{ACAD_XDICTIONARY
360
1A7
102
}
330
2A
100
AcDbVisualStyle
  2
2dWireframe
 70
     4
 71
     0
 72
     2
 73
     0
 90
        0
 40
-0.6
 41
-30.0
 62
     5
 63
     7
 74
     1
 91
        4
 64
     7
 65
   257
 75
     1
175
     1
 42
1.0
 92
        0
 66
   257
 43
1.0
 76
     1
 77
     6
 78
     2
 67
     7
 79
     5
170
     0
171
     0
290
     0
174
     0
 93
        1
 44
0.0
173
     0
291
     0
 45
0.0
1001
ACAD
1000
AcDbSavedByObjectVersion
1070
     0
  0
VISUALSTYLE
  5
31
102
{ACAD_REACTORS
330
2A
102
}
102
{ACAD_XDICTIONARY
360
1AB
102
}
330
2A
100
AcDbVisualStyle
  2
3D Hidden
 70
     6
 71
     1
 72
     2
 73
     2
 90
        0
 40
-0.6
 41
-30.0
 62
     5
 63
     7
 74
     2
 91
        2
 64
     7
 65
   257
 75
     2
175
     1
 42
40.0
 92
        0
 66
   257
 43
1.0
 76
     1
 77
     6
 78
     2
 67
     7
 79
     3
170
     0
171
     0
290
     0
174
     0
 93
        1
 44
0.0
173
     0
291
     0
 45
0.0
1001
ACAD
1000
AcDbSavedByObjectVersion
1070
     0
  0
VISUALSTYLE
  5
30
102
{ACAD_REACTORS
330
2A
102
}
102
{ACAD_XDICTIONARY
360
1A9
102
}
330
2A
100
AcDbVisualStyle
  2
3dWireframe
 70
     5
 71
     0
 72
     2
 73
     0
 90
        0
 40
-0.6
 41
-30.0
 62
     5
 63
     7
 74
     1
 91
        4
 64
     7
 65
   257
 75
     1
175
     1
 42
1.0
 92
        0
 66
   257
 43
1.0
 76
     1
 77
     6
 78
     2
 67
     7
 79
     5
170
     0
171
     0
290
     0
174
     0
 93
        1
 44
0.0
173
     0
291
     0
 45
0.0
1001
ACAD
1000
AcDbSavedByObjectVersion
1070
     0
  0
VISUALSTYLE
  5
32
102
{ACAD_REACTORS
330
2A
102
}
102
{ACAD_XDICTIONARY
360
1AD
102
}
330
2A
100
AcDbVisualStyle
  2
Basic
 70
     7
 71
     1
 72
     0
 73
     1
 90
        0
 40
-0.6
 41
-30.0
 62
     5
 63
     7
 74
     0
 91
        4
 64
     7
 65
   257
 75
     1
175
     1
 42
1.0
 92
        8
 66
     7
 43
1.0
 76
     1
 77
     6
 78
     2
 67
     7
 79
     5
170
     0
171
     0
290
     0
174
     0
 93
        1
 44
0.0
173
     0
291
     1
 45
0.0
1001
ACAD
1000
AcDbSavedByObjectVersion
1070
     0
  0
VISUALSTYLE
  5
36
102
{ACAD_REACTORS
330
2A
102
}
102
{ACAD_XDICTIONARY
360
1B5
102
}
330
2A
100
AcDbVisualStyle
  2
Brighten
 70
    12
 71
     2
 72
     2
 73
     0
 90
        0
 40
-0.6
 41
-30.0
 62
     5
 63
     7
 74
     1
 91
        4
 64
     7
 65
   257
 75
     1
175
     1
 42
1.0
 92
        8
 66
     7
 43
1.0
 76
     1
 77
     6
 78
     2
 67
     7
 79
     5
170
     0
171
     0
290
     0
174
     0
 93
        1
 44
50.0
173
     0
291
     1
 45
0.0
1001
ACAD
1000
AcDbSavedByObjectVersion
1070
     0
  0
VISUALSTYLE
  5
3A
102
{ACAD_REACTORS
330
2A
102
}
102
{ACAD_XDICTIONARY
360
1BD
102
}
330
2A
100
AcDbVisualStyle
  2
ColorChange
 70
    16
 71
     2
 72
     2
 73
     3
 90
        0
 40
-0.6
 41
-30.0
 62
     5
 63
     8
 74
     1
 91
        4
 64
     7
 65
   257
 75
     1
175
     1
 42
1.0
 92
        8
 66
     8
 43
1.0
 76
     1
 77
     6
 78
     2
 67
     7
 79
     5
170
     0
171
     0
290
     0
174
     0
 93
        1
 44
0.0
173
     0
291
     1
 45
0.0
1001
ACAD
1000
AcDbSavedByObjectVersion
1070
     0
  0
VISUALSTYLE
  5
34
102
{ACAD_REACTORS
330
2A
102
}
102
{ACAD_XDICTIONARY
360
1B1
102
}
330
2A
100
AcDbVisualStyle
  2
Conceptual
 70
     9
 71
     3
 72
     2
 73
     0
 90
        0
 40
-0.6
 41
-30.0
 62
     5
 63
     7
 74
     2
 91
        2
 64
     7
 65
   257
 75
     1
175
     1
 42
40.0
 92
        8
 66
     7
 43
1.0
 76
     1
 77
     6
 78
     2
 67
     7
 79
     3
170
     0
171
     0
290
     0
174
     0
 93
        1
 44
0.0
173
     0
291
     0
 45
0.0
1001
ACAD
1000
AcDbSavedByObjectVersion
1070
     0
  0
VISUALSTYLE
  5
35
102
{ACAD_REACTORS
330
2A
102
}
102
{ACAD_XDICTIONARY
360
1B3
102
}
330
2A
100
AcDbVisualStyle
  2
Dim
 70
    11
 71
     2
 72
     2
 73
     0
 90
        0
 40
-0.6
 41
-30.0
 62
     5
 63
     7
 74
     1
 91
        4
 64
     7
 65
   257
 75
     1
175
     1
 42
1.0
 92
        8
 66
     7
 43
1.0
 76
     1
 77
     6
 78
     2
 67
     7
 79
     5
170
     0
171
     0
290
     0
174
     0
 93
        1
 44
-50.0
173
     0
291
     1
 45
0.0
1001
ACAD
1000
AcDbSavedByObjectVersion
1070
     0
  0
VISUALSTYLE
  5
39
102
{ACAD_REACTORS
330
2A
102
}
102
{ACAD_XDICTIONARY
360
1BB
102
}
330
2A
100
AcDbVisualStyle
  2
Facepattern
 70
    15
 71
     2
 72
     2
 73
     0
 90
        0
 40
-0.6
 41
-30.0
 62
     5
 63
     7
 74
     1
 91
        4
 64
     7
 65
   257
 75
     1
175
     1
 42
1.0
 92
        8
 66
     7
 43
1.0
 76
     1
 77
     6
 78
     2
 67
     7
 79
     5
170
     0
171
     0
290
     0
174
     0
 93
        1
 44
0.0
173
     0
291
     1
 45
0.0
1001
ACAD
1000
AcDbSavedByObjectVersion
1070
     0
  0
VISUALSTYLE
  5
2B
102
{ACAD_REACTORS
330
2A
102
}
102
{ACAD_XDICTIONARY
360
19F
102
}
330
2A
100
AcDbVisualStyle
  2
Flat
 70
     0
 71
     2
 72
     1
 73
     1
 90
        2
 40
-0.6
 41
30.0
 62
     5
 63
     7
 74
     0
 91
        4
 64
     7
 65
   257
 75
     1
175
     1
 42
1.0
 92
        8
 66
     7
 43
1.0
 76
     1
 77
     6
 78
     2
 67
     7
 79
     5
170
     0
171
     0
290
     0
174
     0
 93
       13
 44
0.0
173
     0
291
     1
 45
0.0
1001
ACAD
1000
AcDbSavedByObjectVersion
1070
     0
  0
VISUALSTYLE
  5
2C
102
{ACAD_REACTORS
330
2A
102
}
102
{ACAD_XDICTIONARY
360
1A1
102
}
330
2A
100
AcDbVisualStyle
  2
FlatWithEdges
 70
     1
 71
     2
 72
     1
 73
     1
 90
        2
 40
-0.6
 41
30.0
 62
     5
 63
     7
 74
     1
 91
        4
 64
     7
 65
   257
 75
     1
175
     1
 42
1.0
 92
        0
 66
   257
 43
1.0
 76
     1
 77
     6
 78
     2
 67
     7
 79
     5
170
     0
171
     0
290
     0
174
     0
 93
       13
 44
0.0
173
     0
291
     1
 45
0.0
1001
ACAD
1000
AcDbSavedByObjectVersion
1070
     0
  0
VISUALSTYLE
  5
2D
102
{ACAD_REACTORS
330
2A
102
}
102
{ACAD_XDICTIONARY
360
1A3
102
}
330
2A
100
AcDbVisualStyle
  2
Gouraud
 70
     2
 71
     2
 72
     2
 73
     1
 90
        2
 40
-0.6
 41
30.0
 62
     5
 63
     7
 74
     0
 91
        4
 64
     7
 65
   257
 75
     1
175
     1
 42
1.0
 92
        0
 66
     7
 43
1.0
 76
     1
 77
     6
 78
     2
 67
     7
 79
     5
170
     0
171
     0
290
     0
174
     0
 93
       13
 44
0.0
173
     0
291
     1
 45
0.0
1001
ACAD
1000
AcDbSavedByObjectVersion
1070
     0
  0
VISUALSTYLE
  5
2E
102
{ACAD_REACTORS
330
2A
102
}
102
{ACAD_XDICTIONARY
360
1A5
102
}
330
2A
100
AcDbVisualStyle
  2
GouraudWithEdges
 70
     3
 71
     2
 72
     2
 73
     1
 90
        2
 40
-0.6
 41
30.0
 62
     5
 63
     7
 74
     1
 91
        4
 64
     7
 65
   257
 75
     1
175
     1
 42
1.0
 92
        0
 66
   257
 43
1.0
 76
     1
 77
     6
 78
     2
 67
     7
 79
     5
170
     0
171
     0
290
     0
174
     0
 93
       13
 44
0.0
173
     0
291
     1
 45
0.0
1001
ACAD
1000
AcDbSavedByObjectVersion
1070
     0
  0
VISUALSTYLE
  5
38
102
{ACAD_REACTORS
330
2A
102
}
102
{ACAD_XDICTIONARY
360
1B9
102
}
330
2A
100
AcDbVisualStyle
  2
Linepattern
 70
    14
 71
     2
 72
     2
 73
     0
 90
        0
 40
-0.6
 41
-30.0
 62
     5
 63
     7
 74
     1
 91
        4
 64
     7
 65
   257
 75
     7
175
     7
 42
1.0
 92
        8
 66
     7
 43
1.0
 76
     1
 77
     6
 78
     2
 67
     7
 79
     5
170
     0
171
     0
290
     0
174
     0
 93
        1
 44
0.0
173
     0
291
     1
 45
0.0
1001
ACAD
1000
AcDbSavedByObjectVersion
1070
     0
  0
VISUALSTYLE
  5
33
102
{ACAD_REACTORS
330
2A
102
}
102
{ACAD_XDICTIONARY
360
1AF
102
}
330
2A
100
AcDbVisualStyle
  2
Realistic
 70
     8
 71
     2
 72
     2
 73
     0
 90
        0
 40
-0.6
 41
-30.0
 62
     5
 63
     7
 74
     1
 91
        0
 64
     7
 65
   257
 75
     1
175
     1
 42
1.0
 92
        8
 66
     8
 43
1.0
 76
     1
 77
     6
 78
     2
 67
     7
 79
     5
170
     0
171
     0
290
     0
174
     0
 93
       13
 44
0.0
173
     0
291
     0
 45
0.0
1001
ACAD
1000
AcDbSavedByObjectVersion
1070
     0
  0
VISUALSTYLE
  5
37
102
{ACAD_REACTORS
330
2A
102
}
102
{ACAD_XDICTIONARY
360
1B7
102
}
330
2A
100
AcDbVisualStyle
  2
Thicken
 70
    13
 71
     2
 72
     2
 73
     0
 90
        0
 40
-0.6
 41
-30.0
 62
     5
 63
     7
 74
     1
 91
        4
 64
     7
 65
   257
 75
     1
175
     1
 42
1.0
 92
       12
 66
     7
 43
1.0
 76
     1
 77
     6
 78
     2
 67
     7
 79
     5
170
     0
171
     0
290
     0
174
     0
 93
        1
 44
0.0
173
     0
291
     1
 45
0.0
1001
ACAD
1000
AcDbSavedByObjectVersion
1070
     0
  0
DICTIONARYVAR
  5
19D
102
{ACAD_REACTORS
330
19A
102
}
330
19A
100
DictionaryVariables
280
     0
  1
2
  0
DICTIONARYVAR
  5
19E
102
{ACAD_REACTORS
330
19A
102
}
330
19A
100
DictionaryVariables
280
     0
  1
1
  0
DICTIONARY
  5
1C1
330
3D
100
AcDbDictionary
280
     1
281
     1
  3
ACAD_XREC_ROUNDTRIP
360
1C2
  0
DICTIONARY
  5
1BF
330
3C
100
AcDbDictionary
280
     1
281
     1
  3
ACAD_XREC_ROUNDTRIP
360
1C0
  0
DICTIONARY
  5
1C3
330
3E
100
AcDbDictionary
280
     1
281
     1
  3
ACAD_XREC_ROUNDTRIP
360
1C4
  0
DICTIONARY
  5
1A7
330
2F
100
AcDbDictionary
280
     1
281
     1
  3
ACAD_XREC_ROUNDTRIP
360
1A8
  0
DICTIONARY
  5
1AB
330
31
100
AcDbDictionary
280
     1
281
     1
  3
ACAD_XREC_ROUNDTRIP
360
1AC
  0
DICTIONARY
  5
1A9
330
30
100
AcDbDictionary
280
     1
281
     1
  3
ACAD_XREC_ROUNDTRIP
360
1AA
  0
DICTIONARY
  5
1AD
330
32
100
AcDbDictionary
280
     1
281
     1
  3
ACAD_XREC_ROUNDTRIP
360
1AE
  0
DICTIONARY
  5
1B5
330
36
100
AcDbDictionary
280
     1
281
     1
  3
ACAD_XREC_ROUNDTRIP
360
1B6
  0
DICTIONARY
  5
1BD
330
3A
100
AcDbDictionary
280
     1
281
     1
  3
ACAD_XREC_ROUNDTRIP
360
1BE
  0
DICTIONARY
  5
1B1
330
34
100
AcDbDictionary
280
     1
281
     1
  3
ACAD_XREC_ROUNDTRIP
360
1B2
  0
DICTIONARY
  5
1B3
330
35
100
AcDbDictionary
280
     1
281
     1
  3
ACAD_XREC_ROUNDTRIP
360
1B4
  0
DICTIONARY
  5
1BB
330
39
100
AcDbDictionary
280
     1
281
     1
  3
ACAD_XREC_ROUNDTRIP
360
1BC
  0
DICTIONARY
  5
19F
330
2B
100
AcDbDictionary
280
     1
281
     1
  3
ACAD_XREC_ROUNDTRIP
360
1A0
  0
DICTIONARY
  5
1A1
330
2C
100
AcDbDictionary
280
     1
281
     1
  3
ACAD_XREC_ROUNDTRIP
360
1A2
  0
DICTIONARY
  5
1A3
330
2D
100
AcDbDictionary
280
     1
281
     1
  3
ACAD_XREC_ROUNDTRIP
360
1A4
  0
DICTIONARY
  5
1A5
330
2E
100
AcDbDictionary
280
     1
281
     1
  3
ACAD_XREC_ROUNDTRIP
360
1A6
  0
DICTIONARY
  5
1B9
330
38
100
AcDbDictionary
280
     1
281
     1
  3
ACAD_XREC_ROUNDTRIP
360
1BA
  0
DICTIONARY
  5
1AF
330
33
100
AcDbDictionary
280
     1
281
     1
  3
ACAD_XREC_ROUNDTRIP
360
1B0
  0
DICTIONARY
  5
1B7
330
37
100
AcDbDictionary
280
     1
281
     1
  3
ACAD_XREC_ROUNDTRIP
360
1B8
  0
XRECORD
  5
1C2
102
{ACAD_REACTORS
330
1C1
102
}
330
1C1
100
AcDbXrecord
280
     1
102
MATERIAL
148
0.0
149
0.0
149
0.0
 93
        0
 94
      127
282
     0
 72
     1
 77
     1
171
     1
175
     1
179
     1
273
     0
  0
XRECORD
  5
1C0
102
{ACAD_REACTORS
330
1BF
102
}
330
1BF
100
AcDbXrecord
280
     1
102
MATERIAL
148
0.0
149
0.0
149
0.0
 93
        0
 94
      127
282
     0
 72
     1
 77
     1
171
     1
175
     1
179
     1
273
     0
  0
XRECORD
  5
1C4
102
{ACAD_REACTORS
330
1C3
102
}
330
1C3
100
AcDbXrecord
280
     1
102
MATERIAL
148
0.0
149
0.0
149
0.0
 93
        0
 94
      127
282
     0
 72
     1
 77
     1
171
     1
175
     1
179
     1
273
     0
  0
XRECORD
  5
1A8
102
{ACAD_REACTORS
330
1A7
102
}
330
1A7
100
AcDbXrecord
280
     1
102
RTVSPropertyOp0
 70
     1
102
RTVSPropertyOp1
 70
     1
102
RTVSPropertyOp2
 70
     1
102
RTVSPropertyOp3
 70
     1
102
RTVSPropertyOp4
 70
     1
102
RTVSPropertyOp5
 70
     1
102
RTVSPropertyOp6
 70
     1
102
RTVSPropertyOp7
 70
     1
102
RTVSPropertyOp8
 70
     1
102
RTVSPropertyOp9
 70
     1
102
RTVSPropertyOp10
 70
     1
102
RTVSPropertyOp11
 70
     1
102
RTVSPropertyOp12
 70
     1
102
RTVSPropertyOp13
 70
     1
102
RTVSPropertyOp14
 70
     1
102
RTVSPropertyOp15
 70
     1
102
RTVSPropertyOp16
 70
     1
102
RTVSPropertyOp17
 70
     1
102
RTVSPropertyOp18
 70
     1
102
RTVSPropertyOp19
 70
     1
102
RTVSPropertyOp20
 70
     1
102
RTVSPropertyOp21
 70
     1
102
RTVSPropertyOp22
 70
     1
102
RTVSPropertyOp23
 70
     1
102
RTVSPropertyOp24
 70
     1
102
RTVSPropertyOp25
 70
     1
102
RTVSPropertyOp26
 70
     1
102
RTVSPropertyOp27
 70
     1
  0
XRECORD
  5
1AC
102
{ACAD_REACTORS
330
1AB
102
}
330
1AB
100
AcDbXrecord
280
     1
102
RTVSPropertyOp0
 70
     1
102
RTVSPropertyOp1
 70
     1
102
RTVSPropertyOp2
 70
     1
102
RTVSPropertyOp3
 70
     1
102
RTVSPropertyOp4
 70
     1
102
RTVSPropertyOp5
 70
     1
102
RTVSPropertyOp6
 70
     1
102
RTVSPropertyOp7
 70
     1
102
RTVSPropertyOp8
 70
     1
102
RTVSPropertyOp9
 70
     1
102
RTVSPropertyOp10
 70
     1
102
RTVSPropertyOp11
 70
     1
102
RTVSPropertyOp12
 70
     1
102
RTVSPropertyOp13
 70
     1
102
RTVSPropertyOp14
 70
     1
102
RTVSPropertyOp15
 70
     1
102
RTVSPropertyOp16
 70
     1
102
RTVSPropertyOp17
 70
     1
102
RTVSPropertyOp18
 70
     1
102
RTVSPropertyOp19
 70
     1
102
RTVSPropertyOp20
 70
     1
102
RTVSPropertyOp21
 70
     1
102
RTVSPropertyOp22
 70
     1
102
RTVSPropertyOp23
 70
     1
102
RTVSPropertyOp24
 70
     1
102
RTVSPropertyOp25
 70
     1
102
RTVSPropertyOp26
 70
     1
102
RTVSPropertyOp27
 70
     1
  0
XRECORD
  5
1AA
102
{ACAD_REACTORS
330
1A9
102
}
330
1A9
100
AcDbXrecord
280
     1
102
RTVSPropertyOp0
 70
     1
102
RTVSPropertyOp1
 70
     1
102
RTVSPropertyOp2
 70
     1
102
RTVSPropertyOp3
 70
     1
102
RTVSPropertyOp4
 70
     1
102
RTVSPropertyOp5
 70
     1
102
RTVSPropertyOp6
 70
     1
102
RTVSPropertyOp7
 70
     1
102
RTVSPropertyOp8
 70
     1
102
RTVSPropertyOp9
 70
     1
102
RTVSPropertyOp10
 70
     1
102
RTVSPropertyOp11
 70
     1
102
RTVSPropertyOp12
 70
     1
102
RTVSPropertyOp13
 70
     1
102
RTVSPropertyOp14
 70
     1
102
RTVSPropertyOp15
 70
     1
102
RTVSPropertyOp16
 70
     1
102
RTVSPropertyOp17
 70
     1
102
RTVSPropertyOp18
 70
     1
102
RTVSPropertyOp19
 70
     1
102
RTVSPropertyOp20
 70
     1
102
RTVSPropertyOp21
 70
     1
102
RTVSPropertyOp22
 70
     1
102
RTVSPropertyOp23
 70
     1
102
RTVSPropertyOp24
 70
     1
102
RTVSPropertyOp25
 70
     1
102
RTVSPropertyOp26
 70
     1
102
RTVSPropertyOp27
 70
     1
  0
XRECORD
  5
1AE
102
{ACAD_REACTORS
330
1AD
102
}
330
1AD
100
AcDbXrecord
280
     1
102
RTVSPropertyOp0
 70
     1
102
RTVSPropertyOp1
 70
     1
102
RTVSPropertyOp2
 70
     1
102
RTVSPropertyOp3
 70
     1
102
RTVSPropertyOp4
 70
     1
102
RTVSPropertyOp5
 70
     1
102
RTVSPropertyOp6
 70
     1
102
RTVSPropertyOp7
 70
     1
102
RTVSPropertyOp8
 70
     1
102
RTVSPropertyOp9
 70
     1
102
RTVSPropertyOp10
 70
     1
102
RTVSPropertyOp11
 70
     1
102
RTVSPropertyOp12
 70
     1
102
RTVSPropertyOp13
 70
     1
102
RTVSPropertyOp14
 70
     1
102
RTVSPropertyOp15
 70
     1
102
RTVSPropertyOp16
 70
     1
102
RTVSPropertyOp17
 70
     1
102
RTVSPropertyOp18
 70
     1
102
RTVSPropertyOp19
 70
     1
102
RTVSPropertyOp20
 70
     1
102
RTVSPropertyOp21
 70
     1
102
RTVSPropertyOp22
 70
     1
102
RTVSPropertyOp23
 70
     1
102
RTVSPropertyOp24
 70
     1
102
RTVSPropertyOp25
 70
     1
102
RTVSPropertyOp26
 70
     1
102
RTVSPropertyOp27
 70
     1
  0
XRECORD
  5
1B6
102
{ACAD_REACTORS
330
1B5
102
}
330
1B5
100
AcDbXrecord
280
     1
102
RTVSPropertyOp0
 70
     1
102
RTVSPropertyOp1
 70
     1
102
RTVSPropertyOp2
 70
     1
102
RTVSPropertyOp3
 70
     1
102
RTVSPropertyOp4
 70
     1
102
RTVSPropertyOp5
 70
     1
102
RTVSPropertyOp6
 70
     1
102
RTVSPropertyOp7
 70
     1
102
RTVSPropertyOp8
 70
     1
102
RTVSPropertyOp9
 70
     1
102
RTVSPropertyOp10
 70
     1
102
RTVSPropertyOp11
 70
     1
102
RTVSPropertyOp12
 70
     1
102
RTVSPropertyOp13
 70
     1
102
RTVSPropertyOp14
 70
     1
102
RTVSPropertyOp15
 70
     1
102
RTVSPropertyOp16
 70
     1
102
RTVSPropertyOp17
 70
     1
102
RTVSPropertyOp18
 70
     1
102
RTVSPropertyOp19
 70
     1
102
RTVSPropertyOp20
 70
     1
102
RTVSPropertyOp21
 70
     1
102
RTVSPropertyOp22
 70
     1
102
RTVSPropertyOp23
 70
     1
102
RTVSPropertyOp24
 70
     1
102
RTVSPropertyOp25
 70
     1
102
RTVSPropertyOp26
 70
     1
102
RTVSPropertyOp27
 70
     1
  0
XRECORD
  5
1BE
102
{ACAD_REACTORS
330
1BD
102
}
330
1BD
100
AcDbXrecord
280
     1
102
RTVSPropertyOp0
 70
     1
102
RTVSPropertyOp1
 70
     1
102
RTVSPropertyOp2
 70
     1
102
RTVSPropertyOp3
 70
     1
102
RTVSPropertyOp4
 70
     1
102
RTVSPropertyOp5
 70
     1
102
RTVSPropertyOp6
 70
     1
102
RTVSPropertyOp7
 70
     1
102
RTVSPropertyOp8
 70
     1
102
RTVSPropertyOp9
 70
     1
102
RTVSPropertyOp10
 70
     1
102
RTVSPropertyOp11
 70
     1
102
RTVSPropertyOp12
 70
     1
102
RTVSPropertyOp13
 70
     1
102
RTVSPropertyOp14
 70
     1
102
RTVSPropertyOp15
 70
     1
102
RTVSPropertyOp16
 70
     1
102
RTVSPropertyOp17
 70
     1
102
RTVSPropertyOp18
 70
     1
102
RTVSPropertyOp19
 70
     1
102
RTVSPropertyOp20
 70
     1
102
RTVSPropertyOp21
 70
     1
102
RTVSPropertyOp22
 70
     1
102
RTVSPropertyOp23
 70
     1
102
RTVSPropertyOp24
 70
     1
102
RTVSPropertyOp25
 70
     1
102
RTVSPropertyOp26
 70
     1
102
RTVSPropertyOp27
 70
     1
  0
XRECORD
  5
1B2
102
{ACAD_REACTORS
330
1B1
102
}
330
1B1
100
AcDbXrecord
280
     1
102
RTVSPropertyOp0
 70
     1
102
RTVSPropertyOp1
 70
     1
102
RTVSPropertyOp2
 70
     1
102
RTVSPropertyOp3
 70
     1
102
RTVSPropertyOp4
 70
     1
102
RTVSPropertyOp5
 70
     1
102
RTVSPropertyOp6
 70
     1
102
RTVSPropertyOp7
 70
     1
102
RTVSPropertyOp8
 70
     1
102
RTVSPropertyOp9
 70
     1
102
RTVSPropertyOp10
 70
     1
102
RTVSPropertyOp11
 70
     1
102
RTVSPropertyOp12
 70
     1
102
RTVSPropertyOp13
 70
     1
102
RTVSPropertyOp14
 70
     1
102
RTVSPropertyOp15
 70
     1
102
RTVSPropertyOp16
 70
     1
102
RTVSPropertyOp17
 70
     1
102
RTVSPropertyOp18
 70
     1
102
RTVSPropertyOp19
 70
     1
102
RTVSPropertyOp20
 70
     1
102
RTVSPropertyOp21
 70
     1
102
RTVSPropertyOp22
 70
     1
102
RTVSPropertyOp23
 70
     1
102
RTVSPropertyOp24
 70
     1
102
RTVSPropertyOp25
 70
     1
102
RTVSPropertyOp26
 70
     1
102
RTVSPropertyOp27
 70
     1
  0
XRECORD
  5
1B4
102
{ACAD_REACTORS
330
1B3
102
}
330
1B3
100
AcDbXrecord
280
     1
102
RTVSPropertyOp0
 70
     1
102
RTVSPropertyOp1
 70
     1
102
RTVSPropertyOp2
 70
     1
102
RTVSPropertyOp3
 70
     1
102
RTVSPropertyOp4
 70
     1
102
RTVSPropertyOp5
 70
     1
102
RTVSPropertyOp6
 70
     1
102
RTVSPropertyOp7
 70
     1
102
RTVSPropertyOp8
 70
     1
102
RTVSPropertyOp9
 70
     1
102
RTVSPropertyOp10
 70
     1
102
RTVSPropertyOp11
 70
     1
102
RTVSPropertyOp12
 70
     1
102
RTVSPropertyOp13
 70
     1
102
RTVSPropertyOp14
 70
     1
102
RTVSPropertyOp15
 70
     1
102
RTVSPropertyOp16
 70
     1
102
RTVSPropertyOp17
 70
     1
102
RTVSPropertyOp18
 70
     1
102
RTVSPropertyOp19
 70
     1
102
RTVSPropertyOp20
 70
     1
102
RTVSPropertyOp21
 70
     1
102
RTVSPropertyOp22
 70
     1
102
RTVSPropertyOp23
 70
     1
102
RTVSPropertyOp24
 70
     1
102
RTVSPropertyOp25
 70
     1
102
RTVSPropertyOp26
 70
     1
102
RTVSPropertyOp27
 70
     1
  0
XRECORD
  5
1BC
102
{ACAD_REACTORS
330
1BB
102
}
330
1BB
100
AcDbXrecord
280
     1
102
RTVSPropertyOp0
 70
     1
102
RTVSPropertyOp1
 70
     1
102
RTVSPropertyOp2
 70
     1
102
RTVSPropertyOp3
 70
     1
102
RTVSPropertyOp4
 70
     1
102
RTVSPropertyOp5
 70
     1
102
RTVSPropertyOp6
 70
     1
102
RTVSPropertyOp7
 70
     1
102
RTVSPropertyOp8
 70
     1
102
RTVSPropertyOp9
 70
     1
102
RTVSPropertyOp10
 70
     1
102
RTVSPropertyOp11
 70
     1
102
RTVSPropertyOp12
 70
     1
102
RTVSPropertyOp13
 70
     1
102
RTVSPropertyOp14
 70
     1
102
RTVSPropertyOp15
 70
     1
102
RTVSPropertyOp16
 70
     1
102
RTVSPropertyOp17
 70
     1
102
RTVSPropertyOp18
 70
     1
102
RTVSPropertyOp19
 70
     1
102
RTVSPropertyOp20
 70
     1
102
RTVSPropertyOp21
 70
     1
102
RTVSPropertyOp22
 70
     1
102
RTVSPropertyOp23
 70
     1
102
RTVSPropertyOp24
 70
     1
102
RTVSPropertyOp25
 70
     1
102
RTVSPropertyOp26
 70
     1
102
RTVSPropertyOp27
 70
     1
  0
XRECORD
  5
1A0
102
{ACAD_REACTORS
330
19F
102
}
330
19F
100
AcDbXrecord
280
     1
102
RTVSPropertyOp0
 70
     1
102
RTVSPropertyOp1
 70
     1
102
RTVSPropertyOp2
 70
     1
102
RTVSPropertyOp3
 70
     1
102
RTVSPropertyOp4
 70
     1
102
RTVSPropertyOp5
 70
     1
102
RTVSPropertyOp6
 70
     1
102
RTVSPropertyOp7
 70
     1
102
RTVSPropertyOp8
 70
     1
102
RTVSPropertyOp9
 70
     1
102
RTVSPropertyOp10
 70
     1
102
RTVSPropertyOp11
 70
     1
102
RTVSPropertyOp12
 70
     1
102
RTVSPropertyOp13
 70
     1
102
RTVSPropertyOp14
 70
     1
102
RTVSPropertyOp15
 70
     1
102
RTVSPropertyOp16
 70
     1
102
RTVSPropertyOp17
 70
     1
102
RTVSPropertyOp18
 70
     1
102
RTVSPropertyOp19
 70
     1
102
RTVSPropertyOp20
 70
     1
102
RTVSPropertyOp21
 70
     1
102
RTVSPropertyOp22
 70
     1
102
RTVSPropertyOp23
 70
     1
102
RTVSPropertyOp24
 70
     1
102
RTVSPropertyOp25
 70
     1
102
RTVSPropertyOp26
 70
     1
102
RTVSPropertyOp27
 70
     1
  0
XRECORD
  5
1A2
102
{ACAD_REACTORS
330
1A1
102
}
330
1A1
100
AcDbXrecord
280
     1
102
RTVSPropertyOp0
 70
     1
102
RTVSPropertyOp1
 70
     1
102
RTVSPropertyOp2
 70
     1
102
RTVSPropertyOp3
 70
     1
102
RTVSPropertyOp4
 70
     1
102
RTVSPropertyOp5
 70
     1
102
RTVSPropertyOp6
 70
     1
102
RTVSPropertyOp7
 70
     1
102
RTVSPropertyOp8
 70
     1
102
RTVSPropertyOp9
 70
     1
102
RTVSPropertyOp10
 70
     1
102
RTVSPropertyOp11
 70
     1
102
RTVSPropertyOp12
 70
     1
102
RTVSPropertyOp13
 70
     1
102
RTVSPropertyOp14
 70
     1
102
RTVSPropertyOp15
 70
     1
102
RTVSPropertyOp16
 70
     1
102
RTVSPropertyOp17
 70
     1
102
RTVSPropertyOp18
 70
     1
102
RTVSPropertyOp19
 70
     1
102
RTVSPropertyOp20
 70
     1
102
RTVSPropertyOp21
 70
     1
102
RTVSPropertyOp22
 70
     1
102
RTVSPropertyOp23
 70
     1
102
RTVSPropertyOp24
 70
     1
102
RTVSPropertyOp25
 70
     1
102
RTVSPropertyOp26
 70
     1
102
RTVSPropertyOp27
 70
     1
  0
XRECORD
  5
1A4
102
{ACAD_REACTORS
330
1A3
102
}
330
1A3
100
AcDbXrecord
280
     1
102
RTVSPropertyOp0
 70
     1
102
RTVSPropertyOp1
 70
     1
102
RTVSPropertyOp2
 70
     1
102
RTVSPropertyOp3
 70
     1
102
RTVSPropertyOp4
 70
     1
102
RTVSPropertyOp5
 70
     1
102
RTVSPropertyOp6
 70
     1
102
RTVSPropertyOp7
 70
     1
102
RTVSPropertyOp8
 70
     1
102
RTVSPropertyOp9
 70
     1
102
RTVSPropertyOp10
 70
     1
102
RTVSPropertyOp11
 70
     1
102
RTVSPropertyOp12
 70
     1
102
RTVSPropertyOp13
 70
     1
102
RTVSPropertyOp14
 70
     1
102
RTVSPropertyOp15
 70
     1
102
RTVSPropertyOp16
 70
     1
102
RTVSPropertyOp17
 70
     1
102
RTVSPropertyOp18
 70
     1
102
RTVSPropertyOp19
 70
     1
102
RTVSPropertyOp20
 70
     1
102
RTVSPropertyOp21
 70
     1
102
RTVSPropertyOp22
 70
     1
102
RTVSPropertyOp23
 70
     1
102
RTVSPropertyOp24
 70
     1
102
RTVSPropertyOp25
 70
     1
102
RTVSPropertyOp26
 70
     1
102
RTVSPropertyOp27
 70
     1
  0
XRECORD
  5
1A6
102
{ACAD_REACTORS
330
1A5
102
}
330
1A5
100
AcDbXrecord
280
     1
102
RTVSPropertyOp0
 70
     1
102
RTVSPropertyOp1
 70
     1
102
RTVSPropertyOp2
 70
     1
102
RTVSPropertyOp3
 70
     1
102
RTVSPropertyOp4
 70
     1
102
RTVSPropertyOp5
 70
     1
102
RTVSPropertyOp6
 70
     1
102
RTVSPropertyOp7
 70
     1
102
RTVSPropertyOp8
 70
     1
102
RTVSPropertyOp9
 70
     1
102
RTVSPropertyOp10
 70
     1
102
RTVSPropertyOp11
 70
     1
102
RTVSPropertyOp12
 70
     1
102
RTVSPropertyOp13
 70
     1
102
RTVSPropertyOp14
 70
     1
102
RTVSPropertyOp15
 70
     1
102
RTVSPropertyOp16
 70
     1
102
RTVSPropertyOp17
 70
     1
102
RTVSPropertyOp18
 70
     1
102
RTVSPropertyOp19
 70
     1
102
RTVSPropertyOp20
 70
     1
102
RTVSPropertyOp21
 70
     1
102
RTVSPropertyOp22
 70
     1
102
RTVSPropertyOp23
 70
     1
102
RTVSPropertyOp24
 70
     1
102
RTVSPropertyOp25
 70
     1
102
RTVSPropertyOp26
 70
     1
102
RTVSPropertyOp27
 70
     1
  0
XRECORD
  5
1BA
102
{ACAD_REACTORS
330
1B9
102
}
330
1B9
100
AcDbXrecord
280
     1
102
RTVSPropertyOp0
 70
     1
102
RTVSPropertyOp1
 70
     1
102
RTVSPropertyOp2
 70
     1
102
RTVSPropertyOp3
 70
     1
102
RTVSPropertyOp4
 70
     1
102
RTVSPropertyOp5
 70
     1
102
RTVSPropertyOp6
 70
     1
102
RTVSPropertyOp7
 70
     1
102
RTVSPropertyOp8
 70
     1
102
RTVSPropertyOp9
 70
     1
102
RTVSPropertyOp10
 70
     1
102
RTVSPropertyOp11
 70
     1
102
RTVSPropertyOp12
 70
     1
102
RTVSPropertyOp13
 70
     1
102
RTVSPropertyOp14
 70
     1
102
RTVSPropertyOp15
 70
     1
102
RTVSPropertyOp16
 70
     1
102
RTVSPropertyOp17
 70
     1
102
RTVSPropertyOp18
 70
     1
102
RTVSPropertyOp19
 70
     1
102
RTVSPropertyOp20
 70
     1
102
RTVSPropertyOp21
 70
     1
102
RTVSPropertyOp22
 70
     1
102
RTVSPropertyOp23
 70
     1
102
RTVSPropertyOp24
 70
     1
102
RTVSPropertyOp25
 70
     1
102
RTVSPropertyOp26
 70
     1
102
RTVSPropertyOp27
 70
     1
  0
XRECORD
  5
1B0
102
{ACAD_REACTORS
330
1AF
102
}
330
1AF
100
AcDbXrecord
280
     1
102
RTVSPropertyOp0
 70
     1
102
RTVSPropertyOp1
 70
     1
102
RTVSPropertyOp2
 70
     1
102
RTVSPropertyOp3
 70
     1
102
RTVSPropertyOp4
 70
     1
102
RTVSPropertyOp5
 70
     1
102
RTVSPropertyOp6
 70
     1
102
RTVSPropertyOp7
 70
     1
102
RTVSPropertyOp8
 70
     1
102
RTVSPropertyOp9
 70
     1
102
RTVSPropertyOp10
 70
     1
102
RTVSPropertyOp11
 70
     1
102
RTVSPropertyOp12
 70
     1
102
RTVSPropertyOp13
 70
     1
102
RTVSPropertyOp14
 70
     1
102
RTVSPropertyOp15
 70
     1
102
RTVSPropertyOp16
 70
     1
102
RTVSPropertyOp17
 70
     1
102
RTVSPropertyOp18
 70
     1
102
RTVSPropertyOp19
 70
     1
102
RTVSPropertyOp20
 70
     1
102
RTVSPropertyOp21
 70
     1
102
RTVSPropertyOp22
 70
     1
102
RTVSPropertyOp23
 70
     1
102
RTVSPropertyOp24
 70
     1
102
RTVSPropertyOp25
 70
     1
102
RTVSPropertyOp26
 70
     1
102
RTVSPropertyOp27
 70
     1
  0
XRECORD
  5
1B8
102
{ACAD_REACTORS
330
1B7
102
}
330
1B7
100
AcDbXrecord
280
     1
102
RTVSPropertyOp0
 70
     1
102
RTVSPropertyOp1
 70
     1
102
RTVSPropertyOp2
 70
     1
102
RTVSPropertyOp3
 70
     1
102
RTVSPropertyOp4
 70
     1
102
RTVSPropertyOp5
 70
     1
102
RTVSPropertyOp6
 70
     1
102
RTVSPropertyOp7
 70
     1
102
RTVSPropertyOp8
 70
     1
102
RTVSPropertyOp9
 70
     1
102
RTVSPropertyOp10
 70
     1
102
RTVSPropertyOp11
 70
     1
102
RTVSPropertyOp12
 70
     1
102
RTVSPropertyOp13
 70
     1
102
RTVSPropertyOp14
 70
     1
102
RTVSPropertyOp15
 70
     1
102
RTVSPropertyOp16
 70
     1
102
RTVSPropertyOp17
 70
     1
102
RTVSPropertyOp18
 70
     1
102
RTVSPropertyOp19
 70
     1
102
RTVSPropertyOp20
 70
     1
102
RTVSPropertyOp21
 70
     1
102
RTVSPropertyOp22
 70
     1
102
RTVSPropertyOp23
 70
     1
102
RTVSPropertyOp24
 70
     1
102
RTVSPropertyOp25
 70
     1
102
RTVSPropertyOp26
 70
     1
102
RTVSPropertyOp27
 70
     1
  0
ENDSEC
  0
EOF
