  0
SECTION
  2
HEADER
  9
$ACADVER
  1
AC1014
  9
$ACADMAINTVER
 70
     9
  9
$DWGCODEPAGE
  3
ANSI_1250
  9
$INSBASE
 10
0.0
 20
0.0
 30
0.0
  9
$EXTMIN
 10
-34.4079
 20
-24.9833
 30
0.0
  9
$EXTMAX
 10
34.4079
 20
24.8424
 30
0.0
  9
$LIMMIN
 10
0.0
 20
0.0
  9
$LIMMAX
 10
12.0
 20
9.0
  9
$ORTHOMODE
 70
     0
  9
$REGENMODE
 70
     1
  9
$FILLMODE
 70
     1
  9
$QTEXTMODE
 70
     0
  9
$MIRRTEXT
 70
     1
  9
$DRAGMODE
 70
     2
  9
$LTSCALE
 40
1.0
  9
$OSMODE
 70
    37
  9
$ATTMODE
 70
     1
  9
$TEXTSIZE
 40
0.2
  9
$TRACEWID
 40
0.05
  9
$TEXTSTYLE
  7
STANDARD
  9
$CLAYER
  8
0
  9
$CELTYPE
  6
BYLAYER
  9
$CECOLOR
 62
   256
  9
$CELTSCALE
 40
1.0
  9
$DELOBJ
 70
     1
  9
$DISPSILH
 70
     0
  9
$DIMSCALE
 40
1.0
  9
$DIMASZ
 40
0.18
  9
$DIMEXO
 40
0.0625
  9
$DIMDLI
 40
0.38
  9
$DIMRND
 40
0.0
  9
$DIMDLE
 40
0.0
  9
$DIMEXE
 40
0.18
  9
$DIMTP
 40
0.0
  9
$DIMTM
 40
0.0
  9
$DIMTXT
 40
0.18
  9
$DIMCEN
 40
0.09
  9
$DIMTSZ
 40
0.0
  9
$DIMTOL
 70
     0
  9
$DIMLIM
 70
     0
  9
$DIMTIH
 70
     1
  9
$DIMTOH
 70
     1
  9
$DIMSE1
 70
     0
  9
$DIMSE2
 70
     0
  9
$DIMTAD
 70
     0
  9
$DIMZIN
 70
     0
  9
$DIMBLK
  1

  9
$DIMASO
 70
     1
  9
$DIMSHO
 70
     1
  9
$DIMPOST
  1

  9
$DIMAPOST
  1

  9
$DIMALT
 70
     0
  9
$DIMALTD
 70
     2
  9
$DIMALTF
 40
25.4
  9
$DIMLFAC
 40
1.0
  9
$DIMTOFL
 70
     0
  9
$DIMTVP
 40
0.0
  9
$DIMTIX
 70
     0
  9
$DIMSOXD
 70
     0
  9
$DIMSAH
 70
     0
  9
$DIMBLK1
  1

  9
$DIMBLK2
  1

  9
$DIMSTYLE
  2
STANDARD
  9
$DIMCLRD
 70
     0
  9
$DIMCLRE
 70
     0
  9
$DIMCLRT
 70
     0
  9
$DIMTFAC
 40
1.0
  9
$DIMGAP
 40
0.09
  9
$DIMJUST
 70
     0
  9
$DIMSD1
 70
     0
  9
$DIMSD2
 70
     0
  9
$DIMTOLJ
 70
     1
  9
$DIMTZIN
 70
     0
  9
$DIMALTZ
 70
     0
  9
$DIMALTTZ
 70
     0
  9
$DIMFIT
 70
     3
  9
$DIMUPT
 70
     0
  9
$DIMUNIT
 70
     2
  9
$DIMDEC
 70
     4
  9
$DIMTDEC
 70
     4
  9
$DIMALTU
 70
     2
  9
$DIMALTTD
 70
     2
  9
$DIMTXSTY
  7
STANDARD
  9
$DIMAUNIT
 70
     0
  9
$LUNITS
 70
     2
  9
$LUPREC
 70
     4
  9
$SKETCHINC
 40
0.1
  9
$FILLETRAD
 40
0.5
  9
$AUNITS
 70
     0
  9
$AUPREC
 70
     0
  9
$MENU
  1
.
  9
$ELEVATION
 40
0.0
  9
$PELEVATION
 40
0.0
  9
$THICKNESS
 40
0.0
  9
$LIMCHECK
 70
     0
  9
$CHAMFERA
 40
0.5
  9
$CHAMFERB
 40
0.5
  9
$CHAMFERC
 40
1.0
  9
$CHAMFERD
 40
0.0
  9
$SKPOLY
 70
     0
  9
$TDCREATE
 40
2456268.597914479
  9
$TDUPDATE
 40
2456268.597914491
  9
$TDINDWG
 40
0.0000000116
  9
$TDUSRTIMER
 40
0.0000000116
  9
$USRTIMER
 70
     1
  9
$ANGBASE
 50
0.0
  9
$ANGDIR
 70
     0
  9
$PDMODE
 70
     0
  9
$PDSIZE
 40
0.0
  9
$PLINEWID
 40
0.0
  9
$COORDS
 70
     1
  9
$SPLFRAME
 70
     0
  9
$SPLINETYPE
 70
     6
  9
$SPLINESEGS
 70
     8
  9
$ATTDIA
 70
     0
  9
$ATTREQ
 70
     1
  9
$HANDLING
 70
     1
  9
$HANDSEED
  5
C3
  9
$SURFTAB1
 70
     6
  9
$SURFTAB2
 70
     6
  9
$SURFTYPE
 70
     6
  9
$SURFU
 70
     6
  9
$SURFV
 70
     6
  9
$UCSNAME
  2

  9
$UCSORG
 10
0.0
 20
0.0
 30
0.0
  9
$UCSXDIR
 10
1.0
 20
0.0
 30
0.0
  9
$UCSYDIR
 10
0.0
 20
1.0
 30
0.0
  9
$PUCSNAME
  2

  9
$PUCSORG
 10
0.0
 20
0.0
 30
0.0
  9
$PUCSXDIR
 10
1.0
 20
0.0
 30
0.0
  9
$PUCSYDIR
 10
0.0
 20
1.0
 30
0.0
  9
$USERI1
 70
     0
  9
$USERI2
 70
     0
  9
$USERI3
 70
     0
  9
$USERI4
 70
     0
  9
$USERI5
 70
     0
  9
$USERR1
 40
0.0
  9
$USERR2
 40
0.0
  9
$USERR3
 40
0.0
  9
$USERR4
 40
0.0
  9
$USERR5
 40
0.0
  9
$WORLDVIEW
 70
     1
  9
$SHADEDGE
 70
     3
  9
$SHADEDIF
 70
    70
  9
$TILEMODE
 70
     1
  9
$MAXACTVP
 70
    64
  9
$PINSBASE
 10
0.0
 20
0.0
 30
0.0
  9
$PLIMCHECK
 70
     0
  9
$PEXTMIN
 10
1.000000000000000E+20
 20
1.000000000000000E+20
 30
1.000000000000000E+20
  9
$PEXTMAX
 10
-1.000000000000000E+20
 20
-1.000000000000000E+20
 30
-1.000000000000000E+20
  9
$PLIMMIN
 10
0.0
 20
0.0
  9
$PLIMMAX
 10
12.0
 20
9.0
  9
$UNITMODE
 70
     0
  9
$VISRETAIN
 70
     1
  9
$PLINEGEN
 70
     0
  9
$PSLTSCALE
 70
     1
  9
$TREEDEPTH
 70
  3020
  9
$PICKSTYLE
 70
     1
  9
$CMLSTYLE
  2
STANDARD
  9
$CMLJUST
 70
     0
  9
$CMLSCALE
 40
1.0
  9
$PROXYGRAPHICS
 70
     1
  9
$MEASUREMENT
 70
     0
  0
ENDSEC
  0
SECTION
  2
CLASSES
  0
CLASS
  1
ACDBDICTIONARYWDFLT
  2
AcDbDictionaryWithDefault
  3
ObjectDBX Classes
 90
        0
280
     0
281
     0
  0
CLASS
  1
VISUALSTYLE
  2
AcDbVisualStyle
  3
ObjectDBX Classes
 90
     4095
280
     0
281
     0
  0
CLASS
  1
MATERIAL
  2
AcDbMaterial
  3
ObjectDBX Classes
 90
     1153
280
     0
281
     0
  0
CLASS
  1
DICTIONARYVAR
  2
AcDbDictionaryVar
  3
ObjectDBX Classes
 90
        0
280
     0
281
     0
  0
CLASS
  1
XRECORD
  2
AcDbXrecord
  3
AutoCAD 2000
 90
        0
280
     0
281
     0
  0
CLASS
  1
LWPOLYLINE
  2
AcDbPolyline
  3
AutoCAD 2000
 90
        0
280
     0
281
     1
  0
CLASS
  1
HATCH
  2
AcDbHatch
  3
AutoCAD 2000
 90
        0
280
     0
281
     1
  0
CLASS
  1
ACDBPLACEHOLDER
  2
AcDbPlaceHolder
  3
ObjectDBX Classes
 90
        0
280
     0
281
     0
  0
CLASS
  1
LAYOUT
  2
AcDbLayout
  3
ObjectDBX Classes
 90
        0
280
     0
281
     0
  0
ENDSEC
  0
SECTION
  2
TABLES
  0
TABLE
  2
VPORT
  5
8
330
0
100
AcDbSymbolTable
 70
     1
  0
VPORT
  5
29
330
8
100
AcDbSymbolTableRecord
100
AcDbViewportTableRecord
  2
*ACTIVE
 70
     0
 10
0.0
 20
0.0
 11
1.0
 21
1.0
 12
10.42990654205607
 22
4.5
 13
0.0
 23
0.0
 14
0.5
 24
0.5
 15
0.5
 25
0.5
 16
0.0
 26
0.0
 36
1.0
 17
0.0
 27
0.0
 37
0.0
 40
9.0
 41
1.972972972850329
 42
50.0
 43
0.0
 44
0.0
 50
0.0
 51
0.0
 71
     0
 72
   100
 73
     1
 74
     3
 75
     0
 76
     0
 77
     0
 78
     0
  0
ENDTAB
  0
TABLE
  2
LTYPE
  5
5
330
0
100
AcDbSymbolTable
 70
     1
  0
LTYPE
  5
14
330
5
100
AcDbSymbolTableRecord
100
AcDbLinetypeTableRecord
  2
BYBLOCK
 70
     0
  3

 72
    65
 73
     0
 40
0.0
  0
LTYPE
  5
15
330
5
100
AcDbSymbolTableRecord
100
AcDbLinetypeTableRecord
  2
BYLAYER
 70
     0
  3

 72
    65
 73
     0
 40
0.0
  0
LTYPE
  5
16
330
5
100
AcDbSymbolTableRecord
100
AcDbLinetypeTableRecord
  2
CONTINUOUS
 70
     0
  3
Solid line
 72
    65
 73
     0
 40
0.0
  0
ENDTAB
  0
TABLE
  2
LAYER
  5
2
330
0
100
AcDbSymbolTable
 70
     2
  0
LAYER
  5
10
330
2
100
AcDbSymbolTableRecord
100
AcDbLayerTableRecord
  2
0
 70
     0
 62
     7
  6
CONTINUOUS
  0
LAYER
  5
40
330
2
100
AcDbSymbolTableRecord
100
AcDbLayerTableRecord
  2
DEFAULT_3
 70
     0
 62
     7
  6
CONTINUOUS
  0
ENDTAB
  0
TABLE
  2
STYLE
  5
3
330
0
100
AcDbSymbolTable
 70
     1
  0
STYLE
  5
11
330
3
100
AcDbSymbolTableRecord
100
AcDbTextStyleTableRecord
  2
STANDARD
 70
     0
 40
0.0
 41
1.0
 50
0.0
 71
     0
 42
0.2
  3
txt
  4

  0
ENDTAB
  0
TABLE
  2
VIEW
  5
6
330
0
100
AcDbSymbolTable
 70
     0
  0
ENDTAB
  0
TABLE
  2
UCS
  5
7
330
0
100
AcDbSymbolTable
 70
     0
  0
ENDTAB
  0
TABLE
  2
APPID
  5
9
330
0
100
AcDbSymbolTable
 70
     2
  0
APPID
  5
12
330
9
100
AcDbSymbolTableRecord
100
AcDbRegAppTableRecord
  2
ACAD
 70
     0
  0
APPID
  5
3F
330
9
100
AcDbSymbolTableRecord
100
AcDbRegAppTableRecord
  2
ODA
 70
     0
  0
ENDTAB
  0
TABLE
  2
DIMSTYLE
  5
A
330
0
100
AcDbSymbolTable
 70
     1
  0
DIMSTYLE
105
27
330
A
100
AcDbSymbolTableRecord
100
AcDbDimStyleTableRecord
  2
STANDARD
 70
     0
  3

  4

  5

  6

  7

 40
1.0
 41
0.18
 42
0.0625
 43
0.38
 44
0.18
 45
0.0
 46
0.0
 47
0.0
 48
0.0
140
0.18
141
0.09
142
0.0
143
25.4
144
1.0
145
0.0
146
1.0
147
0.09
 71
     0
 72
     0
 73
     1
 74
     1
 75
     0
 76
     0
 77
     0
 78
     0
170
     0
171
     2
172
     0
173
     0
174
     0
175
     0
176
     0
177
     0
178
     0
270
     2
271
     4
272
     4
273
     2
274
     2
340
11
275
     0
280
     0
281
     0
282
     0
283
     1
284
     0
285
     0
286
     0
287
     3
288
     0
  0
ENDTAB
  0
TABLE
  2
BLOCK_RECORD
  5
1
330
0
100
AcDbSymbolTable
 70
     1
  0
BLOCK_RECORD
  5
1F
330
1
100
AcDbSymbolTableRecord
100
AcDbBlockTableRecord
  2
*MODEL_SPACE
  0
BLOCK_RECORD
  5
1B
330
1
100
AcDbSymbolTableRecord
100
AcDbBlockTableRecord
  2
*PAPER_SPACE
  0
ENDTAB
  0
ENDSEC
  0
SECTION
  2
BLOCKS
  0
BLOCK
  5
20
330
1F
100
AcDbEntity
  8
0
100
AcDbBlockBegin
  2
*MODEL_SPACE
 70
     0
 10
0.0
 20
0.0
 30
0.0
  3
*MODEL_SPACE
  1

  0
ENDBLK
  5
21
330
1F
100
AcDbEntity
  8
0
100
AcDbBlockEnd
  0
BLOCK
  5
1C
330
1B
100
AcDbEntity
 67
     1
  8
0
100
AcDbBlockBegin
  2
*PAPER_SPACE
 70
     0
 10
0.0
 20
0.0
 30
0.0
  3
*PAPER_SPACE
  1

  0
ENDBLK
  5
1D
330
1B
100
AcDbEntity
 67
     1
  8
0
100
AcDbBlockEnd
  0
ENDSEC
  0
SECTION
  2
ENTITIES
  0
SPLINE
  5
41
330
1F
100
AcDbEntity
  8
DEFAULT_3
 62
   250
100
AcDbSpline
210
0.0
220
0.0
230
1.0
 70
    24
 71
     3
 72
     8
 73
     4
 74
     0
 42
0.0000000001
 43
0.0000000001
 40
0.0
 40
0.0
 40
0.0
 40
0.0
 40
1.0
 40
1.0
 40
1.0
 40
1.0
 10
28.3214
 20
-24.759
 30
0.0
 10
28.3214
 20
-24.759
 30
0.0
 10
29.519
 20
-24.759
 30
0.0
 10
29.519
 20
-24.759
 30
0.0
  0
SPLINE
  5
42
330
1F
100
AcDbEntity
  8
DEFAULT_3
 62
   250
100
AcDbSpline
210
0.0
220
0.0
230
1.0
 70
    24
 71
     3
 72
     8
 73
     4
 74
     0
 42
0.0000000001
 43
0.0000000001
 40
0.0
 40
0.0
 40
0.0
 40
0.0
 40
1.0
 40
1.0
 40
1.0
 40
1.0
 10
28.3214
 20
-24.759
 30
0.0
 10
28.3214
 20
-24.759
 30
0.0
 10
28.3214
 20
13.5613
 30
0.0
 10
28.3214
 20
13.5613
 30
0.0
  0
SPLINE
  5
43
330
1F
100
AcDbEntity
  8
DEFAULT_3
 62
   250
100
AcDbSpline
210
0.0
220
0.0
230
1.0
 70
    24
 71
     3
 72
     8
 73
     4
 74
     0
 42
0.0000000001
 43
0.0000000001
 40
0.0
 40
0.0
 40
0.0
 40
0.0
 40
1.0
 40
1.0
 40
1.0
 40
1.0
 10
30.318
 20
-23.9606
 30
0.0
 10
30.318
 20
-23.9606
 30
0.0
 10
30.318
 20
15.1678
 30
0.0
 10
30.318
 20
15.1678
 30
0.0
  0
SPLINE
  5
44
330
1F
100
AcDbEntity
  8
DEFAULT_3
 62
   250
100
AcDbSpline
210
0.0
220
0.0
230
1.0
 70
     8
 71
     3
 72
     8
 73
     4
 74
     0
 42
0.0000000001
 43
0.0000000001
 40
0.0
 40
0.0
 40
0.0
 40
0.0
 40
1.0
 40
1.0
 40
1.0
 40
1.0
 10
29.519
 20
-24.759
 30
0.0
 10
29.9599
 20
-24.759
 30
0.0
 10
30.3174
 20
-24.4015
 30
0.0
 10
30.3174
 20
-23.9606
 30
0.0
  0
SPLINE
  5
45
330
1F
100
AcDbEntity
  8
DEFAULT_3
 62
   250
100
AcDbSpline
210
0.0
220
0.0
230
1.0
 70
    24
 71
     3
 72
     8
 73
     4
 74
     0
 42
0.0000000001
 43
0.0000000001
 40
0.0
 40
0.0
 40
0.0
 40
0.0
 40
1.0
 40
1.0
 40
1.0
 40
1.0
 10
28.3214
 20
13.5613
 30
0.0
 10
28.3214
 20
13.5613
 30
0.0
 10
28.3214
 20
15.9585
 30
0.0
 10
28.3214
 20
15.9585
 30
0.0
  0
SPLINE
  5
46
330
1F
100
AcDbEntity
  8
DEFAULT_3
 62
   250
100
AcDbSpline
210
0.0
220
0.0
230
1.0
 70
    24
 71
     3
 72
     8
 73
     4
 74
     0
 42
0.0000000001
 43
0.0000000001
 40
0.0
 40
0.0
 40
0.0
 40
0.0
 40
1.0
 40
1.0
 40
1.0
 40
1.0
 10
28.3214
 20
15.9585
 30
0.0
 10
28.3214
 20
15.9585
 30
0.0
 10
29.519
 20
15.9585
 30
0.0
 10
29.519
 20
15.9585
 30
0.0
  0
SPLINE
  5
47
330
1F
100
AcDbEntity
  8
DEFAULT_3
 62
   250
100
AcDbSpline
210
0.0
220
0.0
230
1.0
 70
     8
 71
     3
 72
     8
 73
     4
 74
     0
 42
0.0000000001
 43
0.0000000001
 40
0.0
 40
0.0
 40
0.0
 40
0.0
 40
1.0
 40
1.0
 40
1.0
 40
1.0
 10
30.3174
 20
15.1601
 30
0.0
 10
30.3174
 20
15.6011
 30
0.0
 10
29.9599
 20
15.9585
 30
0.0
 10
29.519
 20
15.9585
 30
0.0
  0
SPLINE
  5
48
330
1F
100
AcDbEntity
  8
DEFAULT_3
 62
   250
100
AcDbSpline
210
0.0
220
0.0
230
1.0
 70
     8
 71
     3
 72
    12
 73
     8
 74
     0
 42
0.0000000001
 43
0.0000000001
 40
0.0
 40
0.0
 40
0.0
 40
0.0
 40
0.3333333333333333
 40
0.3333333333333333
 40
0.3333333333333333
 40
0.3333333333333333
 40
1.0
 40
1.0
 40
1.0
 40
1.0
 10
10.0913
 20
-9.7282
 30
0.0
 10
11.0301
 20
-9.7282
 30
0.0
 10
11.7912
 20
-8.9671
 30
0.0
 10
11.7912
 20
-8.0282
 30
0.0
 10
11.7912
 20
-8.0282
 30
0.0
 10
11.7912
 20
-7.0892
 30
0.0
 10
11.0301
 20
-6.3281
 30
0.0
 10
10.0913
 20
-6.3281
 30
0.0
  0
SPLINE
  5
49
330
1F
100
AcDbEntity
  8
DEFAULT_3
 62
   250
100
AcDbSpline
210
0.0
220
0.0
230
1.0
 70
     8
 71
     3
 72
    12
 73
     8
 74
     0
 42
0.0000000001
 43
0.0000000001
 40
0.0
 40
0.0
 40
0.0
 40
0.0
 40
0.3333333333333333
 40
0.3333333333333333
 40
0.3333333333333333
 40
0.3333333333333333
 40
1.0
 40
1.0
 40
1.0
 40
1.0
 10
10.1279
 20
-15.3474
 30
0.0
 10
11.0668
 20
-15.3474
 30
0.0
 10
11.8279
 20
-14.5862
 30
0.0
 10
11.8279
 20
-13.6473
 30
0.0
 10
11.8279
 20
-13.6473
 30
0.0
 10
11.8279
 20
-12.7084
 30
0.0
 10
11.0668
 20
-11.9473
 30
0.0
 10
10.1279
 20
-11.9473
 30
0.0
  0
SPLINE
  5
4A
330
1F
100
AcDbEntity
  8
DEFAULT_3
 62
   250
100
AcDbSpline
210
0.0
220
0.0
230
1.0
 70
     8
 71
     3
 72
    12
 73
     8
 74
     0
 42
0.0000000001
 43
0.0000000001
 40
0.0
 40
0.0
 40
0.0
 40
0.0
 40
0.3333333333333333
 40
0.3333333333333333
 40
0.3333333333333333
 40
0.3333333333333333
 40
1.0
 40
1.0
 40
1.0
 40
1.0
 10
-1.0721
 20
-11.9473
 30
0.0
 10
-2.0109
 20
-11.9473
 30
0.0
 10
-2.7721
 20
-12.7084
 30
0.0
 10
-2.7721
 20
-13.6473
 30
0.0
 10
-2.7721
 20
-13.6473
 30
0.0
 10
-2.7721
 20
-14.5862
 30
0.0
 10
-2.0109
 20
-15.3474
 30
0.0
 10
-1.0721
 20
-15.3474
 30
0.0
  0
SPLINE
  5
4B
330
1F
100
AcDbEntity
  8
DEFAULT_3
 62
   250
100
AcDbSpline
210
0.0
220
0.0
230
1.0
 70
     8
 71
     3
 72
    12
 73
     8
 74
     0
 42
0.0000000001
 43
0.0000000001
 40
0.0
 40
0.0
 40
0.0
 40
0.0
 40
0.3333333333333333
 40
0.3333333333333333
 40
0.3333333333333333
 40
0.3333333333333333
 40
1.0
 40
1.0
 40
1.0
 40
1.0
 10
10.0913
 20
-20.9156
 30
0.0
 10
11.0301
 20
-20.9156
 30
0.0
 10
11.7912
 20
-20.1545
 30
0.0
 10
11.7912
 20
-19.2156
 30
0.0
 10
11.7912
 20
-19.2156
 30
0.0
 10
11.7912
 20
-18.2766
 30
0.0
 10
11.0301
 20
-17.5155
 30
0.0
 10
10.0913
 20
-17.5155
 30
0.0
  0
SPLINE
  5
4C
330
1F
100
AcDbEntity
  8
DEFAULT_3
 62
   250
100
AcDbSpline
210
0.0
220
0.0
230
1.0
 70
     8
 71
     3
 72
    12
 73
     8
 74
     0
 42
0.0000000001
 43
0.0000000001
 40
0.0
 40
0.0
 40
0.0
 40
0.0
 40
0.3333333333333333
 40
0.3333333333333333
 40
0.3333333333333333
 40
0.3333333333333333
 40
1.0
 40
1.0
 40
1.0
 40
1.0
 10
-1.1087
 20
-17.5155
 30
0.0
 10
-2.0476
 20
-17.5155
 30
0.0
 10
-2.8087
 20
-18.2766
 30
0.0
 10
-2.8087
 20
-19.2156
 30
0.0
 10
-2.8087
 20
-19.2156
 30
0.0
 10
-2.8087
 20
-20.1545
 30
0.0
 10
-2.0476
 20
-20.9156
 30
0.0
 10
-1.1087
 20
-20.9156
 30
0.0
  0
SPLINE
  5
4D
330
1F
100
AcDbEntity
  8
DEFAULT_3
 62
   250
100
AcDbSpline
210
0.0
220
0.0
230
1.0
 70
     8
 71
     3
 72
    12
 73
     8
 74
     0
 42
0.0000000001
 43
0.0000000001
 40
0.0
 40
0.0
 40
0.0
 40
0.0
 40
0.3333333333333333
 40
0.3333333333333333
 40
0.3333333333333333
 40
0.3333333333333333
 40
1.0
 40
1.0
 40
1.0
 40
1.0
 10
-1.1087
 20
-6.3281
 30
0.0
 10
-2.0476
 20
-6.3281
 30
0.0
 10
-2.8087
 20
-7.0892
 30
0.0
 10
-2.8087
 20
-8.0282
 30
0.0
 10
-2.8087
 20
-8.0282
 30
0.0
 10
-2.8087
 20
-8.9671
 30
0.0
 10
-2.0476
 20
-9.7282
 30
0.0
 10
-1.1087
 20
-9.7282
 30
0.0
  0
SPLINE
  5
4E
330
1F
100
AcDbEntity
  8
DEFAULT_3
 62
   250
100
AcDbSpline
210
0.0
220
0.0
230
1.0
 70
    27
 71
     3
 72
    12
 73
     8
 74
     0
 42
0.0000000001
 43
0.0000000001
 40
0.0
 40
0.0
 40
0.0
 40
0.0
 40
0.3333333333333333
 40
0.3333333333333333
 40
0.3333333333333333
 40
0.3333333333333333
 40
1.0
 40
1.0
 40
1.0
 40
1.0
 10
-1.1087
 20
-6.3281
 30
0.0
 10
-1.1087
 20
-6.3281
 30
0.0
 10
10.0913
 20
-6.3281
 30
0.0
 10
10.0913
 20
-6.3281
 30
0.0
 10
10.0913
 20
-6.3281
 30
0.0
 10
10.0913
 20
-6.3281
 30
0.0
 10
-1.1087
 20
-6.3281
 30
0.0
 10
-1.1087
 20
-6.3281
 30
0.0
  0
SPLINE
  5
4F
330
1F
100
AcDbEntity
  8
DEFAULT_3
 62
   250
100
AcDbSpline
210
0.0
220
0.0
230
1.0
 70
    27
 71
     3
 72
    12
 73
     8
 74
     0
 42
0.0000000001
 43
0.0000000001
 40
0.0
 40
0.0
 40
0.0
 40
0.0
 40
0.3333333333333333
 40
0.3333333333333333
 40
0.3333333333333333
 40
0.3333333333333333
 40
1.0
 40
1.0
 40
1.0
 40
1.0
 10
-1.0721
 20
-11.9473
 30
0.0
 10
-1.0721
 20
-11.9473
 30
0.0
 10
10.1279
 20
-11.9473
 30
0.0
 10
10.1279
 20
-11.9473
 30
0.0
 10
10.1279
 20
-11.9473
 30
0.0
 10
10.1279
 20
-11.9473
 30
0.0
 10
-1.0721
 20
-11.9473
 30
0.0
 10
-1.0721
 20
-11.9473
 30
0.0
  0
SPLINE
  5
50
330
1F
100
AcDbEntity
  8
DEFAULT_3
 62
   250
100
AcDbSpline
210
0.0
220
0.0
230
1.0
 70
    27
 71
     3
 72
    12
 73
     8
 74
     0
 42
0.0000000001
 43
0.0000000001
 40
0.0
 40
0.0
 40
0.0
 40
0.0
 40
0.3333333333333333
 40
0.3333333333333333
 40
0.3333333333333333
 40
0.3333333333333333
 40
1.0
 40
1.0
 40
1.0
 40
1.0
 10
10.1279
 20
-15.3474
 30
0.0
 10
10.1279
 20
-15.3474
 30
0.0
 10
-1.0721
 20
-15.3474
 30
0.0
 10
-1.0721
 20
-15.3474
 30
0.0
 10
-1.0721
 20
-15.3474
 30
0.0
 10
-1.0721
 20
-15.3474
 30
0.0
 10
10.1279
 20
-15.3474
 30
0.0
 10
10.1279
 20
-15.3474
 30
0.0
  0
SPLINE
  5
51
330
1F
100
AcDbEntity
  8
DEFAULT_3
 62
   250
100
AcDbSpline
210
0.0
220
0.0
230
1.0
 70
    27
 71
     3
 72
    12
 73
     8
 74
     0
 42
0.0000000001
 43
0.0000000001
 40
0.0
 40
0.0
 40
0.0
 40
0.0
 40
0.3333333333333333
 40
0.3333333333333333
 40
0.3333333333333333
 40
0.3333333333333333
 40
1.0
 40
1.0
 40
1.0
 40
1.0
 10
-1.1087
 20
-17.5155
 30
0.0
 10
-1.1087
 20
-17.5155
 30
0.0
 10
10.0913
 20
-17.5155
 30
0.0
 10
10.0913
 20
-17.5155
 30
0.0
 10
10.0913
 20
-17.5155
 30
0.0
 10
10.0913
 20
-17.5155
 30
0.0
 10
-1.1087
 20
-17.5155
 30
0.0
 10
-1.1087
 20
-17.5155
 30
0.0
  0
SPLINE
  5
52
330
1F
100
AcDbEntity
  8
DEFAULT_3
 62
   250
100
AcDbSpline
210
0.0
220
0.0
230
1.0
 70
    27
 71
     3
 72
    12
 73
     8
 74
     0
 42
0.0000000001
 43
0.0000000001
 40
0.0
 40
0.0
 40
0.0
 40
0.0
 40
0.3333333333333333
 40
0.3333333333333333
 40
0.3333333333333333
 40
0.3333333333333333
 40
1.0
 40
1.0
 40
1.0
 40
1.0
 10
10.0913
 20
-20.9156
 30
0.0
 10
10.0913
 20
-20.9156
 30
0.0
 10
-1.1087
 20
-20.9156
 30
0.0
 10
-1.1087
 20
-20.9156
 30
0.0
 10
-1.1087
 20
-20.9156
 30
0.0
 10
-1.1087
 20
-20.9156
 30
0.0
 10
10.0913
 20
-20.9156
 30
0.0
 10
10.0913
 20
-20.9156
 30
0.0
  0
SPLINE
  5
53
330
1F
100
AcDbEntity
  8
DEFAULT_3
 62
   250
100
AcDbSpline
210
0.0
220
0.0
230
1.0
 70
    27
 71
     3
 72
    12
 73
     8
 74
     0
 42
0.0000000001
 43
0.0000000001
 40
0.0
 40
0.0
 40
0.0
 40
0.0
 40
0.3333333333333333
 40
0.3333333333333333
 40
0.3333333333333333
 40
0.3333333333333333
 40
1.0
 40
1.0
 40
1.0
 40
1.0
 10
10.0913
 20
-9.7282
 30
0.0
 10
10.0913
 20
-9.7282
 30
0.0
 10
-1.1087
 20
-9.7282
 30
0.0
 10
-1.1087
 20
-9.7282
 30
0.0
 10
-1.1087
 20
-9.7282
 30
0.0
 10
-1.1087
 20
-9.7282
 30
0.0
 10
10.0913
 20
-9.7282
 30
0.0
 10
10.0913
 20
-9.7282
 30
0.0
  0
SPLINE
  5
54
330
1F
100
AcDbEntity
  8
DEFAULT_3
 62
   250
100
AcDbSpline
210
0.0
220
0.0
230
1.0
 70
     8
 71
     3
 72
    12
 73
     8
 74
     0
 42
0.0000000001
 43
0.0000000001
 40
0.0
 40
0.0
 40
0.0
 40
0.0
 40
0.3333333333333333
 40
0.3333333333333333
 40
0.3333333333333333
 40
0.3333333333333333
 40
1.0
 40
1.0
 40
1.0
 40
1.0
 10
0.5958
 20
10.3659
 30
0.0
 10
0.5958
 20
11.3048
 30
0.0
 10
-0.1653
 20
12.0658
 30
0.0
 10
-1.1043
 20
12.0658
 30
0.0
 10
-1.1043
 20
12.0658
 30
0.0
 10
-2.0432
 20
12.0658
 30
0.0
 10
-2.8043
 20
11.3048
 30
0.0
 10
-2.8043
 20
10.3659
 30
0.0
  0
SPLINE
  5
55
330
1F
100
AcDbEntity
  8
DEFAULT_3
 62
   250
100
AcDbSpline
210
0.0
220
0.0
230
1.0
 70
     8
 71
     3
 72
    12
 73
     8
 74
     0
 42
0.0000000001
 43
0.0000000001
 40
0.0
 40
0.0
 40
0.0
 40
0.0
 40
0.3333333333333333
 40
0.3333333333333333
 40
0.3333333333333333
 40
0.3333333333333333
 40
1.0
 40
1.0
 40
1.0
 40
1.0
 10
6.2149
 20
10.4026
 30
0.0
 10
6.2149
 20
11.3415
 30
0.0
 10
5.4538
 20
12.1025
 30
0.0
 10
4.5149
 20
12.1025
 30
0.0
 10
4.5149
 20
12.1025
 30
0.0
 10
3.576
 20
12.1025
 30
0.0
 10
2.8149
 20
11.3415
 30
0.0
 10
2.8149
 20
10.4026
 30
0.0
  0
SPLINE
  5
56
330
1F
100
AcDbEntity
  8
DEFAULT_3
 62
   250
100
AcDbSpline
210
0.0
220
0.0
230
1.0
 70
     8
 71
     3
 72
    12
 73
     8
 74
     0
 42
0.0000000001
 43
0.0000000001
 40
0.0
 40
0.0
 40
0.0
 40
0.0
 40
0.3333333333333333
 40
0.3333333333333333
 40
0.3333333333333333
 40
0.3333333333333333
 40
1.0
 40
1.0
 40
1.0
 40
1.0
 10
2.8149
 20
-0.7974
 30
0.0
 10
2.8149
 20
-1.7363
 30
0.0
 10
3.576
 20
-2.4974
 30
0.0
 10
4.5149
 20
-2.4974
 30
0.0
 10
4.5149
 20
-2.4974
 30
0.0
 10
5.4538
 20
-2.4974
 30
0.0
 10
6.2149
 20
-1.7363
 30
0.0
 10
6.2149
 20
-0.7974
 30
0.0
  0
SPLINE
  5
57
330
1F
100
AcDbEntity
  8
DEFAULT_3
 62
   250
100
AcDbSpline
210
0.0
220
0.0
230
1.0
 70
     8
 71
     3
 72
    12
 73
     8
 74
     0
 42
0.0000000001
 43
0.0000000001
 40
0.0
 40
0.0
 40
0.0
 40
0.0
 40
0.3333333333333333
 40
0.3333333333333333
 40
0.3333333333333333
 40
0.3333333333333333
 40
1.0
 40
1.0
 40
1.0
 40
1.0
 10
11.7832
 20
10.3659
 30
0.0
 10
11.7832
 20
11.3048
 30
0.0
 10
11.0221
 20
12.0658
 30
0.0
 10
10.0831
 20
12.0658
 30
0.0
 10
10.0831
 20
12.0658
 30
0.0
 10
9.1442
 20
12.0658
 30
0.0
 10
8.3831
 20
11.3048
 30
0.0
 10
8.3831
 20
10.3659
 30
0.0
  0
SPLINE
  5
58
330
1F
100
AcDbEntity
  8
DEFAULT_3
 62
   250
100
AcDbSpline
210
0.0
220
0.0
230
1.0
 70
     8
 71
     3
 72
    12
 73
     8
 74
     0
 42
0.0000000001
 43
0.0000000001
 40
0.0
 40
0.0
 40
0.0
 40
0.0
 40
0.3333333333333333
 40
0.3333333333333333
 40
0.3333333333333333
 40
0.3333333333333333
 40
1.0
 40
1.0
 40
1.0
 40
1.0
 10
8.3831
 20
-0.8341
 30
0.0
 10
8.3831
 20
-1.773
 30
0.0
 10
9.1442
 20
-2.5341
 30
0.0
 10
10.0831
 20
-2.5341
 30
0.0
 10
10.0831
 20
-2.5341
 30
0.0
 10
11.0221
 20
-2.5341
 30
0.0
 10
11.7832
 20
-1.773
 30
0.0
 10
11.7832
 20
-0.8341
 30
0.0
  0
SPLINE
  5
59
330
1F
100
AcDbEntity
  8
DEFAULT_3
 62
   250
100
AcDbSpline
210
0.0
220
0.0
230
1.0
 70
     8
 71
     3
 72
    12
 73
     8
 74
     0
 42
0.0000000001
 43
0.0000000001
 40
0.0
 40
0.0
 40
0.0
 40
0.0
 40
0.3333333333333333
 40
0.3333333333333333
 40
0.3333333333333333
 40
0.3333333333333333
 40
1.0
 40
1.0
 40
1.0
 40
1.0
 10
-2.8043
 20
-0.8341
 30
0.0
 10
-2.8043
 20
-1.773
 30
0.0
 10
-2.0432
 20
-2.5341
 30
0.0
 10
-1.1043
 20
-2.5341
 30
0.0
 10
-1.1043
 20
-2.5341
 30
0.0
 10
-0.1653
 20
-2.5341
 30
0.0
 10
0.5958
 20
-1.773
 30
0.0
 10
0.5958
 20
-0.8341
 30
0.0
  0
SPLINE
  5
5A
330
1F
100
AcDbEntity
  8
DEFAULT_3
 62
   250
100
AcDbSpline
210
0.0
220
0.0
230
1.0
 70
    27
 71
     3
 72
    12
 73
     8
 74
     0
 42
0.0000000001
 43
0.0000000001
 40
0.0
 40
0.0
 40
0.0
 40
0.0
 40
0.3333333333333333
 40
0.3333333333333333
 40
0.3333333333333333
 40
0.3333333333333333
 40
1.0
 40
1.0
 40
1.0
 40
1.0
 10
-2.8043
 20
-0.8341
 30
0.0
 10
-2.8043
 20
-0.8341
 30
0.0
 10
-2.8043
 20
10.3659
 30
0.0
 10
-2.8043
 20
10.3659
 30
0.0
 10
-2.8043
 20
10.3659
 30
0.0
 10
-2.8043
 20
10.3659
 30
0.0
 10
-2.8043
 20
-0.8341
 30
0.0
 10
-2.8043
 20
-0.8341
 30
0.0
  0
SPLINE
  5
5B
330
1F
100
AcDbEntity
  8
DEFAULT_3
 62
   250
100
AcDbSpline
210
0.0
220
0.0
230
1.0
 70
    27
 71
     3
 72
    12
 73
     8
 74
     0
 42
0.0000000001
 43
0.0000000001
 40
0.0
 40
0.0
 40
0.0
 40
0.0
 40
0.3333333333333333
 40
0.3333333333333333
 40
0.3333333333333333
 40
0.3333333333333333
 40
1.0
 40
1.0
 40
1.0
 40
1.0
 10
2.8149
 20
-0.7974
 30
0.0
 10
2.8149
 20
-0.7974
 30
0.0
 10
2.8149
 20
10.4026
 30
0.0
 10
2.8149
 20
10.4026
 30
0.0
 10
2.8149
 20
10.4026
 30
0.0
 10
2.8149
 20
10.4026
 30
0.0
 10
2.8149
 20
-0.7974
 30
0.0
 10
2.8149
 20
-0.7974
 30
0.0
  0
SPLINE
  5
5C
330
1F
100
AcDbEntity
  8
DEFAULT_3
 62
   250
100
AcDbSpline
210
0.0
220
0.0
230
1.0
 70
    27
 71
     3
 72
    12
 73
     8
 74
     0
 42
0.0000000001
 43
0.0000000001
 40
0.0
 40
0.0
 40
0.0
 40
0.0
 40
0.3333333333333333
 40
0.3333333333333333
 40
0.3333333333333333
 40
0.3333333333333333
 40
1.0
 40
1.0
 40
1.0
 40
1.0
 10
6.2149
 20
10.4026
 30
0.0
 10
6.2149
 20
10.4026
 30
0.0
 10
6.2149
 20
-0.7974
 30
0.0
 10
6.2149
 20
-0.7974
 30
0.0
 10
6.2149
 20
-0.7974
 30
0.0
 10
6.2149
 20
-0.7974
 30
0.0
 10
6.2149
 20
10.4026
 30
0.0
 10
6.2149
 20
10.4026
 30
0.0
  0
SPLINE
  5
5D
330
1F
100
AcDbEntity
  8
DEFAULT_3
 62
   250
100
AcDbSpline
210
0.0
220
0.0
230
1.0
 70
    27
 71
     3
 72
    12
 73
     8
 74
     0
 42
0.0000000001
 43
0.0000000001
 40
0.0
 40
0.0
 40
0.0
 40
0.0
 40
0.3333333333333333
 40
0.3333333333333333
 40
0.3333333333333333
 40
0.3333333333333333
 40
1.0
 40
1.0
 40
1.0
 40
1.0
 10
8.3831
 20
-0.8341
 30
0.0
 10
8.3831
 20
-0.8341
 30
0.0
 10
8.3831
 20
10.3659
 30
0.0
 10
8.3831
 20
10.3659
 30
0.0
 10
8.3831
 20
10.3659
 30
0.0
 10
8.3831
 20
10.3659
 30
0.0
 10
8.3831
 20
-0.8341
 30
0.0
 10
8.3831
 20
-0.8341
 30
0.0
  0
SPLINE
  5
5E
330
1F
100
AcDbEntity
  8
DEFAULT_3
 62
   250
100
AcDbSpline
210
0.0
220
0.0
230
1.0
 70
    27
 71
     3
 72
    12
 73
     8
 74
     0
 42
0.0000000001
 43
0.0000000001
 40
0.0
 40
0.0
 40
0.0
 40
0.0
 40
0.3333333333333333
 40
0.3333333333333333
 40
0.3333333333333333
 40
0.3333333333333333
 40
1.0
 40
1.0
 40
1.0
 40
1.0
 10
11.7832
 20
10.3659
 30
0.0
 10
11.7832
 20
10.3659
 30
0.0
 10
11.7832
 20
-0.8341
 30
0.0
 10
11.7832
 20
-0.8341
 30
0.0
 10
11.7832
 20
-0.8341
 30
0.0
 10
11.7832
 20
-0.8341
 30
0.0
 10
11.7832
 20
10.3659
 30
0.0
 10
11.7832
 20
10.3659
 30
0.0
  0
SPLINE
  5
5F
330
1F
100
AcDbEntity
  8
DEFAULT_3
 62
   250
100
AcDbSpline
210
0.0
220
0.0
230
1.0
 70
    27
 71
     3
 72
    12
 73
     8
 74
     0
 42
0.0000000001
 43
0.0000000001
 40
0.0
 40
0.0
 40
0.0
 40
0.0
 40
0.3333333333333333
 40
0.3333333333333333
 40
0.3333333333333333
 40
0.3333333333333333
 40
1.0
 40
1.0
 40
1.0
 40
1.0
 10
0.5958
 20
10.3659
 30
0.0
 10
0.5958
 20
10.3659
 30
0.0
 10
0.5958
 20
-0.8341
 30
0.0
 10
0.5958
 20
-0.8341
 30
0.0
 10
0.5958
 20
-0.8341
 30
0.0
 10
0.5958
 20
-0.8341
 30
0.0
 10
0.5958
 20
10.3659
 30
0.0
 10
0.5958
 20
10.3659
 30
0.0
  0
SPLINE
  5
60
330
1F
100
AcDbEntity
  8
DEFAULT_3
 62
   250
100
AcDbSpline
210
0.0
220
0.0
230
1.0
 70
     8
 71
     3
 72
    12
 73
     8
 74
     0
 42
0.0000000001
 43
0.0000000001
 40
0.0
 40
0.0
 40
0.0
 40
0.0
 40
0.3333333333333333
 40
0.3333333333333333
 40
0.3333333333333333
 40
0.3333333333333333
 40
1.0
 40
1.0
 40
1.0
 40
1.0
 10
-17.7902
 20
-8.0603
 30
0.0
 10
-17.7902
 20
-7.1214
 30
0.0
 10
-18.5513
 20
-6.3604
 30
0.0
 10
-19.4902
 20
-6.3604
 30
0.0
 10
-19.4902
 20
-6.3604
 30
0.0
 10
-20.4291
 20
-6.3604
 30
0.0
 10
-21.1903
 20
-7.1214
 30
0.0
 10
-21.1903
 20
-8.0603
 30
0.0
  0
SPLINE
  5
61
330
1F
100
AcDbEntity
  8
DEFAULT_3
 62
   250
100
AcDbSpline
210
0.0
220
0.0
230
1.0
 70
     8
 71
     3
 72
    12
 73
     8
 74
     0
 42
0.0000000001
 43
0.0000000001
 40
0.0
 40
0.0
 40
0.0
 40
0.0
 40
0.3333333333333333
 40
0.3333333333333333
 40
0.3333333333333333
 40
0.3333333333333333
 40
1.0
 40
1.0
 40
1.0
 40
1.0
 10
-12.171
 20
-8.0236
 30
0.0
 10
-12.171
 20
-7.0847
 30
0.0
 10
-12.9321
 20
-6.3237
 30
0.0
 10
-13.8711
 20
-6.3237
 30
0.0
 10
-13.8711
 20
-6.3237
 30
0.0
 10
-14.81
 20
-6.3237
 30
0.0
 10
-15.5711
 20
-7.0847
 30
0.0
 10
-15.5711
 20
-8.0236
 30
0.0
  0
SPLINE
  5
62
330
1F
100
AcDbEntity
  8
DEFAULT_3
 62
   250
100
AcDbSpline
210
0.0
220
0.0
230
1.0
 70
     8
 71
     3
 72
    12
 73
     8
 74
     0
 42
0.0000000001
 43
0.0000000001
 40
0.0
 40
0.0
 40
0.0
 40
0.0
 40
0.3333333333333333
 40
0.3333333333333333
 40
0.3333333333333333
 40
0.3333333333333333
 40
1.0
 40
1.0
 40
1.0
 40
1.0
 10
-15.5711
 20
-19.2236
 30
0.0
 10
-15.5711
 20
-20.1625
 30
0.0
 10
-14.81
 20
-20.9236
 30
0.0
 10
-13.8711
 20
-20.9236
 30
0.0
 10
-13.8711
 20
-20.9236
 30
0.0
 10
-12.9321
 20
-20.9236
 30
0.0
 10
-12.171
 20
-20.1625
 30
0.0
 10
-12.171
 20
-19.2236
 30
0.0
  0
SPLINE
  5
63
330
1F
100
AcDbEntity
  8
DEFAULT_3
 62
   250
100
AcDbSpline
210
0.0
220
0.0
230
1.0
 70
     8
 71
     3
 72
    12
 73
     8
 74
     0
 42
0.0000000001
 43
0.0000000001
 40
0.0
 40
0.0
 40
0.0
 40
0.0
 40
0.3333333333333333
 40
0.3333333333333333
 40
0.3333333333333333
 40
0.3333333333333333
 40
1.0
 40
1.0
 40
1.0
 40
1.0
 10
-6.6028
 20
-8.0603
 30
0.0
 10
-6.6028
 20
-7.1214
 30
0.0
 10
-7.3639
 20
-6.3604
 30
0.0
 10
-8.3028
 20
-6.3604
 30
0.0
 10
-8.3028
 20
-6.3604
 30
0.0
 10
-9.2417
 20
-6.3604
 30
0.0
 10
-10.0029
 20
-7.1214
 30
0.0
 10
-10.0029
 20
-8.0603
 30
0.0
  0
SPLINE
  5
64
330
1F
100
AcDbEntity
  8
DEFAULT_3
 62
   250
100
AcDbSpline
210
0.0
220
0.0
230
1.0
 70
     8
 71
     3
 72
    12
 73
     8
 74
     0
 42
0.0000000001
 43
0.0000000001
 40
0.0
 40
0.0
 40
0.0
 40
0.0
 40
0.3333333333333333
 40
0.3333333333333333
 40
0.3333333333333333
 40
0.3333333333333333
 40
1.0
 40
1.0
 40
1.0
 40
1.0
 10
-10.0029
 20
-19.2603
 30
0.0
 10
-10.0029
 20
-20.1992
 30
0.0
 10
-9.2417
 20
-20.9603
 30
0.0
 10
-8.3028
 20
-20.9603
 30
0.0
 10
-8.3028
 20
-20.9603
 30
0.0
 10
-7.3639
 20
-20.9603
 30
0.0
 10
-6.6028
 20
-20.1992
 30
0.0
 10
-6.6028
 20
-19.2603
 30
0.0
  0
SPLINE
  5
65
330
1F
100
AcDbEntity
  8
DEFAULT_3
 62
   250
100
AcDbSpline
210
0.0
220
0.0
230
1.0
 70
     8
 71
     3
 72
    12
 73
     8
 74
     0
 42
0.0000000001
 43
0.0000000001
 40
0.0
 40
0.0
 40
0.0
 40
0.0
 40
0.3333333333333333
 40
0.3333333333333333
 40
0.3333333333333333
 40
0.3333333333333333
 40
1.0
 40
1.0
 40
1.0
 40
1.0
 10
-21.1903
 20
-19.2603
 30
0.0
 10
-21.1903
 20
-20.1992
 30
0.0
 10
-20.4291
 20
-20.9603
 30
0.0
 10
-19.4902
 20
-20.9603
 30
0.0
 10
-19.4902
 20
-20.9603
 30
0.0
 10
-18.5513
 20
-20.9603
 30
0.0
 10
-17.7902
 20
-20.1992
 30
0.0
 10
-17.7902
 20
-19.2603
 30
0.0
  0
SPLINE
  5
66
330
1F
100
AcDbEntity
  8
DEFAULT_3
 62
   250
100
AcDbSpline
210
0.0
220
0.0
230
1.0
 70
    27
 71
     3
 72
    12
 73
     8
 74
     0
 42
0.0000000001
 43
0.0000000001
 40
0.0
 40
0.0
 40
0.0
 40
0.0
 40
0.3333333333333333
 40
0.3333333333333333
 40
0.3333333333333333
 40
0.3333333333333333
 40
1.0
 40
1.0
 40
1.0
 40
1.0
 10
-21.1903
 20
-19.2603
 30
0.0
 10
-21.1903
 20
-19.2603
 30
0.0
 10
-21.1903
 20
-8.0603
 30
0.0
 10
-21.1903
 20
-8.0603
 30
0.0
 10
-21.1903
 20
-8.0603
 30
0.0
 10
-21.1903
 20
-8.0603
 30
0.0
 10
-21.1903
 20
-19.2603
 30
0.0
 10
-21.1903
 20
-19.2603
 30
0.0
  0
SPLINE
  5
67
330
1F
100
AcDbEntity
  8
DEFAULT_3
 62
   250
100
AcDbSpline
210
0.0
220
0.0
230
1.0
 70
    27
 71
     3
 72
    12
 73
     8
 74
     0
 42
0.0000000001
 43
0.0000000001
 40
0.0
 40
0.0
 40
0.0
 40
0.0
 40
0.3333333333333333
 40
0.3333333333333333
 40
0.3333333333333333
 40
0.3333333333333333
 40
1.0
 40
1.0
 40
1.0
 40
1.0
 10
-15.5711
 20
-19.2236
 30
0.0
 10
-15.5711
 20
-19.2236
 30
0.0
 10
-15.5711
 20
-8.0236
 30
0.0
 10
-15.5711
 20
-8.0236
 30
0.0
 10
-15.5711
 20
-8.0236
 30
0.0
 10
-15.5711
 20
-8.0236
 30
0.0
 10
-15.5711
 20
-19.2236
 30
0.0
 10
-15.5711
 20
-19.2236
 30
0.0
  0
SPLINE
  5
68
330
1F
100
AcDbEntity
  8
DEFAULT_3
 62
   250
100
AcDbSpline
210
0.0
220
0.0
230
1.0
 70
    27
 71
     3
 72
    12
 73
     8
 74
     0
 42
0.0000000001
 43
0.0000000001
 40
0.0
 40
0.0
 40
0.0
 40
0.0
 40
0.3333333333333333
 40
0.3333333333333333
 40
0.3333333333333333
 40
0.3333333333333333
 40
1.0
 40
1.0
 40
1.0
 40
1.0
 10
-12.171
 20
-8.0236
 30
0.0
 10
-12.171
 20
-8.0236
 30
0.0
 10
-12.171
 20
-19.2236
 30
0.0
 10
-12.171
 20
-19.2236
 30
0.0
 10
-12.171
 20
-19.2236
 30
0.0
 10
-12.171
 20
-19.2236
 30
0.0
 10
-12.171
 20
-8.0236
 30
0.0
 10
-12.171
 20
-8.0236
 30
0.0
  0
SPLINE
  5
69
330
1F
100
AcDbEntity
  8
DEFAULT_3
 62
   250
100
AcDbSpline
210
0.0
220
0.0
230
1.0
 70
    27
 71
     3
 72
    12
 73
     8
 74
     0
 42
0.0000000001
 43
0.0000000001
 40
0.0
 40
0.0
 40
0.0
 40
0.0
 40
0.3333333333333333
 40
0.3333333333333333
 40
0.3333333333333333
 40
0.3333333333333333
 40
1.0
 40
1.0
 40
1.0
 40
1.0
 10
-10.0029
 20
-19.2603
 30
0.0
 10
-10.0029
 20
-19.2603
 30
0.0
 10
-10.0029
 20
-8.0603
 30
0.0
 10
-10.0029
 20
-8.0603
 30
0.0
 10
-10.0029
 20
-8.0603
 30
0.0
 10
-10.0029
 20
-8.0603
 30
0.0
 10
-10.0029
 20
-19.2603
 30
0.0
 10
-10.0029
 20
-19.2603
 30
0.0
  0
SPLINE
  5
6A
330
1F
100
AcDbEntity
  8
DEFAULT_3
 62
   250
100
AcDbSpline
210
0.0
220
0.0
230
1.0
 70
    27
 71
     3
 72
    12
 73
     8
 74
     0
 42
0.0000000001
 43
0.0000000001
 40
0.0
 40
0.0
 40
0.0
 40
0.0
 40
0.3333333333333333
 40
0.3333333333333333
 40
0.3333333333333333
 40
0.3333333333333333
 40
1.0
 40
1.0
 40
1.0
 40
1.0
 10
-6.6028
 20
-8.0603
 30
0.0
 10
-6.6028
 20
-8.0603
 30
0.0
 10
-6.6028
 20
-19.2603
 30
0.0
 10
-6.6028
 20
-19.2603
 30
0.0
 10
-6.6028
 20
-19.2603
 30
0.0
 10
-6.6028
 20
-19.2603
 30
0.0
 10
-6.6028
 20
-8.0603
 30
0.0
 10
-6.6028
 20
-8.0603
 30
0.0
  0
SPLINE
  5
6B
330
1F
100
AcDbEntity
  8
DEFAULT_3
 62
   250
100
AcDbSpline
210
0.0
220
0.0
230
1.0
 70
    27
 71
     3
 72
    12
 73
     8
 74
     0
 42
0.0000000001
 43
0.0000000001
 40
0.0
 40
0.0
 40
0.0
 40
0.0
 40
0.3333333333333333
 40
0.3333333333333333
 40
0.3333333333333333
 40
0.3333333333333333
 40
1.0
 40
1.0
 40
1.0
 40
1.0
 10
-17.7902
 20
-8.0603
 30
0.0
 10
-17.7902
 20
-8.0603
 30
0.0
 10
-17.7902
 20
-19.2603
 30
0.0
 10
-17.7902
 20
-19.2603
 30
0.0
 10
-17.7902
 20
-19.2603
 30
0.0
 10
-17.7902
 20
-19.2603
 30
0.0
 10
-17.7902
 20
-8.0603
 30
0.0
 10
-17.7902
 20
-8.0603
 30
0.0
  0
SPLINE
  5
6C
330
1F
100
AcDbEntity
  8
DEFAULT_3
 62
   250
100
AcDbSpline
210
0.0
220
0.0
230
1.0
 70
    24
 71
     3
 72
     8
 73
     4
 74
     0
 42
0.0000000001
 43
0.0000000001
 40
0.0
 40
0.0
 40
0.0
 40
0.0
 40
1.0
 40
1.0
 40
1.0
 40
1.0
 10
14.8651
 20
15.9578
 30
0.0
 10
14.8651
 20
15.9578
 30
0.0
 10
-24.3349
 20
15.9578
 30
0.0
 10
-24.3349
 20
15.9578
 30
0.0
  0
SPLINE
  5
6D
330
1F
100
AcDbEntity
  8
DEFAULT_3
 62
   250
100
AcDbSpline
210
0.0
220
0.0
230
1.0
 70
    24
 71
     3
 72
     8
 73
     4
 74
     0
 42
0.0000000001
 43
0.0000000001
 40
0.0
 40
0.0
 40
0.0
 40
0.0
 40
1.0
 40
1.0
 40
1.0
 40
1.0
 10
-24.3349
 20
-24.8422
 30
0.0
 10
-24.3349
 20
-24.8422
 30
0.0
 10
14.8651
 20
-24.8422
 30
0.0
 10
14.8651
 20
-24.8422
 30
0.0
  0
SPLINE
  5
6E
330
1F
100
AcDbEntity
  8
DEFAULT_3
 62
   250
100
AcDbSpline
210
0.0
220
0.0
230
1.0
 70
    24
 71
     3
 72
     8
 73
     4
 74
     0
 42
0.0000000001
 43
0.0000000001
 40
0.0
 40
0.0
 40
0.0
 40
0.0
 40
1.0
 40
1.0
 40
1.0
 40
1.0
 10
-25.1349
 20
15.1578
 30
0.0
 10
-25.1349
 20
15.1578
 30
0.0
 10
-25.1349
 20
-24.0422
 30
0.0
 10
-25.1349
 20
-24.0422
 30
0.0
  0
SPLINE
  5
6F
330
1F
100
AcDbEntity
  8
DEFAULT_3
 62
   250
100
AcDbSpline
210
0.0
220
0.0
230
1.0
 70
    24
 71
     3
 72
     8
 73
     4
 74
     0
 42
0.0000000001
 43
0.0000000001
 40
0.0
 40
0.0
 40
0.0
 40
0.0
 40
1.0
 40
1.0
 40
1.0
 40
1.0
 10
15.6651
 20
-24.0422
 30
0.0
 10
15.6651
 20
-24.0422
 30
0.0
 10
15.6651
 20
15.1578
 30
0.0
 10
15.6651
 20
15.1578
 30
0.0
  0
SPLINE
  5
70
330
1F
100
AcDbEntity
  8
DEFAULT_3
 62
   250
100
AcDbSpline
210
0.0
220
0.0
230
1.0
 70
     8
 71
     3
 72
     8
 73
     4
 74
     0
 42
0.0000000001
 43
0.0000000001
 40
0.0
 40
0.0
 40
0.0
 40
0.0
 40
1.0
 40
1.0
 40
1.0
 40
1.0
 10
-24.3349
 20
15.9578
 30
0.0
 10
-24.7768
 20
15.9578
 30
0.0
 10
-25.1349
 20
15.5996
 30
0.0
 10
-25.1349
 20
15.1578
 30
0.0
  0
SPLINE
  5
71
330
1F
100
AcDbEntity
  8
DEFAULT_3
 62
   250
100
AcDbSpline
210
0.0
220
0.0
230
1.0
 70
     8
 71
     3
 72
     8
 73
     4
 74
     0
 42
0.0000000001
 43
0.0000000001
 40
0.0
 40
0.0
 40
0.0
 40
0.0
 40
1.0
 40
1.0
 40
1.0
 40
1.0
 10
15.6651
 20
15.1578
 30
0.0
 10
15.6651
 20
15.5996
 30
0.0
 10
15.3068
 20
15.9578
 30
0.0
 10
14.8651
 20
15.9578
 30
0.0
  0
SPLINE
  5
72
330
1F
100
AcDbEntity
  8
DEFAULT_3
 62
   250
100
AcDbSpline
210
0.0
220
0.0
230
1.0
 70
     8
 71
     3
 72
     8
 73
     4
 74
     0
 42
0.0000000001
 43
0.0000000001
 40
0.0
 40
0.0
 40
0.0
 40
0.0
 40
1.0
 40
1.0
 40
1.0
 40
1.0
 10
-25.1349
 20
-24.0422
 30
0.0
 10
-25.1349
 20
-24.484
 30
0.0
 10
-24.7768
 20
-24.8422
 30
0.0
 10
-24.3349
 20
-24.8422
 30
0.0
  0
SPLINE
  5
73
330
1F
100
AcDbEntity
  8
DEFAULT_3
 62
   250
100
AcDbSpline
210
0.0
220
0.0
230
1.0
 70
     8
 71
     3
 72
     8
 73
     4
 74
     0
 42
0.0000000001
 43
0.0000000001
 40
0.0
 40
0.0
 40
0.0
 40
0.0
 40
1.0
 40
1.0
 40
1.0
 40
1.0
 10
14.8651
 20
-24.8422
 30
0.0
 10
15.3068
 20
-24.8422
 30
0.0
 10
15.6651
 20
-24.484
 30
0.0
 10
15.6651
 20
-24.0422
 30
0.0
  0
SPLINE
  5
74
330
1F
100
AcDbEntity
  8
DEFAULT_3
 62
   250
100
AcDbSpline
210
0.0
220
0.0
230
1.0
 70
     8
 71
     3
 72
    12
 73
     8
 74
     0
 42
0.0000000001
 43
0.0000000001
 40
0.0
 40
0.0
 40
0.0
 40
0.0
 40
0.3333333333333333
 40
0.3333333333333333
 40
0.3333333333333333
 40
0.3333333333333333
 40
1.0
 40
1.0
 40
1.0
 40
1.0
 10
-8.3349
 20
8.6578
 30
0.0
 10
-7.3961
 20
8.6578
 30
0.0
 10
-6.635
 20
9.4189
 30
0.0
 10
-6.635
 20
10.3578
 30
0.0
 10
-6.635
 20
10.3578
 30
0.0
 10
-6.635
 20
11.2967
 30
0.0
 10
-7.3961
 20
12.0578
 30
0.0
 10
-8.3349
 20
12.0578
 30
0.0
  0
SPLINE
  5
75
330
1F
100
AcDbEntity
  8
DEFAULT_3
 62
   250
100
AcDbSpline
210
0.0
220
0.0
230
1.0
 70
     8
 71
     3
 72
    12
 73
     8
 74
     0
 42
0.0000000001
 43
0.0000000001
 40
0.0
 40
0.0
 40
0.0
 40
0.0
 40
0.3333333333333333
 40
0.3333333333333333
 40
0.3333333333333333
 40
0.3333333333333333
 40
1.0
 40
1.0
 40
1.0
 40
1.0
 10
-8.2983
 20
3.0386
 30
0.0
 10
-7.3594
 20
3.0386
 30
0.0
 10
-6.5983
 20
3.7997
 30
0.0
 10
-6.5983
 20
4.7386
 30
0.0
 10
-6.5983
 20
4.7386
 30
0.0
 10
-6.5983
 20
5.6776
 30
0.0
 10
-7.3594
 20
6.4387
 30
0.0
 10
-8.2983
 20
6.4387
 30
0.0
  0
SPLINE
  5
76
330
1F
100
AcDbEntity
  8
DEFAULT_3
 62
   250
100
AcDbSpline
210
0.0
220
0.0
230
1.0
 70
     8
 71
     3
 72
    12
 73
     8
 74
     0
 42
0.0000000001
 43
0.0000000001
 40
0.0
 40
0.0
 40
0.0
 40
0.0
 40
0.3333333333333333
 40
0.3333333333333333
 40
0.3333333333333333
 40
0.3333333333333333
 40
1.0
 40
1.0
 40
1.0
 40
1.0
 10
-19.4983
 20
6.4387
 30
0.0
 10
-20.4371
 20
6.4387
 30
0.0
 10
-21.1983
 20
5.6776
 30
0.0
 10
-21.1983
 20
4.7386
 30
0.0
 10
-21.1983
 20
4.7386
 30
0.0
 10
-21.1983
 20
3.7997
 30
0.0
 10
-20.4371
 20
3.0386
 30
0.0
 10
-19.4983
 20
3.0386
 30
0.0
  0
SPLINE
  5
77
330
1F
100
AcDbEntity
  8
DEFAULT_3
 62
   250
100
AcDbSpline
210
0.0
220
0.0
230
1.0
 70
     8
 71
     3
 72
    12
 73
     8
 74
     0
 42
0.0000000001
 43
0.0000000001
 40
0.0
 40
0.0
 40
0.0
 40
0.0
 40
0.3333333333333333
 40
0.3333333333333333
 40
0.3333333333333333
 40
0.3333333333333333
 40
1.0
 40
1.0
 40
1.0
 40
1.0
 10
-8.3349
 20
-2.5296
 30
0.0
 10
-7.3961
 20
-2.5296
 30
0.0
 10
-6.635
 20
-1.7685
 30
0.0
 10
-6.635
 20
-0.8296
 30
0.0
 10
-6.635
 20
-0.8296
 30
0.0
 10
-6.635
 20
0.1093
 30
0.0
 10
-7.3961
 20
0.8704
 30
0.0
 10
-8.3349
 20
0.8704
 30
0.0
  0
SPLINE
  5
78
330
1F
100
AcDbEntity
  8
DEFAULT_3
 62
   250
100
AcDbSpline
210
0.0
220
0.0
230
1.0
 70
     8
 71
     3
 72
    12
 73
     8
 74
     0
 42
0.0000000001
 43
0.0000000001
 40
0.0
 40
0.0
 40
0.0
 40
0.0
 40
0.3333333333333333
 40
0.3333333333333333
 40
0.3333333333333333
 40
0.3333333333333333
 40
1.0
 40
1.0
 40
1.0
 40
1.0
 10
-19.5349
 20
0.8704
 30
0.0
 10
-20.4738
 20
0.8704
 30
0.0
 10
-21.2349
 20
0.1093
 30
0.0
 10
-21.2349
 20
-0.8296
 30
0.0
 10
-21.2349
 20
-0.8296
 30
0.0
 10
-21.2349
 20
-1.7685
 30
0.0
 10
-20.4738
 20
-2.5296
 30
0.0
 10
-19.5349
 20
-2.5296
 30
0.0
  0
SPLINE
  5
79
330
1F
100
AcDbEntity
  8
DEFAULT_3
 62
   250
100
AcDbSpline
210
0.0
220
0.0
230
1.0
 70
     8
 71
     3
 72
    12
 73
     8
 74
     0
 42
0.0000000001
 43
0.0000000001
 40
0.0
 40
0.0
 40
0.0
 40
0.0
 40
0.3333333333333333
 40
0.3333333333333333
 40
0.3333333333333333
 40
0.3333333333333333
 40
1.0
 40
1.0
 40
1.0
 40
1.0
 10
-19.5349
 20
12.0578
 30
0.0
 10
-20.4738
 20
12.0578
 30
0.0
 10
-21.2349
 20
11.2967
 30
0.0
 10
-21.2349
 20
10.3578
 30
0.0
 10
-21.2349
 20
10.3578
 30
0.0
 10
-21.2349
 20
9.4189
 30
0.0
 10
-20.4738
 20
8.6578
 30
0.0
 10
-19.5349
 20
8.6578
 30
0.0
  0
SPLINE
  5
7A
330
1F
100
AcDbEntity
  8
DEFAULT_3
 62
   250
100
AcDbSpline
210
0.0
220
0.0
230
1.0
 70
    27
 71
     3
 72
    12
 73
     8
 74
     0
 42
0.0000000001
 43
0.0000000001
 40
0.0
 40
0.0
 40
0.0
 40
0.0
 40
0.3333333333333333
 40
0.3333333333333333
 40
0.3333333333333333
 40
0.3333333333333333
 40
1.0
 40
1.0
 40
1.0
 40
1.0
 10
-19.5349
 20
12.0578
 30
0.0
 10
-19.5349
 20
12.0578
 30
0.0
 10
-8.3349
 20
12.0578
 30
0.0
 10
-8.3349
 20
12.0578
 30
0.0
 10
-8.3349
 20
12.0578
 30
0.0
 10
-8.3349
 20
12.0578
 30
0.0
 10
-19.5349
 20
12.0578
 30
0.0
 10
-19.5349
 20
12.0578
 30
0.0
  0
SPLINE
  5
7B
330
1F
100
AcDbEntity
  8
DEFAULT_3
 62
   250
100
AcDbSpline
210
0.0
220
0.0
230
1.0
 70
    27
 71
     3
 72
    12
 73
     8
 74
     0
 42
0.0000000001
 43
0.0000000001
 40
0.0
 40
0.0
 40
0.0
 40
0.0
 40
0.3333333333333333
 40
0.3333333333333333
 40
0.3333333333333333
 40
0.3333333333333333
 40
1.0
 40
1.0
 40
1.0
 40
1.0
 10
-19.4983
 20
6.4387
 30
0.0
 10
-19.4983
 20
6.4387
 30
0.0
 10
-8.2983
 20
6.4387
 30
0.0
 10
-8.2983
 20
6.4387
 30
0.0
 10
-8.2983
 20
6.4387
 30
0.0
 10
-8.2983
 20
6.4387
 30
0.0
 10
-19.4983
 20
6.4387
 30
0.0
 10
-19.4983
 20
6.4387
 30
0.0
  0
SPLINE
  5
7C
330
1F
100
AcDbEntity
  8
DEFAULT_3
 62
   250
100
AcDbSpline
210
0.0
220
0.0
230
1.0
 70
    27
 71
     3
 72
    12
 73
     8
 74
     0
 42
0.0000000001
 43
0.0000000001
 40
0.0
 40
0.0
 40
0.0
 40
0.0
 40
0.3333333333333333
 40
0.3333333333333333
 40
0.3333333333333333
 40
0.3333333333333333
 40
1.0
 40
1.0
 40
1.0
 40
1.0
 10
-8.2983
 20
3.0386
 30
0.0
 10
-8.2983
 20
3.0386
 30
0.0
 10
-19.4983
 20
3.0386
 30
0.0
 10
-19.4983
 20
3.0386
 30
0.0
 10
-19.4983
 20
3.0386
 30
0.0
 10
-19.4983
 20
3.0386
 30
0.0
 10
-8.2983
 20
3.0386
 30
0.0
 10
-8.2983
 20
3.0386
 30
0.0
  0
SPLINE
  5
7D
330
1F
100
AcDbEntity
  8
DEFAULT_3
 62
   250
100
AcDbSpline
210
0.0
220
0.0
230
1.0
 70
    27
 71
     3
 72
    12
 73
     8
 74
     0
 42
0.0000000001
 43
0.0000000001
 40
0.0
 40
0.0
 40
0.0
 40
0.0
 40
0.3333333333333333
 40
0.3333333333333333
 40
0.3333333333333333
 40
0.3333333333333333
 40
1.0
 40
1.0
 40
1.0
 40
1.0
 10
-19.5349
 20
0.8704
 30
0.0
 10
-19.5349
 20
0.8704
 30
0.0
 10
-8.3349
 20
0.8704
 30
0.0
 10
-8.3349
 20
0.8704
 30
0.0
 10
-8.3349
 20
0.8704
 30
0.0
 10
-8.3349
 20
0.8704
 30
0.0
 10
-19.5349
 20
0.8704
 30
0.0
 10
-19.5349
 20
0.8704
 30
0.0
  0
SPLINE
  5
7E
330
1F
100
AcDbEntity
  8
DEFAULT_3
 62
   250
100
AcDbSpline
210
0.0
220
0.0
230
1.0
 70
    27
 71
     3
 72
    12
 73
     8
 74
     0
 42
0.0000000001
 43
0.0000000001
 40
0.0
 40
0.0
 40
0.0
 40
0.0
 40
0.3333333333333333
 40
0.3333333333333333
 40
0.3333333333333333
 40
0.3333333333333333
 40
1.0
 40
1.0
 40
1.0
 40
1.0
 10
-8.3349
 20
-2.5296
 30
0.0
 10
-8.3349
 20
-2.5296
 30
0.0
 10
-19.5349
 20
-2.5296
 30
0.0
 10
-19.5349
 20
-2.5296
 30
0.0
 10
-19.5349
 20
-2.5296
 30
0.0
 10
-19.5349
 20
-2.5296
 30
0.0
 10
-8.3349
 20
-2.5296
 30
0.0
 10
-8.3349
 20
-2.5296
 30
0.0
  0
SPLINE
  5
7F
330
1F
100
AcDbEntity
  8
DEFAULT_3
 62
   250
100
AcDbSpline
210
0.0
220
0.0
230
1.0
 70
    27
 71
     3
 72
    12
 73
     8
 74
     0
 42
0.0000000001
 43
0.0000000001
 40
0.0
 40
0.0
 40
0.0
 40
0.0
 40
0.3333333333333333
 40
0.3333333333333333
 40
0.3333333333333333
 40
0.3333333333333333
 40
1.0
 40
1.0
 40
1.0
 40
1.0
 10
-8.3349
 20
8.6578
 30
0.0
 10
-8.3349
 20
8.6578
 30
0.0
 10
-19.5349
 20
8.6578
 30
0.0
 10
-19.5349
 20
8.6578
 30
0.0
 10
-19.5349
 20
8.6578
 30
0.0
 10
-19.5349
 20
8.6578
 30
0.0
 10
-8.3349
 20
8.6578
 30
0.0
 10
-8.3349
 20
8.6578
 30
0.0
  0
SPLINE
  5
80
330
1F
100
AcDbEntity
  8
DEFAULT_3
 62
   250
100
AcDbSpline
210
0.0
220
0.0
230
1.0
 70
    24
 71
     3
 72
     8
 73
     4
 74
     0
 42
0.0000000001
 43
0.0000000001
 40
0.0
 40
0.0
 40
0.0
 40
0.0
 40
1.0
 40
1.0
 40
1.0
 40
1.0
 10
-25.1505
 20
16.208
 30
0.0
 10
-25.1505
 20
16.208
 30
0.0
 10
-25.1505
 20
22.9177
 30
0.0
 10
-25.1505
 20
22.9177
 30
0.0
  0
SPLINE
  5
81
330
1F
100
AcDbEntity
  8
DEFAULT_3
 62
   250
100
AcDbSpline
210
0.0
220
0.0
230
1.0
 70
    24
 71
     3
 72
     8
 73
     4
 74
     0
 42
0.0000000001
 43
0.0000000001
 40
0.0
 40
0.0
 40
0.0
 40
0.0
 40
1.0
 40
1.0
 40
1.0
 40
1.0
 10
15.5689
 20
16.9104
 30
0.0
 10
15.5689
 20
16.9104
 30
0.0
 10
15.5689
 20
23.077
 30
0.0
 10
15.5689
 20
23.077
 30
0.0
  0
SPLINE
  5
82
330
1F
100
AcDbEntity
  8
DEFAULT_3
 62
   250
100
AcDbSpline
210
0.0
220
0.0
230
1.0
 70
    24
 71
     3
 72
     8
 73
     4
 74
     0
 42
0.0000000001
 43
0.0000000001
 40
0.0
 40
0.0
 40
0.0
 40
0.0
 40
1.0
 40
1.0
 40
1.0
 40
1.0
 10
15.1976
 20
22.0541
 30
0.0
 10
15.1976
 20
22.0541
 30
0.0
 10
-24.6647
 20
22.0541
 30
0.0
 10
-24.6647
 20
22.0541
 30
0.0
  0
SPLINE
  5
83
330
1F
100
AcDbEntity
  8
DEFAULT_3
 62
   250
100
AcDbSpline
210
0.0
220
0.0
230
1.0
 70
    11
 71
     3
 72
    40
 73
    36
 74
     0
 42
0.0000000001
 43
0.0000000001
 40
0.0
 40
0.0
 40
0.0
 40
0.0
 40
0.1
 40
0.1
 40
0.1
 40
0.1
 40
0.2
 40
0.2
 40
0.2
 40
0.2
 40
0.3
 40
0.3
 40
0.3
 40
0.3
 40
0.4
 40
0.4
 40
0.4
 40
0.4
 40
0.5
 40
0.5
 40
0.5
 40
0.5
 40
0.6
 40
0.6
 40
0.6
 40
0.6
 40
0.7
 40
0.7
 40
0.7
 40
0.7
 40
0.8
 40
0.8
 40
0.8
 40
0.8
 40
1.0
 40
1.0
 40
1.0
 40
1.0
 10
-5.5846
 20
22.8137
 30
0.0
 10
-5.5846
 20
22.8137
 30
0.0
 10
-5.8325
 20
22.8137
 30
0.0
 10
-5.8325
 20
22.8137
 30
0.0
 10
-5.8325
 20
22.8137
 30
0.0
 10
-5.8325
 20
22.8137
 30
0.0
 10
-5.8325
 20
24.3941
 30
0.0
 10
-5.8325
 20
24.3941
 30
0.0
 10
-5.8325
 20
24.3941
 30
0.0
 10
-5.8923
 20
24.3372
 30
0.0
 10
-5.9703
 20
24.2803
 30
0.0
 10
-6.0672
 20
24.2234
 30
0.0
 10
-6.0672
 20
24.2234
 30
0.0
 10
-6.1646
 20
24.1665
 30
0.0
 10
-6.2516
 20
24.1237
 30
0.0
 10
-6.3288
 20
24.0954
 30
0.0
 10
-6.3288
 20
24.0954
 30
0.0
 10
-6.3288
 20
24.0954
 30
0.0
 10
-6.3288
 20
24.3349
 30
0.0
 10
-6.3288
 20
24.3349
 30
0.0
 10
-6.3288
 20
24.3349
 30
0.0
 10
-6.19
 20
24.4002
 30
0.0
 10
-6.0686
 20
24.4793
 30
0.0
 10
-5.9647
 20
24.5719
 30
0.0
 10
-5.9647
 20
24.5719
 30
0.0
 10
-5.8612
 20
24.6651
 30
0.0
 10
-5.7874
 20
24.7549
 30
0.0
 10
-5.7441
 20
24.8424
 30
0.0
 10
-5.7441
 20
24.8424
 30
0.0
 10
-5.7441
 20
24.8424
 30
0.0
 10
-5.5846
 20
24.8424
 30
0.0
 10
-5.5846
 20
24.8424
 30
0.0
 10
-5.5846
 20
24.8424
 30
0.0
 10
-5.5846
 20
24.8424
 30
0.0
 10
-5.5846
 20
22.8137
 30
0.0
 10
-5.5846
 20
22.8137
 30
0.0
  0
SPLINE
  5
84
330
1F
100
AcDbEntity
  8
DEFAULT_3
 62
   250
100
AcDbSpline
210
0.0
220
0.0
230
1.0
 70
    11
 71
     3
 72
    52
 73
    48
 74
     0
 42
0.0000000001
 43
0.0000000001
 40
0.0
 40
0.0
 40
0.0
 40
0.0
 40
0.0769230769230769
 40
0.0769230769230769
 40
0.0769230769230769
 40
0.0769230769230769
 40
0.1538461538461539
 40
0.1538461538461539
 40
0.1538461538461539
 40
0.1538461538461539
 40
0.2307692307692308
 40
0.2307692307692308
 40
0.2307692307692308
 40
0.2307692307692308
 40
0.3076923076923077
 40
0.3076923076923077
 40
0.3076923076923077
 40
0.3076923076923077
 40
0.3846153846153846
 40
0.3846153846153846
 40
0.3846153846153846
 40
0.3846153846153846
 40
0.4615384615384616
 40
0.4615384615384616
 40
0.4615384615384616
 40
0.4615384615384616
 40
0.5384615384615384
 40
0.5384615384615384
 40
0.5384615384615384
 40
0.5384615384615384
 40
0.6153846153846154
 40
0.6153846153846154
 40
0.6153846153846154
 40
0.6153846153846154
 40
0.6923076923076923
 40
0.6923076923076923
 40
0.6923076923076923
 40
0.6923076923076923
 40
0.7692307692307693
 40
0.7692307692307693
 40
0.7692307692307693
 40
0.7692307692307693
 40
0.8461538461538461
 40
0.8461538461538461
 40
0.8461538461538461
 40
0.8461538461538461
 40
1.0
 40
1.0
 40
1.0
 40
1.0
 10
-4.9492
 20
23.8099
 30
0.0
 10
-4.9492
 20
24.0489
 30
0.0
 10
-4.9247
 20
24.2413
 30
0.0
 10
-4.8753
 20
24.3866
 30
0.0
 10
-4.8753
 20
24.3866
 30
0.0
 10
-4.8264
 20
24.5324
 30
0.0
 10
-4.753
 20
24.6448
 30
0.0
 10
-4.6561
 20
24.7239
 30
0.0
 10
-4.6561
 20
24.7239
 30
0.0
 10
-4.5592
 20
24.8029
 30
0.0
 10
-4.4374
 20
24.8424
 30
0.0
 10
-4.2907
 20
24.8424
 30
0.0
 10
-4.2907
 20
24.8424
 30
0.0
 10
-4.182
 20
24.8424
 30
0.0
 10
-4.087
 20
24.8203
 30
0.0
 10
-4.0052
 20
24.7765
 30
0.0
 10
-4.0052
 20
24.7765
 30
0.0
 10
-3.9233
 20
24.7333
 30
0.0
 10
-3.856
 20
24.6702
 30
0.0
 10
-3.8024
 20
24.5879
 30
0.0
 10
-3.8024
 20
24.5879
 30
0.0
 10
-3.7493
 20
24.5056
 30
0.0
 10
-3.7074
 20
24.4054
 30
0.0
 10
-3.6773
 20
24.2874
 30
0.0
 10
-3.6773
 20
24.2874
 30
0.0
 10
-3.6467
 20
24.1693
 30
0.0
 10
-3.6317
 20
24.0103
 30
0.0
 10
-3.6317
 20
23.8099
 30
0.0
 10
-3.6317
 20
23.8099
 30
0.0
 10
-3.6317
 20
23.5729
 30
0.0
 10
-3.6561
 20
23.3819
 30
0.0
 10
-3.7046
 20
23.2361
 30
0.0
 10
-3.7046
 20
23.2361
 30
0.0
 10
-3.7535
 20
23.0903
 30
0.0
 10
-3.8264
 20
22.9779
 30
0.0
 10
-3.9233
 20
22.8984
 30
0.0
 10
-3.9233
 20
22.8984
 30
0.0
 10
-4.0202
 20
22.8189
 30
0.0
 10
-4.1425
 20
22.7794
 30
0.0
 10
-4.2907
 20
22.7794
 30
0.0
 10
-4.2907
 20
22.7794
 30
0.0
 10
-4.4854
 20
22.7794
 30
0.0
 10
-4.6383
 20
22.849
 30
0.0
 10
-4.7493
 20
22.9887
 30
0.0
 10
-4.7493
 20
22.9887
 30
0.0
 10
-4.8824
 20
23.1566
 30
0.0
 10
-4.9492
 20
23.4308
 30
0.0
 10
-4.9492
 20
23.8099
 30
0.0
  0
SPLINE
  5
85
330
1F
100
AcDbEntity
  8
DEFAULT_3
 62
   250
100
AcDbSpline
210
0.0
220
0.0
230
1.0
 70
    11
 71
     3
 72
    36
 73
    32
 74
     0
 42
0.0000000001
 43
0.0000000001
 40
0.0
 40
0.0
 40
0.0
 40
0.0
 40
0.1111111111111111
 40
0.1111111111111111
 40
0.1111111111111111
 40
0.1111111111111111
 40
0.2222222222222222
 40
0.2222222222222222
 40
0.2222222222222222
 40
0.2222222222222222
 40
0.3333333333333333
 40
0.3333333333333333
 40
0.3333333333333333
 40
0.3333333333333333
 40
0.4444444444444444
 40
0.4444444444444444
 40
0.4444444444444444
 40
0.4444444444444444
 40
0.5555555555555556
 40
0.5555555555555556
 40
0.5555555555555556
 40
0.5555555555555556
 40
0.6666666666666666
 40
0.6666666666666666
 40
0.6666666666666666
 40
0.6666666666666666
 40
0.7777777777777778
 40
0.7777777777777778
 40
0.7777777777777778
 40
0.7777777777777778
 40
1.0
 40
1.0
 40
1.0
 40
1.0
 10
-4.6942
 20
23.8099
 30
0.0
 10
-4.6942
 20
23.4783
 30
0.0
 10
-4.6552
 20
23.2577
 30
0.0
 10
-4.5776
 20
23.1477
 30
0.0
 10
-4.5776
 20
23.1477
 30
0.0
 10
-4.5
 20
23.0381
 30
0.0
 10
-4.4045
 20
22.983
 30
0.0
 10
-4.2907
 20
22.983
 30
0.0
 10
-4.2907
 20
22.983
 30
0.0
 10
-4.1764
 20
22.983
 30
0.0
 10
-4.0809
 20
23.0385
 30
0.0
 10
-4.0033
 20
23.1486
 30
0.0
 10
-4.0033
 20
23.1486
 30
0.0
 10
-3.9257
 20
23.2587
 30
0.0
 10
-3.8866
 20
23.4793
 30
0.0
 10
-3.8866
 20
23.8099
 30
0.0
 10
-3.8866
 20
23.8099
 30
0.0
 10
-3.8866
 20
24.1425
 30
0.0
 10
-3.9257
 20
24.3636
 30
0.0
 10
-4.0033
 20
24.4727
 30
0.0
 10
-4.0033
 20
24.4727
 30
0.0
 10
-4.0809
 20
24.5823
 30
0.0
 10
-4.1773
 20
24.6368
 30
0.0
 10
-4.293
 20
24.6368
 30
0.0
 10
-4.293
 20
24.6368
 30
0.0
 10
-4.4073
 20
24.6368
 30
0.0
 10
-4.4981
 20
24.5884
 30
0.0
 10
-4.5663
 20
24.492
 30
0.0
 10
-4.5663
 20
24.492
 30
0.0
 10
-4.6514
 20
24.3692
 30
0.0
 10
-4.6942
 20
24.1415
 30
0.0
 10
-4.6942
 20
23.8099
 30
0.0
  0
SPLINE
  5
86
330
1F
100
AcDbEntity
  8
DEFAULT_3
 62
   250
100
AcDbSpline
210
0.0
220
0.0
230
1.0
 70
    11
 71
     3
 72
    92
 73
    88
 74
     0
 42
0.0000000001
 43
0.0000000001
 40
0.0
 40
0.0
 40
0.0
 40
0.0
 40
0.0434782608695652
 40
0.0434782608695652
 40
0.0434782608695652
 40
0.0434782608695652
 40
0.0869565217391304
 40
0.0869565217391304
 40
0.0869565217391304
 40
0.0869565217391304
 40
0.1304347826086956
 40
0.1304347826086956
 40
0.1304347826086956
 40
0.1304347826086956
 40
0.1739130434782609
 40
0.1739130434782609
 40
0.1739130434782609
 40
0.1739130434782609
 40
0.2173913043478261
 40
0.2173913043478261
 40
0.2173913043478261
 40
0.2173913043478261
 40
0.2608695652173913
 40
0.2608695652173913
 40
0.2608695652173913
 40
0.2608695652173913
 40
0.3043478260869565
 40
0.3043478260869565
 40
0.3043478260869565
 40
0.3043478260869565
 40
0.3478260869565217
 40
0.3478260869565217
 40
0.3478260869565217
 40
0.3478260869565217
 40
0.391304347826087
 40
0.391304347826087
 40
0.391304347826087
 40
0.391304347826087
 40
0.4347826086956522
 40
0.4347826086956522
 40
0.4347826086956522
 40
0.4347826086956522
 40
0.4782608695652174
 40
0.4782608695652174
 40
0.4782608695652174
 40
0.4782608695652174
 40
0.5217391304347826
 40
0.5217391304347826
 40
0.5217391304347826
 40
0.5217391304347826
 40
0.5652173913043478
 40
0.5652173913043478
 40
0.5652173913043478
 40
0.5652173913043478
 40
0.6086956521739131
 40
0.6086956521739131
 40
0.6086956521739131
 40
0.6086956521739131
 40
0.6521739130434783
 40
0.6521739130434783
 40
0.6521739130434783
 40
0.6521739130434783
 40
0.6956521739130435
 40
0.6956521739130435
 40
0.6956521739130435
 40
0.6956521739130435
 40
0.7391304347826086
 40
0.7391304347826086
 40
0.7391304347826086
 40
0.7391304347826086
 40
0.782608695652174
 40
0.782608695652174
 40
0.782608695652174
 40
0.782608695652174
 40
0.8260869565217391
 40
0.8260869565217391
 40
0.8260869565217391
 40
0.8260869565217391
 40
0.8695652173913043
 40
0.8695652173913043
 40
0.8695652173913043
 40
0.8695652173913043
 40
0.9130434782608695
 40
0.9130434782608695
 40
0.9130434782608695
 40
0.9130434782608695
 40
1.0
 40
1.0
 40
1.0
 40
1.0
 10
-2.0757
 20
23.0522
 30
0.0
 10
-2.0757
 20
23.0522
 30
0.0
 10
-2.0757
 20
22.8137
 30
0.0
 10
-2.0757
 20
22.8137
 30
0.0
 10
-2.0757
 20
22.8137
 30
0.0
 10
-2.0757
 20
22.8137
 30
0.0
 10
-3.4111
 20
22.8137
 30
0.0
 10
-3.4111
 20
22.8137
 30
0.0
 10
-3.4111
 20
22.8137
 30
0.0
 10
-3.413
 20
22.8734
 30
0.0
 10
-3.4036
 20
22.9308
 30
0.0
 10
-3.3824
 20
22.9859
 30
0.0
 10
-3.3824
 20
22.9859
 30
0.0
 10
-3.3485
 20
23.0771
 30
0.0
 10
-3.294
 20
23.1665
 30
0.0
 10
-3.2192
 20
23.2549
 30
0.0
 10
-3.2192
 20
23.2549
 30
0.0
 10
-3.1439
 20
23.3429
 30
0.0
 10
-3.0357
 20
23.4449
 30
0.0
 10
-2.8946
 20
23.5606
 30
0.0
 10
-2.8946
 20
23.5606
 30
0.0
 10
-2.675
 20
23.7408
 30
0.0
 10
-2.5263
 20
23.8833
 30
0.0
 10
-2.4492
 20
23.9887
 30
0.0
 10
-2.4492
 20
23.9887
 30
0.0
 10
-2.3721
 20
24.0936
 30
0.0
 10
-2.3335
 20
24.1933
 30
0.0
 10
-2.3335
 20
24.2869
 30
0.0
 10
-2.3335
 20
24.2869
 30
0.0
 10
-2.3335
 20
24.3852
 30
0.0
 10
-2.3688
 20
24.468
 30
0.0
 10
-2.4388
 20
24.5357
 30
0.0
 10
-2.4388
 20
24.5357
 30
0.0
 10
-2.5094
 20
24.603
 30
0.0
 10
-2.6011
 20
24.6368
 30
0.0
 10
-2.714
 20
24.6368
 30
0.0
 10
-2.714
 20
24.6368
 30
0.0
 10
-2.8335
 20
24.6368
 30
0.0
 10
-2.929
 20
24.6011
 30
0.0
 10
-3.0005
 20
24.5291
 30
0.0
 10
-3.0005
 20
24.5291
 30
0.0
 10
-3.0724
 20
24.4576
 30
0.0
 10
-3.1086
 20
24.3584
 30
0.0
 10
-3.1096
 20
24.2319
 30
0.0
 10
-3.1096
 20
24.2319
 30
0.0
 10
-3.1096
 20
24.2319
 30
0.0
 10
-3.3645
 20
24.2577
 30
0.0
 10
-3.3645
 20
24.2577
 30
0.0
 10
-3.3645
 20
24.2577
 30
0.0
 10
-3.3471
 20
24.4482
 30
0.0
 10
-3.2813
 20
24.5931
 30
0.0
 10
-3.1674
 20
24.6928
 30
0.0
 10
-3.1674
 20
24.6928
 30
0.0
 10
-3.0536
 20
24.7925
 30
0.0
 10
-2.9003
 20
24.8424
 30
0.0
 10
-2.7084
 20
24.8424
 30
0.0
 10
-2.7084
 20
24.8424
 30
0.0
 10
-2.5146
 20
24.8424
 30
0.0
 10
-2.3612
 20
24.7883
 30
0.0
 10
-2.2483
 20
24.6811
 30
0.0
 10
-2.2483
 20
24.6811
 30
0.0
 10
-2.135
 20
24.5733
 30
0.0
 10
-2.0785
 20
24.4402
 30
0.0
 10
-2.0785
 20
24.2812
 30
0.0
 10
-2.0785
 20
24.2812
 30
0.0
 10
-2.0785
 20
24.2003
 30
0.0
 10
-2.095
 20
24.1208
 30
0.0
 10
-2.1284
 20
24.0428
 30
0.0
 10
-2.1284
 20
24.0428
 30
0.0
 10
-2.1613
 20
23.9647
 30
0.0
 10
-2.2164
 20
23.8824
 30
0.0
 10
-2.293
 20
23.7963
 30
0.0
 10
-2.293
 20
23.7963
 30
0.0
 10
-2.3697
 20
23.7097
 30
0.0
 10
-2.4972
 20
23.5912
 30
0.0
 10
-2.6754
 20
23.4407
 30
0.0
 10
-2.6754
 20
23.4407
 30
0.0
 10
-2.8241
 20
23.3156
 30
0.0
 10
-2.9196
 20
23.2309
 30
0.0
 10
-2.9619
 20
23.1862
 30
0.0
 10
-2.9619
 20
23.1862
 30
0.0
 10
-3.0042
 20
23.142
 30
0.0
 10
-3.039
 20
23.0973
 30
0.0
 10
-3.0668
 20
23.0522
 30
0.0
 10
-3.0668
 20
23.0522
 30
0.0
 10
-3.0668
 20
23.0522
 30
0.0
 10
-2.0757
 20
23.0522
 30
0.0
 10
-2.0757
 20
23.0522
 30
0.0
  0
SPLINE
  5
87
330
1F
100
AcDbEntity
  8
DEFAULT_3
 62
   250
100
AcDbSpline
210
0.0
220
0.0
230
1.0
 70
    11
 71
     3
 72
    20
 73
    16
 74
     0
 42
0.0000000001
 43
0.0000000001
 40
0.0
 40
0.0
 40
0.0
 40
0.0
 40
0.2
 40
0.2
 40
0.2
 40
0.2
 40
0.4
 40
0.4
 40
0.4
 40
0.4
 40
0.6
 40
0.6
 40
0.6
 40
0.6
 40
1.0
 40
1.0
 40
1.0
 40
1.0
 10
12.9962
 20
22.4341
 30
0.0
 10
12.9962
 20
22.4341
 30
0.0
 10
15.4962
 20
22.0812
 30
0.0
 10
15.4962
 20
22.0812
 30
0.0
 10
15.4962
 20
22.0812
 30
0.0
 10
15.4962
 20
22.0812
 30
0.0
 10
15.4962
 20
22.0029
 30
0.0
 10
15.4962
 20
22.0029
 30
0.0
 10
15.4962
 20
22.0029
 30
0.0
 10
15.4962
 20
22.0029
 30
0.0
 10
12.9962
 20
21.6266
 30
0.0
 10
12.9962
 20
21.6266
 30
0.0
 10
12.9962
 20
21.6266
 30
0.0
 10
12.9962
 20
21.6266
 30
0.0
 10
12.9962
 20
22.4341
 30
0.0
 10
12.9962
 20
22.4341
 30
0.0
  0
SPLINE
  5
88
330
1F
100
AcDbEntity
  8
DEFAULT_3
 62
   250
100
AcDbSpline
210
0.0
220
0.0
230
1.0
 70
    11
 71
     3
 72
    20
 73
    16
 74
     0
 42
0.0000000001
 43
0.0000000001
 40
0.0
 40
0.0
 40
0.0
 40
0.0
 40
0.2
 40
0.2
 40
0.2
 40
0.2
 40
0.4
 40
0.4
 40
0.4
 40
0.4
 40
0.6
 40
0.6
 40
0.6
 40
0.6
 40
1.0
 40
1.0
 40
1.0
 40
1.0
 10
-22.5629
 20
21.6545
 30
0.0
 10
-22.5629
 20
21.6545
 30
0.0
 10
-25.0629
 20
22.0074
 30
0.0
 10
-25.0629
 20
22.0074
 30
0.0
 10
-25.0629
 20
22.0074
 30
0.0
 10
-25.0629
 20
22.0074
 30
0.0
 10
-25.0629
 20
22.0857
 30
0.0
 10
-25.0629
 20
22.0857
 30
0.0
 10
-25.0629
 20
22.0857
 30
0.0
 10
-25.0629
 20
22.0857
 30
0.0
 10
-22.5629
 20
22.462
 30
0.0
 10
-22.5629
 20
22.462
 30
0.0
 10
-22.5629
 20
22.462
 30
0.0
 10
-22.5629
 20
22.462
 30
0.0
 10
-22.5629
 20
21.6545
 30
0.0
 10
-22.5629
 20
21.6545
 30
0.0
  0
SPLINE
  5
89
330
1F
100
AcDbEntity
  8
DEFAULT_3
 62
   250
100
AcDbSpline
210
0.0
220
0.0
230
1.0
 70
    24
 71
     3
 72
     8
 73
     4
 74
     0
 42
0.0000000001
 43
0.0000000001
 40
0.0
 40
0.0
 40
0.0
 40
0.0
 40
1.0
 40
1.0
 40
1.0
 40
1.0
 10
-25.7735
 20
-24.7686
 30
0.0
 10
-25.7735
 20
-24.7686
 30
0.0
 10
-32.4832
 20
-24.7686
 30
0.0
 10
-32.4832
 20
-24.7686
 30
0.0
  0
SPLINE
  5
8A
330
1F
100
AcDbEntity
  8
DEFAULT_3
 62
   250
100
AcDbSpline
210
0.0
220
0.0
230
1.0
 70
    24
 71
     3
 72
     8
 73
     4
 74
     0
 42
0.0000000001
 43
0.0000000001
 40
0.0
 40
0.0
 40
0.0
 40
0.0
 40
1.0
 40
1.0
 40
1.0
 40
1.0
 10
-26.4759
 20
15.9508
 30
0.0
 10
-26.4759
 20
15.9508
 30
0.0
 10
-32.6425
 20
15.9508
 30
0.0
 10
-32.6425
 20
15.9508
 30
0.0
  0
SPLINE
  5
8B
330
1F
100
AcDbEntity
  8
DEFAULT_3
 62
   250
100
AcDbSpline
210
0.0
220
0.0
230
1.0
 70
    24
 71
     3
 72
     8
 73
     4
 74
     0
 42
0.0000000001
 43
0.0000000001
 40
0.0
 40
0.0
 40
0.0
 40
0.0
 40
1.0
 40
1.0
 40
1.0
 40
1.0
 10
-31.6196
 20
15.5795
 30
0.0
 10
-31.6196
 20
15.5795
 30
0.0
 10
-31.6196
 20
-24.2828
 30
0.0
 10
-31.6196
 20
-24.2828
 30
0.0
  0
SPLINE
  5
8C
330
1F
100
AcDbEntity
  8
DEFAULT_3
 62
   250
100
AcDbSpline
210
0.0
220
0.0
230
1.0
 70
    11
 71
     3
 72
    40
 73
    36
 74
     0
 42
0.0000000001
 43
0.0000000001
 40
0.0
 40
0.0
 40
0.0
 40
0.0
 40
0.1
 40
0.1
 40
0.1
 40
0.1
 40
0.2
 40
0.2
 40
0.2
 40
0.2
 40
0.3
 40
0.3
 40
0.3
 40
0.3
 40
0.4
 40
0.4
 40
0.4
 40
0.4
 40
0.5
 40
0.5
 40
0.5
 40
0.5
 40
0.6
 40
0.6
 40
0.6
 40
0.6
 40
0.7
 40
0.7
 40
0.7
 40
0.7
 40
0.8
 40
0.8
 40
0.8
 40
0.8
 40
1.0
 40
1.0
 40
1.0
 40
1.0
 10
-32.3792
 20
-5.2027
 30
0.0
 10
-32.3792
 20
-5.2027
 30
0.0
 10
-32.3792
 20
-5.4506
 30
0.0
 10
-32.3792
 20
-5.4506
 30
0.0
 10
-32.3792
 20
-5.4506
 30
0.0
 10
-32.3792
 20
-5.4506
 30
0.0
 10
-33.9596
 20
-5.4506
 30
0.0
 10
-33.9596
 20
-5.4506
 30
0.0
 10
-33.9596
 20
-5.4506
 30
0.0
 10
-33.9027
 20
-5.5104
 30
0.0
 10
-33.8458
 20
-5.5884
 30
0.0
 10
-33.7889
 20
-5.6853
 30
0.0
 10
-33.7889
 20
-5.6853
 30
0.0
 10
-33.732
 20
-5.7827
 30
0.0
 10
-33.6892
 20
-5.8697
 30
0.0
 10
-33.6609
 20
-5.9469
 30
0.0
 10
-33.6609
 20
-5.9469
 30
0.0
 10
-33.6609
 20
-5.9469
 30
0.0
 10
-33.9004
 20
-5.9469
 30
0.0
 10
-33.9004
 20
-5.9469
 30
0.0
 10
-33.9004
 20
-5.9469
 30
0.0
 10
-33.9657
 20
-5.8081
 30
0.0
 10
-34.0448
 20
-5.6867
 30
0.0
 10
-34.1374
 20
-5.5828
 30
0.0
 10
-34.1374
 20
-5.5828
 30
0.0
 10
-34.2306
 20
-5.4793
 30
0.0
 10
-34.3204
 20
-5.4055
 30
0.0
 10
-34.4079
 20
-5.3622
 30
0.0
 10
-34.4079
 20
-5.3622
 30
0.0
 10
-34.4079
 20
-5.3622
 30
0.0
 10
-34.4079
 20
-5.2027
 30
0.0
 10
-34.4079
 20
-5.2027
 30
0.0
 10
-34.4079
 20
-5.2027
 30
0.0
 10
-34.4079
 20
-5.2027
 30
0.0
 10
-32.3792
 20
-5.2027
 30
0.0
 10
-32.3792
 20
-5.2027
 30
0.0
  0
SPLINE
  5
8D
330
1F
100
AcDbEntity
  8
DEFAULT_3
 62
   250
100
AcDbSpline
210
0.0
220
0.0
230
1.0
 70
    11
 71
     3
 72
    52
 73
    48
 74
     0
 42
0.0000000001
 43
0.0000000001
 40
0.0
 40
0.0
 40
0.0
 40
0.0
 40
0.0769230769230769
 40
0.0769230769230769
 40
0.0769230769230769
 40
0.0769230769230769
 40
0.1538461538461539
 40
0.1538461538461539
 40
0.1538461538461539
 40
0.1538461538461539
 40
0.2307692307692308
 40
0.2307692307692308
 40
0.2307692307692308
 40
0.2307692307692308
 40
0.3076923076923077
 40
0.3076923076923077
 40
0.3076923076923077
 40
0.3076923076923077
 40
0.3846153846153846
 40
0.3846153846153846
 40
0.3846153846153846
 40
0.3846153846153846
 40
0.4615384615384616
 40
0.4615384615384616
 40
0.4615384615384616
 40
0.4615384615384616
 40
0.5384615384615384
 40
0.5384615384615384
 40
0.5384615384615384
 40
0.5384615384615384
 40
0.6153846153846154
 40
0.6153846153846154
 40
0.6153846153846154
 40
0.6153846153846154
 40
0.6923076923076923
 40
0.6923076923076923
 40
0.6923076923076923
 40
0.6923076923076923
 40
0.7692307692307693
 40
0.7692307692307693
 40
0.7692307692307693
 40
0.7692307692307693
 40
0.8461538461538461
 40
0.8461538461538461
 40
0.8461538461538461
 40
0.8461538461538461
 40
1.0
 40
1.0
 40
1.0
 40
1.0
 10
-33.3754
 20
-4.5673
 30
0.0
 10
-33.6144
 20
-4.5673
 30
0.0
 10
-33.8068
 20
-4.5428
 30
0.0
 10
-33.9521
 20
-4.4934
 30
0.0
 10
-33.9521
 20
-4.4934
 30
0.0
 10
-34.0979
 20
-4.4445
 30
0.0
 10
-34.2103
 20
-4.3711
 30
0.0
 10
-34.2894
 20
-4.2742
 30
0.0
 10
-34.2894
 20
-4.2742
 30
0.0
 10
-34.3684
 20
-4.1773
 30
0.0
 10
-34.4079
 20
-4.0555
 30
0.0
 10
-34.4079
 20
-3.9088
 30
0.0
 10
-34.4079
 20
-3.9088
 30
0.0
 10
-34.4079
 20
-3.8001
 30
0.0
 10
-34.3858
 20
-3.7051
 30
0.0
 10
-34.342
 20
-3.6233
 30
0.0
 10
-34.342
 20
-3.6233
 30
0.0
 10
-34.2988
 20
-3.5414
 30
0.0
 10
-34.2357
 20
-3.4741
 30
0.0
 10
-34.1534
 20
-3.4205
 30
0.0
 10
-34.1534
 20
-3.4205
 30
0.0
 10
-34.0711
 20
-3.3674
 30
0.0
 10
-33.9709
 20
-3.3255
 30
0.0
 10
-33.8529
 20
-3.2954
 30
0.0
 10
-33.8529
 20
-3.2954
 30
0.0
 10
-33.7348
 20
-3.2648
 30
0.0
 10
-33.5758
 20
-3.2498
 30
0.0
 10
-33.3754
 20
-3.2498
 30
0.0
 10
-33.3754
 20
-3.2498
 30
0.0
 10
-33.1384
 20
-3.2498
 30
0.0
 10
-32.9474
 20
-3.2742
 30
0.0
 10
-32.8016
 20
-3.3227
 30
0.0
 10
-32.8016
 20
-3.3227
 30
0.0
 10
-32.6558
 20
-3.3716
 30
0.0
 10
-32.5434
 20
-3.4445
 30
0.0
 10
-32.4639
 20
-3.5414
 30
0.0
 10
-32.4639
 20
-3.5414
 30
0.0
 10
-32.3844
 20
-3.6383
 30
0.0
 10
-32.3449
 20
-3.7606
 30
0.0
 10
-32.3449
 20
-3.9088
 30
0.0
 10
-32.3449
 20
-3.9088
 30
0.0
 10
-32.3449
 20
-4.1035
 30
0.0
 10
-32.4145
 20
-4.2564
 30
0.0
 10
-32.5542
 20
-4.3674
 30
0.0
 10
-32.5542
 20
-4.3674
 30
0.0
 10
-32.7221
 20
-4.5005
 30
0.0
 10
-32.9963
 20
-4.5673
 30
0.0
 10
-33.3754
 20
-4.5673
 30
0.0
  0
SPLINE
  5
8E
330
1F
100
AcDbEntity
  8
DEFAULT_3
 62
   250
100
AcDbSpline
210
0.0
220
0.0
230
1.0
 70
    11
 71
     3
 72
    36
 73
    32
 74
     0
 42
0.0000000001
 43
0.0000000001
 40
0.0
 40
0.0
 40
0.0
 40
0.0
 40
0.1111111111111111
 40
0.1111111111111111
 40
0.1111111111111111
 40
0.1111111111111111
 40
0.2222222222222222
 40
0.2222222222222222
 40
0.2222222222222222
 40
0.2222222222222222
 40
0.3333333333333333
 40
0.3333333333333333
 40
0.3333333333333333
 40
0.3333333333333333
 40
0.4444444444444444
 40
0.4444444444444444
 40
0.4444444444444444
 40
0.4444444444444444
 40
0.5555555555555556
 40
0.5555555555555556
 40
0.5555555555555556
 40
0.5555555555555556
 40
0.6666666666666666
 40
0.6666666666666666
 40
0.6666666666666666
 40
0.6666666666666666
 40
0.7777777777777778
 40
0.7777777777777778
 40
0.7777777777777778
 40
0.7777777777777778
 40
1.0
 40
1.0
 40
1.0
 40
1.0
 10
-33.3754
 20
-4.3123
 30
0.0
 10
-33.0438
 20
-4.3123
 30
0.0
 10
-32.8232
 20
-4.2733
 30
0.0
 10
-32.7132
 20
-4.1957
 30
0.0
 10
-32.7132
 20
-4.1957
 30
0.0
 10
-32.6036
 20
-4.1181
 30
0.0
 10
-32.5485
 20
-4.0226
 30
0.0
 10
-32.5485
 20
-3.9088
 30
0.0
 10
-32.5485
 20
-3.9088
 30
0.0
 10
-32.5485
 20
-3.7945
 30
0.0
 10
-32.604
 20
-3.699
 30
0.0
 10
-32.7141
 20
-3.6214
 30
0.0
 10
-32.7141
 20
-3.6214
 30
0.0
 10
-32.8242
 20
-3.5438
 30
0.0
 10
-33.0448
 20
-3.5047
 30
0.0
 10
-33.3754
 20
-3.5047
 30
0.0
 10
-33.3754
 20
-3.5047
 30
0.0
 10
-33.708
 20
-3.5047
 30
0.0
 10
-33.9291
 20
-3.5438
 30
0.0
 10
-34.0382
 20
-3.6214
 30
0.0
 10
-34.0382
 20
-3.6214
 30
0.0
 10
-34.1478
 20
-3.699
 30
0.0
 10
-34.2023
 20
-3.7954
 30
0.0
 10
-34.2023
 20
-3.9111
 30
0.0
 10
-34.2023
 20
-3.9111
 30
0.0
 10
-34.2023
 20
-4.0254
 30
0.0
 10
-34.1539
 20
-4.1162
 30
0.0
 10
-34.0575
 20
-4.1844
 30
0.0
 10
-34.0575
 20
-4.1844
 30
0.0
 10
-33.9347
 20
-4.2695
 30
0.0
 10
-33.707
 20
-4.3123
 30
0.0
 10
-33.3754
 20
-4.3123
 30
0.0
  0
SPLINE
  5
8F
330
1F
100
AcDbEntity
  8
DEFAULT_3
 62
   250
100
AcDbSpline
210
0.0
220
0.0
230
1.0
 70
    11
 71
     3
 72
    92
 73
    88
 74
     0
 42
0.0000000001
 43
0.0000000001
 40
0.0
 40
0.0
 40
0.0
 40
0.0
 40
0.0434782608695652
 40
0.0434782608695652
 40
0.0434782608695652
 40
0.0434782608695652
 40
0.0869565217391304
 40
0.0869565217391304
 40
0.0869565217391304
 40
0.0869565217391304
 40
0.1304347826086956
 40
0.1304347826086956
 40
0.1304347826086956
 40
0.1304347826086956
 40
0.1739130434782609
 40
0.1739130434782609
 40
0.1739130434782609
 40
0.1739130434782609
 40
0.2173913043478261
 40
0.2173913043478261
 40
0.2173913043478261
 40
0.2173913043478261
 40
0.2608695652173913
 40
0.2608695652173913
 40
0.2608695652173913
 40
0.2608695652173913
 40
0.3043478260869565
 40
0.3043478260869565
 40
0.3043478260869565
 40
0.3043478260869565
 40
0.3478260869565217
 40
0.3478260869565217
 40
0.3478260869565217
 40
0.3478260869565217
 40
0.391304347826087
 40
0.391304347826087
 40
0.391304347826087
 40
0.391304347826087
 40
0.4347826086956522
 40
0.4347826086956522
 40
0.4347826086956522
 40
0.4347826086956522
 40
0.4782608695652174
 40
0.4782608695652174
 40
0.4782608695652174
 40
0.4782608695652174
 40
0.5217391304347826
 40
0.5217391304347826
 40
0.5217391304347826
 40
0.5217391304347826
 40
0.5652173913043478
 40
0.5652173913043478
 40
0.5652173913043478
 40
0.5652173913043478
 40
0.6086956521739131
 40
0.6086956521739131
 40
0.6086956521739131
 40
0.6086956521739131
 40
0.6521739130434783
 40
0.6521739130434783
 40
0.6521739130434783
 40
0.6521739130434783
 40
0.6956521739130435
 40
0.6956521739130435
 40
0.6956521739130435
 40
0.6956521739130435
 40
0.7391304347826086
 40
0.7391304347826086
 40
0.7391304347826086
 40
0.7391304347826086
 40
0.782608695652174
 40
0.782608695652174
 40
0.782608695652174
 40
0.782608695652174
 40
0.8260869565217391
 40
0.8260869565217391
 40
0.8260869565217391
 40
0.8260869565217391
 40
0.8695652173913043
 40
0.8695652173913043
 40
0.8695652173913043
 40
0.8695652173913043
 40
0.9130434782608695
 40
0.9130434782608695
 40
0.9130434782608695
 40
0.9130434782608695
 40
1.0
 40
1.0
 40
1.0
 40
1.0
 10
-32.6177
 20
-1.6938
 30
0.0
 10
-32.6177
 20
-1.6938
 30
0.0
 10
-32.3792
 20
-1.6938
 30
0.0
 10
-32.3792
 20
-1.6938
 30
0.0
 10
-32.3792
 20
-1.6938
 30
0.0
 10
-32.3792
 20
-1.6938
 30
0.0
 10
-32.3792
 20
-3.0292
 30
0.0
 10
-32.3792
 20
-3.0292
 30
0.0
 10
-32.3792
 20
-3.0292
 30
0.0
 10
-32.4389
 20
-3.0311
 30
0.0
 10
-32.4963
 20
-3.0217
 30
0.0
 10
-32.5514
 20
-3.0005
 30
0.0
 10
-32.5514
 20
-3.0005
 30
0.0
 10
-32.6426
 20
-2.9666
 30
0.0
 10
-32.732
 20
-2.9121
 30
0.0
 10
-32.8204
 20
-2.8373
 30
0.0
 10
-32.8204
 20
-2.8373
 30
0.0
 10
-32.9084
 20
-2.762
 30
0.0
 10
-33.0104
 20
-2.6538
 30
0.0
 10
-33.1261
 20
-2.5127
 30
0.0
 10
-33.1261
 20
-2.5127
 30
0.0
 10
-33.3063
 20
-2.2931
 30
0.0
 10
-33.4488
 20
-2.1444
 30
0.0
 10
-33.5542
 20
-2.0673
 30
0.0
 10
-33.5542
 20
-2.0673
 30
0.0
 10
-33.6591
 20
-1.9902
 30
0.0
 10
-33.7588
 20
-1.9516
 30
0.0
 10
-33.8524
 20
-1.9516
 30
0.0
 10
-33.8524
 20
-1.9516
 30
0.0
 10
-33.9507
 20
-1.9516
 30
0.0
 10
-34.0335
 20
-1.9869
 30
0.0
 10
-34.1012
 20
-2.0569
 30
0.0
 10
-34.1012
 20
-2.0569
 30
0.0
 10
-34.1685
 20
-2.1275
 30
0.0
 10
-34.2023
 20
-2.2192
 30
0.0
 10
-34.2023
 20
-2.3321
 30
0.0
 10
-34.2023
 20
-2.3321
 30
0.0
 10
-34.2023
 20
-2.4516
 30
0.0
 10
-34.1666
 20
-2.5471
 30
0.0
 10
-34.0946
 20
-2.6186
 30
0.0
 10
-34.0946
 20
-2.6186
 30
0.0
 10
-34.0231
 20
-2.6905
 30
0.0
 10
-33.9239
 20
-2.7267
 30
0.0
 10
-33.7974
 20
-2.7277
 30
0.0
 10
-33.7974
 20
-2.7277
 30
0.0
 10
-33.7974
 20
-2.7277
 30
0.0
 10
-33.8232
 20
-2.9826
 30
0.0
 10
-33.8232
 20
-2.9826
 30
0.0
 10
-33.8232
 20
-2.9826
 30
0.0
 10
-34.0137
 20
-2.9652
 30
0.0
 10
-34.1586
 20
-2.8994
 30
0.0
 10
-34.2583
 20
-2.7855
 30
0.0
 10
-34.2583
 20
-2.7855
 30
0.0
 10
-34.358
 20
-2.6717
 30
0.0
 10
-34.4079
 20
-2.5184
 30
0.0
 10
-34.4079
 20
-2.3265
 30
0.0
 10
-34.4079
 20
-2.3265
 30
0.0
 10
-34.4079
 20
-2.1327
 30
0.0
 10
-34.3538
 20
-1.9793
 30
0.0
 10
-34.2466
 20
-1.8664
 30
0.0
 10
-34.2466
 20
-1.8664
 30
0.0
 10
-34.1388
 20
-1.7531
 30
0.0
 10
-34.0057
 20
-1.6966
 30
0.0
 10
-33.8467
 20
-1.6966
 30
0.0
 10
-33.8467
 20
-1.6966
 30
0.0
 10
-33.7658
 20
-1.6966
 30
0.0
 10
-33.6863
 20
-1.7131
 30
0.0
 10
-33.6083
 20
-1.7465
 30
0.0
 10
-33.6083
 20
-1.7465
 30
0.0
 10
-33.5302
 20
-1.7794
 30
0.0
 10
-33.4479
 20
-1.8345
 30
0.0
 10
-33.3618
 20
-1.9111
 30
0.0
 10
-33.3618
 20
-1.9111
 30
0.0
 10
-33.2752
 20
-1.9878
 30
0.0
 10
-33.1567
 20
-2.1153
 30
0.0
 10
-33.0062
 20
-2.2935
 30
0.0
 10
-33.0062
 20
-2.2935
 30
0.0
 10
-32.8811
 20
-2.4422
 30
0.0
 10
-32.7964
 20
-2.5377
 30
0.0
 10
-32.7517
 20
-2.58
 30
0.0
 10
-32.7517
 20
-2.58
 30
0.0
 10
-32.7075
 20
-2.6223
 30
0.0
 10
-32.6628
 20
-2.6571
 30
0.0
 10
-32.6177
 20
-2.6849
 30
0.0
 10
-32.6177
 20
-2.6849
 30
0.0
 10
-32.6177
 20
-2.6849
 30
0.0
 10
-32.6177
 20
-1.6938
 30
0.0
 10
-32.6177
 20
-1.6938
 30
0.0
  0
SPLINE
  5
90
330
1F
100
AcDbEntity
  8
DEFAULT_3
 62
   250
100
AcDbSpline
210
0.0
220
0.0
230
1.0
 70
    11
 71
     3
 72
    20
 73
    16
 74
     0
 42
0.0000000001
 43
0.0000000001
 40
0.0
 40
0.0
 40
0.0
 40
0.0
 40
0.2
 40
0.2
 40
0.2
 40
0.2
 40
0.4
 40
0.4
 40
0.4
 40
0.4
 40
0.6
 40
0.6
 40
0.6
 40
0.6
 40
1.0
 40
1.0
 40
1.0
 40
1.0
 10
-31.9996
 20
13.3781
 30
0.0
 10
-31.9996
 20
13.3781
 30
0.0
 10
-31.6467
 20
15.8781
 30
0.0
 10
-31.6467
 20
15.8781
 30
0.0
 10
-31.6467
 20
15.8781
 30
0.0
 10
-31.6467
 20
15.8781
 30
0.0
 10
-31.5684
 20
15.8781
 30
0.0
 10
-31.5684
 20
15.8781
 30
0.0
 10
-31.5684
 20
15.8781
 30
0.0
 10
-31.5684
 20
15.8781
 30
0.0
 10
-31.1921
 20
13.3781
 30
0.0
 10
-31.1921
 20
13.3781
 30
0.0
 10
-31.1921
 20
13.3781
 30
0.0
 10
-31.1921
 20
13.3781
 30
0.0
 10
-31.9996
 20
13.3781
 30
0.0
 10
-31.9996
 20
13.3781
 30
0.0
  0
SPLINE
  5
91
330
1F
100
AcDbEntity
  8
DEFAULT_3
 62
   250
100
AcDbSpline
210
0.0
220
0.0
230
1.0
 70
    11
 71
     3
 72
    20
 73
    16
 74
     0
 42
0.0000000001
 43
0.0000000001
 40
0.0
 40
0.0
 40
0.0
 40
0.0
 40
0.2
 40
0.2
 40
0.2
 40
0.2
 40
0.4
 40
0.4
 40
0.4
 40
0.4
 40
0.6
 40
0.6
 40
0.6
 40
0.6
 40
1.0
 40
1.0
 40
1.0
 40
1.0
 10
-31.22
 20
-22.181
 30
0.0
 10
-31.22
 20
-22.181
 30
0.0
 10
-31.5729
 20
-24.681
 30
0.0
 10
-31.5729
 20
-24.681
 30
0.0
 10
-31.5729
 20
-24.681
 30
0.0
 10
-31.5729
 20
-24.681
 30
0.0
 10
-31.6512
 20
-24.681
 30
0.0
 10
-31.6512
 20
-24.681
 30
0.0
 10
-31.6512
 20
-24.681
 30
0.0
 10
-31.6512
 20
-24.681
 30
0.0
 10
-32.0275
 20
-22.181
 30
0.0
 10
-32.0275
 20
-22.181
 30
0.0
 10
-32.0275
 20
-22.181
 30
0.0
 10
-32.0275
 20
-22.181
 30
0.0
 10
-31.22
 20
-22.181
 30
0.0
 10
-31.22
 20
-22.181
 30
0.0
  0
SPLINE
  5
92
330
1F
100
AcDbEntity
  8
DEFAULT_3
 62
   250
100
AcDbSpline
210
0.0
220
0.0
230
1.0
 70
    24
 71
     3
 72
     8
 73
     4
 74
     0
 42
0.0000000001
 43
0.0000000001
 40
0.0
 40
0.0
 40
0.0
 40
0.0
 40
1.0
 40
1.0
 40
1.0
 40
1.0
 10
28.2645
 20
16.2337
 30
0.0
 10
28.2645
 20
16.2337
 30
0.0
 10
28.2645
 20
22.9434
 30
0.0
 10
28.2645
 20
22.9434
 30
0.0
  0
SPLINE
  5
93
330
1F
100
AcDbEntity
  8
DEFAULT_3
 62
   250
100
AcDbSpline
210
0.0
220
0.0
230
1.0
 70
    24
 71
     3
 72
     8
 73
     4
 74
     0
 42
0.0000000001
 43
0.0000000001
 40
0.0
 40
0.0
 40
0.0
 40
0.0
 40
1.0
 40
1.0
 40
1.0
 40
1.0
 10
30.3794
 20
16.1731
 30
0.0
 10
30.3794
 20
16.1731
 30
0.0
 10
30.3794
 20
23.1027
 30
0.0
 10
30.3794
 20
23.1027
 30
0.0
  0
SPLINE
  5
94
330
1F
100
AcDbEntity
  8
DEFAULT_3
 62
   250
100
AcDbSpline
210
0.0
220
0.0
230
1.0
 70
    24
 71
     3
 72
     8
 73
     4
 74
     0
 42
0.0000000001
 43
0.0000000001
 40
0.0
 40
0.0
 40
0.0
 40
0.0
 40
1.0
 40
1.0
 40
1.0
 40
1.0
 10
34.4079
 20
22.0798
 30
0.0
 10
34.4079
 20
22.0798
 30
0.0
 10
24.7799
 20
22.0798
 30
0.0
 10
24.7799
 20
22.0798
 30
0.0
  0
SPLINE
  5
95
330
1F
100
AcDbEntity
  8
DEFAULT_3
 62
   250
100
AcDbSpline
210
0.0
220
0.0
230
1.0
 70
    11
 71
     3
 72
    92
 73
    88
 74
     0
 42
0.0000000001
 43
0.0000000001
 40
0.0
 40
0.0
 40
0.0
 40
0.0
 40
0.0434782608695652
 40
0.0434782608695652
 40
0.0434782608695652
 40
0.0434782608695652
 40
0.0869565217391304
 40
0.0869565217391304
 40
0.0869565217391304
 40
0.0869565217391304
 40
0.1304347826086956
 40
0.1304347826086956
 40
0.1304347826086956
 40
0.1304347826086956
 40
0.1739130434782609
 40
0.1739130434782609
 40
0.1739130434782609
 40
0.1739130434782609
 40
0.2173913043478261
 40
0.2173913043478261
 40
0.2173913043478261
 40
0.2173913043478261
 40
0.2608695652173913
 40
0.2608695652173913
 40
0.2608695652173913
 40
0.2608695652173913
 40
0.3043478260869565
 40
0.3043478260869565
 40
0.3043478260869565
 40
0.3043478260869565
 40
0.3478260869565217
 40
0.3478260869565217
 40
0.3478260869565217
 40
0.3478260869565217
 40
0.391304347826087
 40
0.391304347826087
 40
0.391304347826087
 40
0.391304347826087
 40
0.4347826086956522
 40
0.4347826086956522
 40
0.4347826086956522
 40
0.4347826086956522
 40
0.4782608695652174
 40
0.4782608695652174
 40
0.4782608695652174
 40
0.4782608695652174
 40
0.5217391304347826
 40
0.5217391304347826
 40
0.5217391304347826
 40
0.5217391304347826
 40
0.5652173913043478
 40
0.5652173913043478
 40
0.5652173913043478
 40
0.5652173913043478
 40
0.6086956521739131
 40
0.6086956521739131
 40
0.6086956521739131
 40
0.6086956521739131
 40
0.6521739130434783
 40
0.6521739130434783
 40
0.6521739130434783
 40
0.6521739130434783
 40
0.6956521739130435
 40
0.6956521739130435
 40
0.6956521739130435
 40
0.6956521739130435
 40
0.7391304347826086
 40
0.7391304347826086
 40
0.7391304347826086
 40
0.7391304347826086
 40
0.782608695652174
 40
0.782608695652174
 40
0.782608695652174
 40
0.782608695652174
 40
0.8260869565217391
 40
0.8260869565217391
 40
0.8260869565217391
 40
0.8260869565217391
 40
0.8695652173913043
 40
0.8695652173913043
 40
0.8695652173913043
 40
0.8695652173913043
 40
0.9130434782608695
 40
0.9130434782608695
 40
0.9130434782608695
 40
0.9130434782608695
 40
1.0
 40
1.0
 40
1.0
 40
1.0
 10
28.7741
 20
23.3437
 30
0.0
 10
28.7741
 20
23.3437
 30
0.0
 10
29.0347
 20
23.3658
 30
0.0
 10
29.0347
 20
23.3658
 30
0.0
 10
29.0347
 20
23.3658
 30
0.0
 10
29.054
 20
23.2388
 30
0.0
 10
29.0987
 20
23.1438
 30
0.0
 10
29.1688
 20
23.0798
 30
0.0
 10
29.1688
 20
23.0798
 30
0.0
 10
29.2393
 20
23.0158
 30
0.0
 10
29.324
 20
22.9838
 30
0.0
 10
29.4232
 20
22.9838
 30
0.0
 10
29.4232
 20
22.9838
 30
0.0
 10
29.5427
 20
22.9838
 30
0.0
 10
29.6438
 20
23.029
 30
0.0
 10
29.7261
 20
23.1188
 30
0.0
 10
29.7261
 20
23.1188
 30
0.0
 10
29.8089
 20
23.2091
 30
0.0
 10
29.8503
 20
23.3286
 30
0.0
 10
29.8503
 20
23.4772
 30
0.0
 10
29.8503
 20
23.4772
 30
0.0
 10
29.8503
 20
23.6188
 30
0.0
 10
29.8108
 20
23.7303
 30
0.0
 10
29.7313
 20
23.8121
 30
0.0
 10
29.7313
 20
23.8121
 30
0.0
 10
29.6518
 20
23.894
 30
0.0
 10
29.5479
 20
23.9349
 30
0.0
 10
29.419
 20
23.9349
 30
0.0
 10
29.419
 20
23.9349
 30
0.0
 10
29.339
 20
23.9349
 30
0.0
 10
29.2671
 20
23.9166
 30
0.0
 10
29.2026
 20
23.8804
 30
0.0
 10
29.2026
 20
23.8804
 30
0.0
 10
29.1382
 20
23.8441
 30
0.0
 10
29.0879
 20
23.7971
 30
0.0
 10
29.0512
 20
23.7392
 30
0.0
 10
29.0512
 20
23.7392
 30
0.0
 10
29.0512
 20
23.7392
 30
0.0
 10
28.8183
 20
23.7693
 30
0.0
 10
28.8183
 20
23.7693
 30
0.0
 10
28.8183
 20
23.7693
 30
0.0
 10
28.8183
 20
23.7693
 30
0.0
 10
29.014
 20
24.807
 30
0.0
 10
29.014
 20
24.807
 30
0.0
 10
29.014
 20
24.807
 30
0.0
 10
29.014
 20
24.807
 30
0.0
 10
30.0187
 20
24.807
 30
0.0
 10
30.0187
 20
24.807
 30
0.0
 10
30.0187
 20
24.807
 30
0.0
 10
30.0187
 20
24.807
 30
0.0
 10
30.0187
 20
24.5699
 30
0.0
 10
30.0187
 20
24.5699
 30
0.0
 10
30.0187
 20
24.5699
 30
0.0
 10
30.0187
 20
24.5699
 30
0.0
 10
29.2125
 20
24.5699
 30
0.0
 10
29.2125
 20
24.5699
 30
0.0
 10
29.2125
 20
24.5699
 30
0.0
 10
29.2125
 20
24.5699
 30
0.0
 10
29.1034
 20
24.0271
 30
0.0
 10
29.1034
 20
24.0271
 30
0.0
 10
29.1034
 20
24.0271
 30
0.0
 10
29.2247
 20
24.1118
 30
0.0
 10
29.3522
 20
24.1541
 30
0.0
 10
29.4853
 20
24.1541
 30
0.0
 10
29.4853
 20
24.1541
 30
0.0
 10
29.6617
 20
24.1541
 30
0.0
 10
29.8103
 20
24.093
 30
0.0
 10
29.9317
 20
23.9707
 30
0.0
 10
29.9317
 20
23.9707
 30
0.0
 10
30.053
 20
23.8484
 30
0.0
 10
30.1137
 20
23.6913
 30
0.0
 10
30.1137
 20
23.4994
 30
0.0
 10
30.1137
 20
23.4994
 30
0.0
 10
30.1137
 20
23.3164
 30
0.0
 10
30.0601
 20
23.1583
 30
0.0
 10
29.9538
 20
23.0252
 30
0.0
 10
29.9538
 20
23.0252
 30
0.0
 10
29.824
 20
22.862
 30
0.0
 10
29.6471
 20
22.7802
 30
0.0
 10
29.4232
 20
22.7802
 30
0.0
 10
29.4232
 20
22.7802
 30
0.0
 10
29.2393
 20
22.7802
 30
0.0
 10
29.0893
 20
22.8314
 30
0.0
 10
28.9731
 20
22.9344
 30
0.0
 10
28.9731
 20
22.9344
 30
0.0
 10
28.8569
 20
23.0375
 30
0.0
 10
28.7906
 20
23.1739
 30
0.0
 10
28.7741
 20
23.3437
 30
0.0
  0
SPLINE
  5
96
330
1F
100
AcDbEntity
  8
DEFAULT_3
 62
   250
100
AcDbSpline
210
0.0
220
0.0
230
1.0
 70
    11
 71
     3
 72
    20
 73
    16
 74
     0
 42
0.0000000001
 43
0.0000000001
 40
0.0
 40
0.0
 40
0.0
 40
0.0
 40
0.2
 40
0.2
 40
0.2
 40
0.2
 40
0.4
 40
0.4
 40
0.4
 40
0.4
 40
0.6
 40
0.6
 40
0.6
 40
0.6
 40
1.0
 40
1.0
 40
1.0
 40
1.0
 10
25.7712
 20
22.4598
 30
0.0
 10
25.7712
 20
22.4598
 30
0.0
 10
28.2712
 20
22.1069
 30
0.0
 10
28.2712
 20
22.1069
 30
0.0
 10
28.2712
 20
22.1069
 30
0.0
 10
28.2712
 20
22.1069
 30
0.0
 10
28.2712
 20
22.0286
 30
0.0
 10
28.2712
 20
22.0286
 30
0.0
 10
28.2712
 20
22.0286
 30
0.0
 10
28.2712
 20
22.0286
 30
0.0
 10
25.7712
 20
21.6523
 30
0.0
 10
25.7712
 20
21.6523
 30
0.0
 10
25.7712
 20
21.6523
 30
0.0
 10
25.7712
 20
21.6523
 30
0.0
 10
25.7712
 20
22.4598
 30
0.0
 10
25.7712
 20
22.4598
 30
0.0
  0
SPLINE
  5
97
330
1F
100
AcDbEntity
  8
DEFAULT_3
 62
   250
100
AcDbSpline
210
0.0
220
0.0
230
1.0
 70
    11
 71
     3
 72
    20
 73
    16
 74
     0
 42
0.0000000001
 43
0.0000000001
 40
0.0
 40
0.0
 40
0.0
 40
0.0
 40
0.2
 40
0.2
 40
0.2
 40
0.2
 40
0.4
 40
0.4
 40
0.4
 40
0.4
 40
0.6
 40
0.6
 40
0.6
 40
0.6
 40
1.0
 40
1.0
 40
1.0
 40
1.0
 10
32.9817
 20
21.6802
 30
0.0
 10
32.9817
 20
21.6802
 30
0.0
 10
30.4817
 20
22.0331
 30
0.0
 10
30.4817
 20
22.0331
 30
0.0
 10
30.4817
 20
22.0331
 30
0.0
 10
30.4817
 20
22.0331
 30
0.0
 10
30.4817
 20
22.1114
 30
0.0
 10
30.4817
 20
22.1114
 30
0.0
 10
30.4817
 20
22.1114
 30
0.0
 10
30.4817
 20
22.1114
 30
0.0
 10
32.9817
 20
22.4877
 30
0.0
 10
32.9817
 20
22.4877
 30
0.0
 10
32.9817
 20
22.4877
 30
0.0
 10
32.9817
 20
22.4877
 30
0.0
 10
32.9817
 20
21.6802
 30
0.0
 10
32.9817
 20
21.6802
 30
0.0
  0
ENDSEC
  0
SECTION
  2
OBJECTS
  0
DICTIONARY
  5
C
330
0
100
AcDbDictionary
  3
ACAD_GROUP
350
D
  3
ACAD_LAYOUT
350
1A
  3
ACAD_MATERIAL
350
3B
  3
ACAD_MLEADERSTYLE
350
BA
  3
ACAD_MLINESTYLE
350
17
  3
ACAD_PLOTSETTINGS
350
19
  3
ACAD_VISUALSTYLE
350
2A
  3
ACDBHEADERROUNDTRIPXREC
350
98
  3
ACDBVARIABLEDICTIONARY
350
B8
  0
DICTIONARY
  5
D
102
{ACAD_REACTORS
330
C
102
}
330
C
100
AcDbDictionary
  0
DICTIONARY
  5
1A
102
{ACAD_REACTORS
330
C
102
}
330
C
100
AcDbDictionary
  0
DICTIONARY
  5
3B
102
{ACAD_REACTORS
330
C
102
}
330
C
100
AcDbDictionary
  3
BYBLOCK
350
3D
  3
BYLAYER
350
3C
  3
GLOBAL
350
3E
  0
DICTIONARY
  5
BA
102
{ACAD_REACTORS
330
C
102
}
330
C
100
AcDbDictionary
  0
DICTIONARY
  5
17
102
{ACAD_REACTORS
330
C
102
}
330
C
100
AcDbDictionary
  3
STANDARD
350
18
  0
DICTIONARY
  5
19
102
{ACAD_REACTORS
330
C
102
}
330
C
100
AcDbDictionary
  0
DICTIONARY
  5
2A
102
{ACAD_REACTORS
330
C
102
}
330
C
100
AcDbDictionary
  3
2DWIREFRAME
350
2F
  3
3D_HIDDEN
350
31
  3
3DWIREFRAME
350
30
  3
BASIC
350
32
  3
BRIGHTEN
350
36
  3
COLORCHANGE
350
3A
  3
CONCEPTUAL
350
34
  3
DIM
350
35
  3
FACEPATTERN
350
39
  3
FLAT
350
2B
  3
FLATWITHEDGES
350
2C
  3
GOURAUD
350
2D
  3
GOURAUDWITHEDGES
350
2E
  3
LINEPATTERN
350
38
  3
REALISTIC
350
33
  3
THICKEN
350
37
  0
DICTIONARY
  5
98
102
{ACAD_REACTORS
330
C
102
}
330
C
100
AcDbDictionary
  3
CEPSNTYPE
350
A1
  3
DIMSTYLEDATA
350
B7
  3
FINGERPRINTGUID
350
A2
  3
HYPERLINKBASE
350
9B
  3
INSUNITS
350
A0
  3
LAYOUTDICT
350
9D
  3
LWETCUNION
350
9F
  3
PLOTSETDICT
350
9E
  3
PSVPSCALE
350
A4
  3
PUCSBASE
350
A7
  3
PUCSORGBACK
350
AD
  3
PUCSORGBOTTOM
350
A9
  3
PUCSORGFRONT
350
AC
  3
PUCSORGLEFT
350
AA
  3
PUCSORGRIGHT
350
AB
  3
PUCSORGTOP
350
A8
  3
PUCSORTHOREF
350
A5
  3
PUCSORTHOVIEW
350
A6
  3
STYLESHEET
350
9C
  3
TSTACKALIGN
350
99
  3
TSTACKSIZE
350
9A
  3
UCSBASE
350
B0
  3
UCSORGBACK
350
B6
  3
UCSORGBOTTOM
350
B2
  3
UCSORGFRONT
350
B5
  3
UCSORGLEFT
350
B3
  3
UCSORGRIGHT
350
B4
  3
UCSORGTOP
350
B1
  3
UCSORTHOREF
350
AE
  3
UCSORTHOVIEW
350
AF
  3
VERSIONGUID
350
A3
  0
DICTIONARY
  5
B8
102
{ACAD_REACTORS
330
C
102
}
330
C
100
AcDbDictionary
  3
DIMASSOC
350
BB
  3
HIDETEXT
350
BC
  0
MATERIAL
  5
3D
102
{ACAD_REACTORS
330
3B
102
}
102
{ACAD_XDICTIONARY
360
BF
102
}
330
3B
100
AcDbMaterial
  1
ByBlock
  0
MATERIAL
  5
3C
102
{ACAD_REACTORS
330
3B
102
}
102
{ACAD_XDICTIONARY
360
BD
102
}
330
3B
100
AcDbMaterial
  1
ByLayer
  0
MATERIAL
  5
3E
102
{ACAD_REACTORS
330
3B
102
}
102
{ACAD_XDICTIONARY
360
C1
102
}
330
3B
100
AcDbMaterial
  1
Global
  0
MLINESTYLE
  5
18
102
{ACAD_REACTORS
330
17
102
}
330
17
100
AcDbMlineStyle
  2
Standard
 70
     0
  3

 62
   256
 51
90.0
 52
90.0
 71
     2
 49
0.5
 62
   256
  6
BYLAYER
 49
-0.5
 62
   256
  6
BYLAYER
  0
ACAD_PROXY_OBJECT
  5
2F
102
{ACAD_REACTORS
330
2A
102
}
330
2A
100
AcDbProxyObject
 90
      499
 91
      501
 93
      436
310
42CC9915DA5C99599C985B595049028333333333333E3BF0000000000000FB0107901411070040501600405405064090741402480A0340
1001
ACAD
1000
AcDbSavedByObjectVersion
1070
     0
  0
ACAD_PROXY_OBJECT
  5
31
102
{ACAD_REACTORS
330
2A
102
}
330
2A
100
AcDbProxyObject
 90
      499
 91
      501
 93
      500
310
424CD108121A5919195B90640502408333333333333E3BF0000000000000FB01079024090700405020000000000001110200405405064090740C02480A0340
1001
ACAD
1000
AcDbSavedByObjectVersion
1070
     0
  0
ACAD_PROXY_OBJECT
  5
30
102
{ACAD_REACTORS
330
2A
102
}
330
2A
100
AcDbProxyObject
 90
      499
 91
      501
 93
      436
310
42CCD915DA5C99599C985B595059028333333333333E3BF0000000000000FB0107901411070040501600405405064090741402480A0340
1001
ACAD
1000
AcDbSavedByObjectVersion
1070
     0
  0
ACAD_PROXY_OBJECT
  5
32
102
{ACAD_REACTORS
330
2A
102
}
330
2A
100
AcDbProxyObject
 90
      499
 91
      501
 93
      388
310
4150985CDA58D07406404333333333333E3BF0000000000000FB0107A41107004050150841D405064090741402480A0350
1001
ACAD
1000
AcDbSavedByObjectVersion
1070
     0
  0
ACAD_PROXY_OBJECT
  5
36
102
{ACAD_REACTORS
330
2A
102
}
330
2A
100
AcDbProxyObject
 90
      499
 91
      501
 93
      428
310
42109C9A59DA1D195B90C409028333333333333E3BF0000000000000FB010790141107004050150841D405064090741402480A029950
1001
ACAD
1000
AcDbSavedByObjectVersion
1070
     0
  0
ACAD_PROXY_OBJECT
  5
3A
102
{ACAD_REACTORS
330
2A
102
}
330
2A
100
AcDbProxyObject
 90
      499
 91
      501
 93
      452
310
42D0DBDB1BDC90DA185B99D95104090240C333333333333E3BF0000000000000FB0108901411070040501508421405064090741402480A0350
1001
ACAD
1000
AcDbSavedByObjectVersion
1070
     0
  0
ACAD_PROXY_OBJECT
  5
34
102
{ACAD_REACTORS
330
2A
102
}
330
2A
100
AcDbProxyObject
 90
      499
 91
      501
 93
      500
310
4290DBDB98D95C1D1D585B10940D028333333333333E3BF0000000000000FB0107902409070040501000000000000111010841D405064090740C02480A0340
1001
ACAD
1000
AcDbSavedByObjectVersion
1070
     0
  0
ACAD_PROXY_OBJECT
  5
35
102
{ACAD_REACTORS
330
2A
102
}
330
2A
100
AcDbProxyObject
 90
      499
 91
      501
 93
      412
310
40D11A5B50B409028333333333333E3BF0000000000000FB010790141107004050150841D405064090741402480A02677FFFFFD0
1001
ACAD
1000
AcDbSavedByObjectVersion
1070
     0
  0
ACAD_PROXY_OBJECT
  5
39
102
{ACAD_REACTORS
330
2A
102
}
330
2A
100
AcDbProxyObject
 90
      499
 91
      501
 93
      444
310
42D19858D95C185D1D195C9B90F409028333333333333E3BF0000000000000FB010790141107004050150841D405064090741402480A0350
1001
ACAD
1000
AcDbSavedByObjectVersion
1070
     0
  0
ACAD_PROXY_OBJECT
  5
2B
102
{ACAD_REACTORS
330
2A
102
}
330
2A
100
AcDbProxyObject
 90
      499
 91
      501
 93
      388
310
41119B185D240901404333333333333E3BF0000000000000F9010740A41107004050150841D405064090741402480A1B50
1001
ACAD
1000
AcDbSavedByObjectVersion
1070
     0
  0
ACAD_PROXY_OBJECT
  5
2C
102
{ACAD_REACTORS
330
2A
102
}
330
2A
100
AcDbProxyObject
 90
      499
 91
      501
 93
      476
310
43519B185D15DA5D1A115919D95CD0140901404333333333333E3BF0000000000000F9010740901411070040501600405405064090741402480A1B50
1001
ACAD
1000
AcDbSavedByObjectVersion
1070
     0
  0
ACAD_PROXY_OBJECT
  5
2D
102
{ACAD_REACTORS
330
2A
102
}
330
2A
100
AcDbProxyObject
 90
      499
 91
      501
 93
      412
310
41D1DBDD5C985D5910240902404333333333333E3BF0000000000000F9010740A411070040501641D405064090741402480A1B50
1001
ACAD
1000
AcDbSavedByObjectVersion
1070
     0
  0
ACAD_PROXY_OBJECT
  5
2E
102
{ACAD_REACTORS
330
2A
102
}
330
2A
100
AcDbProxyObject
 90
      499
 91
      501
 93
      500
310
4411DBDD5C985D5915DA5D1A115919D95CD0340902404333333333333E3BF0000000000000F9010740901411070040501600405405064090741402480A1B50
1001
ACAD
1000
AcDbSavedByObjectVersion
1070
     0
  0
ACAD_PROXY_OBJECT
  5
38
102
{ACAD_REACTORS
330
2A
102
}
330
2A
100
AcDbProxyObject
 90
      499
 91
      501
 93
      444
310
42D31A5B995C185D1D195C9B90E409028333333333333E3BF0000000000000FB010790141107004050750841D405064090741402483A0350
1001
ACAD
1000
AcDbSavedByObjectVersion
1070
     0
  0
ACAD_PROXY_OBJECT
  5
33
102
{ACAD_REACTORS
330
2A
102
}
330
2A
100
AcDbProxyObject
 90
      499
 91
      501
 93
      420
310
425499585B1A5CDD1A58D08409028333333333333E3BF0000000000000FB01079019070040501508421405064090741402480A1B40
1001
ACAD
1000
AcDbSavedByObjectVersion
1070
     0
  0
ACAD_PROXY_OBJECT
  5
37
102
{ACAD_REACTORS
330
2A
102
}
330
2A
100
AcDbProxyObject
 90
      499
 91
      501
 93
      412
310
41D51A1A58DAD95B90D409028333333333333E3BF0000000000000FB010790141107004050150C41D405064090741402480A0350
1001
ACAD
1000
AcDbSavedByObjectVersion
1070
     0
  0
XRECORD
  5
A1
102
{ACAD_REACTORS
330
98
102
}
330
98
100
AcDbXrecord
 90
        0
  0
XRECORD
  5
B7
102
{ACAD_REACTORS
330
98
102
}
330
98
100
AcDbXrecord
1000
DSTYLE
1002
{
1070
   340
340
11
1002
}
  0
XRECORD
  5
A2
102
{ACAD_REACTORS
330
98
102
}
330
98
100
AcDbXrecord
  1
{C8434466-9372-4E0E-8698-82BC53EDF101}
  0
XRECORD
  5
9B
102
{ACAD_REACTORS
330
98
102
}
330
98
100
AcDbXrecord
  1

  0
XRECORD
  5
A0
102
{ACAD_REACTORS
330
98
102
}
330
98
100
AcDbXrecord
 90
        4
  0
XRECORD
  5
9D
102
{ACAD_REACTORS
330
98
102
}
330
98
100
AcDbXrecord
340
1A
  0
XRECORD
  5
9F
102
{ACAD_REACTORS
330
98
102
}
330
98
100
AcDbXrecord
 90
    10781
  0
XRECORD
  5
9E
102
{ACAD_REACTORS
330
98
102
}
330
98
100
AcDbXrecord
340
19
  0
XRECORD
  5
A4
102
{ACAD_REACTORS
330
98
102
}
330
98
100
AcDbXrecord
 40
0.0
  0
XRECORD
  5
A7
102
{ACAD_REACTORS
330
98
102
}
330
98
100
AcDbXrecord
340
0
  0
XRECORD
  5
AD
102
{ACAD_REACTORS
330
98
102
}
330
98
100
AcDbXrecord
 10
0.0
 20
0.0
 30
0.0
  0
XRECORD
  5
A9
102
{ACAD_REACTORS
330
98
102
}
330
98
100
AcDbXrecord
 10
0.0
 20
0.0
 30
0.0
  0
XRECORD
  5
AC
102
{ACAD_REACTORS
330
98
102
}
330
98
100
AcDbXrecord
 10
0.0
 20
0.0
 30
0.0
  0
XRECORD
  5
AA
102
{ACAD_REACTORS
330
98
102
}
330
98
100
AcDbXrecord
 10
0.0
 20
0.0
 30
0.0
  0
XRECORD
  5
AB
102
{ACAD_REACTORS
330
98
102
}
330
98
100
AcDbXrecord
 10
0.0
 20
0.0
 30
0.0
  0
XRECORD
  5
A8
102
{ACAD_REACTORS
330
98
102
}
330
98
100
AcDbXrecord
 10
0.0
 20
0.0
 30
0.0
  0
XRECORD
  5
A5
102
{ACAD_REACTORS
330
98
102
}
330
98
100
AcDbXrecord
340
0
  0
XRECORD
  5
A6
102
{ACAD_REACTORS
330
98
102
}
330
98
100
AcDbXrecord
 70
     0
  0
XRECORD
  5
9C
102
{ACAD_REACTORS
330
98
102
}
330
98
100
AcDbXrecord
  1

  0
XRECORD
  5
99
102
{ACAD_REACTORS
330
98
102
}
330
98
100
AcDbXrecord
 90
        1
  0
XRECORD
  5
9A
102
{ACAD_REACTORS
330
98
102
}
330
98
100
AcDbXrecord
 90
       70
  0
XRECORD
  5
B0
102
{ACAD_REACTORS
330
98
102
}
330
98
100
AcDbXrecord
340
0
  0
XRECORD
  5
B6
102
{ACAD_REACTORS
330
98
102
}
330
98
100
AcDbXrecord
 10
0.0
 20
0.0
 30
0.0
  0
XRECORD
  5
B2
102
{ACAD_REACTORS
330
98
102
}
330
98
100
AcDbXrecord
 10
0.0
 20
0.0
 30
0.0
  0
XRECORD
  5
B5
102
{ACAD_REACTORS
330
98
102
}
330
98
100
AcDbXrecord
 10
0.0
 20
0.0
 30
0.0
  0
XRECORD
  5
B3
102
{ACAD_REACTORS
330
98
102
}
330
98
100
AcDbXrecord
 10
0.0
 20
0.0
 30
0.0
  0
XRECORD
  5
B4
102
{ACAD_REACTORS
330
98
102
}
330
98
100
AcDbXrecord
 10
0.0
 20
0.0
 30
0.0
  0
XRECORD
  5
B1
102
{ACAD_REACTORS
330
98
102
}
330
98
100
AcDbXrecord
 10
0.0
 20
0.0
 30
0.0
  0
XRECORD
  5
AE
102
{ACAD_REACTORS
330
98
102
}
330
98
100
AcDbXrecord
340
0
  0
XRECORD
  5
AF
102
{ACAD_REACTORS
330
98
102
}
330
98
100
AcDbXrecord
 70
     0
  0
XRECORD
  5
A3
102
{ACAD_REACTORS
330
98
102
}
330
98
100
AcDbXrecord
  1
{FAEB1C32-E019-11D5-929B-00C0DF256EC4}
  0
DICTIONARYVAR
  5
BB
102
{ACAD_REACTORS
330
B8
102
}
330
B8
100
DictionaryVariables
280
     0
  1
2
  0
DICTIONARYVAR
  5
BC
102
{ACAD_REACTORS
330
B8
102
}
330
B8
100
DictionaryVariables
280
     0
  1
1
  0
DICTIONARY
  5
BF
330
3D
100
AcDbDictionary
280
     1
  3
ACAD_XREC_ROUNDTRIP
360
C0
  0
DICTIONARY
  5
BD
330
3C
100
AcDbDictionary
280
     1
  3
ACAD_XREC_ROUNDTRIP
360
BE
  0
DICTIONARY
  5
C1
330
3E
100
AcDbDictionary
280
     1
  3
ACAD_XREC_ROUNDTRIP
360
C2
  0
XRECORD
  5
C0
102
{ACAD_REACTORS
330
BF
102
}
330
BF
100
AcDbXrecord
102
MATERIAL
148
0.0
149
0.0
149
0.0
 93
        0
 94
      127
282
     0
 72
     1
 77
     1
171
     1
175
     1
179
     1
273
     0
  0
XRECORD
  5
BE
102
{ACAD_REACTORS
330
BD
102
}
330
BD
100
AcDbXrecord
102
MATERIAL
148
0.0
149
0.0
149
0.0
 93
        0
 94
      127
282
     0
 72
     1
 77
     1
171
     1
175
     1
179
     1
273
     0
  0
XRECORD
  5
C2
102
{ACAD_REACTORS
330
C1
102
}
330
C1
100
AcDbXrecord
102
MATERIAL
148
0.0
149
0.0
149
0.0
 93
        0
 94
      127
282
     0
 72
     1
 77
     1
171
     1
175
     1
179
     1
273
     0
  0
ENDSEC
  0
EOF
