  0
SECTION
  2
HEADER
  9
$ACADVER
  1
AC1015
  9
$ACADMAINTVER
 70
     6
  9
$DWGCODEPAGE
  3
ANSI_1250
  9
$INSBASE
 10
0.0
 20
0.0
 30
0.0
  9
$EXTMIN
 10
-26.0792
 20
-19.6856
 30
0.0
  9
$EXTMAX
 10
26.0791
 20
19.6856
 30
0.0
  9
$LIMMIN
 10
0.0
 20
0.0
  9
$LIMMAX
 10
12.0
 20
9.0
  9
$ORTHOMODE
 70
     0
  9
$REGENMODE
 70
     1
  9
$FILLMODE
 70
     1
  9
$QTEXTMODE
 70
     0
  9
$MIRRTEXT
 70
     1
  9
$LTSCALE
 40
1.0
  9
$ATTMODE
 70
     1
  9
$TEXTSIZE
 40
0.2
  9
$TRACEWID
 40
0.05
  9
$TEXTSTYLE
  7
Standard
  9
$CLAYER
  8
0
  9
$CELTYPE
  6
ByLayer
  9
$CECOLOR
 62
   256
  9
$CELTSCALE
 40
1.0
  9
$DISPSILH
 70
     0
  9
$DIMSCALE
 40
1.0
  9
$DIMASZ
 40
0.18
  9
$DIMEXO
 40
0.0625
  9
$DIMDLI
 40
0.38
  9
$DIMRND
 40
0.0
  9
$DIMDLE
 40
0.0
  9
$DIMEXE
 40
0.18
  9
$DIMTP
 40
0.0
  9
$DIMTM
 40
0.0
  9
$DIMTXT
 40
0.18
  9
$DIMCEN
 40
0.09
  9
$DIMTSZ
 40
0.0
  9
$DIMTOL
 70
     0
  9
$DIMLIM
 70
     0
  9
$DIMTIH
 70
     1
  9
$DIMTOH
 70
     1
  9
$DIMSE1
 70
     0
  9
$DIMSE2
 70
     0
  9
$DIMTAD
 70
     0
  9
$DIMZIN
 70
     0
  9
$DIMBLK
  1

  9
$DIMASO
 70
     1
  9
$DIMSHO
 70
     1
  9
$DIMPOST
  1

  9
$DIMAPOST
  1

  9
$DIMALT
 70
     0
  9
$DIMALTD
 70
     2
  9
$DIMALTF
 40
25.4
  9
$DIMLFAC
 40
1.0
  9
$DIMTOFL
 70
     0
  9
$DIMTVP
 40
0.0
  9
$DIMTIX
 70
     0
  9
$DIMSOXD
 70
     0
  9
$DIMSAH
 70
     0
  9
$DIMBLK1
  1

  9
$DIMBLK2
  1

  9
$DIMSTYLE
  2
Standard
  9
$DIMCLRD
 70
     0
  9
$DIMCLRE
 70
     0
  9
$DIMCLRT
 70
     0
  9
$DIMTFAC
 40
1.0
  9
$DIMGAP
 40
0.09
  9
$DIMJUST
 70
     0
  9
$DIMSD1
 70
     0
  9
$DIMSD2
 70
     0
  9
$DIMTOLJ
 70
     1
  9
$DIMTZIN
 70
     0
  9
$DIMALTZ
 70
     0
  9
$DIMALTTZ
 70
     0
  9
$DIMUPT
 70
     0
  9
$DIMDEC
 70
     4
  9
$DIMTDEC
 70
     4
  9
$DIMALTU
 70
     2
  9
$DIMALTTD
 70
     2
  9
$DIMTXSTY
  7
Standard
  9
$DIMAUNIT
 70
     0
  9
$DIMADEC
 70
     0
  9
$DIMALTRND
 40
0.0
  9
$DIMAZIN
 70
     0
  9
$DIMDSEP
 70
    46
  9
$DIMATFIT
 70
     3
  9
$DIMFRAC
 70
     0
  9
$DIMLDRBLK
  1

  9
$DIMLUNIT
 70
     2
  9
$DIMLWD
 70
    -2
  9
$DIMLWE
 70
    -2
  9
$DIMTMOVE
 70
     0
  9
$LUNITS
 70
     2
  9
$LUPREC
 70
     4
  9
$SKETCHINC
 40
0.1
  9
$FILLETRAD
 40
0.5
  9
$AUNITS
 70
     0
  9
$AUPREC
 70
     0
  9
$MENU
  1
.
  9
$ELEVATION
 40
0.0
  9
$PELEVATION
 40
0.0
  9
$THICKNESS
 40
0.0
  9
$LIMCHECK
 70
     0
  9
$CHAMFERA
 40
0.5
  9
$CHAMFERB
 40
0.5
  9
$CHAMFERC
 40
1.0
  9
$CHAMFERD
 40
0.0
  9
$SKPOLY
 70
     0
  9
$TDCREATE
 40
2458786.390537037
  9
$TDUCREATE
 40
2458786.348870371
  9
$TDUPDATE
 40
2458786.390537049
  9
$TDUUPDATE
 40
2458786.348870382
  9
$TDINDWG
 40
0.0000000116
  9
$TDUSRTIMER
 40
0.0000000116
  9
$USRTIMER
 70
     1
  9
$ANGBASE
 50
0.0
  9
$ANGDIR
 70
     0
  9
$PDMODE
 70
     0
  9
$PDSIZE
 40
0.0
  9
$PLINEWID
 40
0.0
  9
$SPLFRAME
 70
     0
  9
$SPLINETYPE
 70
     6
  9
$SPLINESEGS
 70
     8
  9
$HANDSEED
  5
C5
  9
$SURFTAB1
 70
     6
  9
$SURFTAB2
 70
     6
  9
$SURFTYPE
 70
     6
  9
$SURFU
 70
     6
  9
$SURFV
 70
     6
  9
$UCSBASE
  2

  9
$UCSNAME
  2

  9
$UCSORG
 10
0.0
 20
0.0
 30
0.0
  9
$UCSXDIR
 10
1.0
 20
0.0
 30
0.0
  9
$UCSYDIR
 10
0.0
 20
1.0
 30
0.0
  9
$UCSORTHOREF
  2

  9
$UCSORTHOVIEW
 70
     0
  9
$UCSORGTOP
 10
0.0
 20
0.0
 30
0.0
  9
$UCSORGBOTTOM
 10
0.0
 20
0.0
 30
0.0
  9
$UCSORGLEFT
 10
0.0
 20
0.0
 30
0.0
  9
$UCSORGRIGHT
 10
0.0
 20
0.0
 30
0.0
  9
$UCSORGFRONT
 10
0.0
 20
0.0
 30
0.0
  9
$UCSORGBACK
 10
0.0
 20
0.0
 30
0.0
  9
$PUCSBASE
  2

  9
$PUCSNAME
  2

  9
$PUCSORG
 10
0.0
 20
0.0
 30
0.0
  9
$PUCSXDIR
 10
1.0
 20
0.0
 30
0.0
  9
$PUCSYDIR
 10
0.0
 20
1.0
 30
0.0
  9
$PUCSORTHOREF
  2

  9
$PUCSORTHOVIEW
 70
     0
  9
$PUCSORGTOP
 10
0.0
 20
0.0
 30
0.0
  9
$PUCSORGBOTTOM
 10
0.0
 20
0.0
 30
0.0
  9
$PUCSORGLEFT
 10
0.0
 20
0.0
 30
0.0
  9
$PUCSORGRIGHT
 10
0.0
 20
0.0
 30
0.0
  9
$PUCSORGFRONT
 10
0.0
 20
0.0
 30
0.0
  9
$PUCSORGBACK
 10
0.0
 20
0.0
 30
0.0
  9
$USERI1
 70
     0
  9
$USERI2
 70
     0
  9
$USERI3
 70
     0
  9
$USERI4
 70
     0
  9
$USERI5
 70
     0
  9
$USERR1
 40
0.0
  9
$USERR2
 40
0.0
  9
$USERR3
 40
0.0
  9
$USERR4
 40
0.0
  9
$USERR5
 40
0.0
  9
$WORLDVIEW
 70
     1
  9
$SHADEDGE
 70
     3
  9
$SHADEDIF
 70
    70
  9
$TILEMODE
 70
     1
  9
$MAXACTVP
 70
    64
  9
$PINSBASE
 10
0.0
 20
0.0
 30
0.0
  9
$PLIMCHECK
 70
     0
  9
$PEXTMIN
 10
1.000000000000000E+20
 20
1.000000000000000E+20
 30
1.000000000000000E+20
  9
$PEXTMAX
 10
-1.000000000000000E+20
 20
-1.000000000000000E+20
 30
-1.000000000000000E+20
  9
$PLIMMIN
 10
0.0
 20
0.0
  9
$PLIMMAX
 10
12.0
 20
9.0
  9
$UNITMODE
 70
     0
  9
$VISRETAIN
 70
     1
  9
$PLINEGEN
 70
     0
  9
$PSLTSCALE
 70
     1
  9
$TREEDEPTH
 70
  3020
  9
$CMLSTYLE
  2
Standard
  9
$CMLJUST
 70
     0
  9
$CMLSCALE
 40
1.0
  9
$PROXYGRAPHICS
 70
     1
  9
$MEASUREMENT
 70
     0
  9
$CELWEIGHT
370
    -1
  9
$ENDCAPS
280
     0
  9
$JOINSTYLE
280
     0
  9
$LWDISPLAY
290
     0
  9
$INSUNITS
 70
     4
  9
$HYPERLINKBASE
  1

  9
$STYLESHEET
  1

  9
$XEDIT
290
     1
  9
$CEPSNTYPE
380
     0
  9
$PSTYLEMODE
290
     1
  9
$FINGERPRINTGUID
  2
{A79EBC8E-4366-46C4-AE0D-E6F708EC9B3B}
  9
$VERSIONGUID
  2
{FAEB1C32-E019-11D5-929B-00C0DF256EC4}
  9
$EXTNAMES
290
     1
  9
$PSVPSCALE
 40
0.0
  9
$OLESTARTUP
290
     0
  0
ENDSEC
  0
SECTION
  2
CLASSES
  0
CLASS
  1
ACDBDICTIONARYWDFLT
  2
AcDbDictionaryWithDefault
  3
ObjectDBX Classes
 90
        0
280
     0
281
     0
  0
CLASS
  1
VISUALSTYLE
  2
AcDbVisualStyle
  3
ObjectDBX Classes
 90
     4095
280
     0
281
     0
  0
CLASS
  1
MATERIAL
  2
AcDbMaterial
  3
ObjectDBX Classes
 90
     1153
280
     0
281
     0
  0
CLASS
  1
DICTIONARYVAR
  2
AcDbDictionaryVar
  3
ObjectDBX Classes
 90
        0
280
     0
281
     0
  0
CLASS
  1
ACDBPLACEHOLDER
  2
AcDbPlaceHolder
  3
ObjectDBX Classes
 90
        0
280
     0
281
     0
  0
CLASS
  1
LAYOUT
  2
AcDbLayout
  3
ObjectDBX Classes
 90
        0
280
     0
281
     0
  0
ENDSEC
  0
SECTION
  2
TABLES
  0
TABLE
  2
VPORT
  5
8
330
0
100
AcDbSymbolTable
 70
     1
  0
VPORT
  5
29
330
8
100
AcDbSymbolTableRecord
100
AcDbViewportTableRecord
  2
*Active
 70
     0
 10
0.0
 20
0.0
 11
1.0
 21
1.0
 12
10.42990654205607
 22
4.5
 13
0.0
 23
0.0
 14
0.5
 24
0.5
 15
0.5
 25
0.5
 16
0.0
 26
0.0
 36
1.0
 17
0.0
 27
0.0
 37
0.0
 40
9.0
 41
1.972972972850329
 42
50.0
 43
0.0
 44
0.0
 50
0.0
 51
0.0
 71
     0
 72
   100
 73
     1
 74
     3
 75
     0
 76
     0
 77
     0
 78
     0
281
     0
 65
     1
110
0.0
120
0.0
130
0.0
111
1.0
121
0.0
131
0.0
112
0.0
122
1.0
132
0.0
 79
     0
146
0.0
  0
ENDTAB
  0
TABLE
  2
LTYPE
  5
5
330
0
100
AcDbSymbolTable
 70
     3
  0
LTYPE
  5
14
330
5
100
AcDbSymbolTableRecord
100
AcDbLinetypeTableRecord
  2
ByBlock
 70
     0
  3

 72
    65
 73
     0
 40
0.0
  0
LTYPE
  5
15
330
5
100
AcDbSymbolTableRecord
100
AcDbLinetypeTableRecord
  2
ByLayer
 70
     0
  3

 72
    65
 73
     0
 40
0.0
  0
LTYPE
  5
16
330
5
100
AcDbSymbolTableRecord
100
AcDbLinetypeTableRecord
  2
Continuous
 70
     0
  3
Solid line
 72
    65
 73
     0
 40
0.0
  0
LTYPE
  5
6D
330
5
100
AcDbSymbolTableRecord
100
AcDbLinetypeTableRecord
  2
New Line1
 70
     0
  3

 72
    65
 73
     4
 40
1.2
 49
0.5
 74
     4
 75
     0
340
0
 46
1.0
 50
0.0
 44
0.0
 45
0.0
 49
-0.3
 74
     4
 75
     0
340
0
 46
1.0
 50
0.0
 44
0.0
 45
0.0
 49
0.1
 74
     4
 75
     0
340
0
 46
1.0
 50
0.0
 44
0.0
 45
0.0
 49
-0.3
 74
     4
 75
     0
340
0
 46
1.0
 50
0.0
 44
0.0
 45
0.0
  0
LTYPE
  5
6F
330
5
100
AcDbSymbolTableRecord
100
AcDbLinetypeTableRecord
  2
New Line2
 70
     0
  3

 72
    65
 73
     4
 40
1.2
 49
0.5
 74
     4
 75
     0
340
0
 46
1.0
 50
0.0
 44
0.0
 45
0.0
 49
-0.3
 74
     4
 75
     0
340
0
 46
1.0
 50
0.0
 44
0.0
 45
0.0
 49
0.1
 74
     4
 75
     0
340
0
 46
1.0
 50
0.0
 44
0.0
 45
0.0
 49
-0.3
 74
     4
 75
     0
340
0
 46
1.0
 50
0.0
 44
0.0
 45
0.0
  0
ENDTAB
  0
TABLE
  2
LAYER
  5
2
330
0
100
AcDbSymbolTable
 70
     2
  0
LAYER
  5
10
330
2
100
AcDbSymbolTableRecord
100
AcDbLayerTableRecord
  2
0
 70
     0
 62
     7
  6
Continuous
370
    -3
390
F
  0
LAYER
  5
40
330
2
100
AcDbSymbolTableRecord
100
AcDbLayerTableRecord
  2
AXIS
 70
     0
 62
     7
  6
Continuous
370
    -3
390
F
  0
ENDTAB
  0
TABLE
  2
STYLE
  5
3
330
0
100
AcDbSymbolTable
 70
     1
  0
STYLE
  5
11
330
3
100
AcDbSymbolTableRecord
100
AcDbTextStyleTableRecord
  2
Standard
 70
     0
 40
0.0
 41
1.0
 50
0.0
 71
     0
 42
0.2
  3
txt
  4

  0
ENDTAB
  0
TABLE
  2
VIEW
  5
6
330
0
100
AcDbSymbolTable
 70
     0
  0
ENDTAB
  0
TABLE
  2
UCS
  5
7
330
0
100
AcDbSymbolTable
 70
     0
  0
ENDTAB
  0
TABLE
  2
APPID
  5
9
330
0
100
AcDbSymbolTable
 70
     2
  0
APPID
  5
12
330
9
100
AcDbSymbolTableRecord
100
AcDbRegAppTableRecord
  2
ACAD
 70
     0
  0
APPID
  5
3F
330
9
100
AcDbSymbolTableRecord
100
AcDbRegAppTableRecord
  2
ODA
 70
     0
  0
ENDTAB
  0
TABLE
  2
DIMSTYLE
  5
A
330
0
100
AcDbSymbolTable
 70
     1
100
AcDbDimStyleTable
  0
DIMSTYLE
105
27
330
A
100
AcDbSymbolTableRecord
100
AcDbDimStyleTableRecord
  2
Standard
 70
     0
340
11
  0
ENDTAB
  0
TABLE
  2
BLOCK_RECORD
  5
1
330
0
100
AcDbSymbolTable
 70
     1
  0
BLOCK_RECORD
  5
1F
330
1
100
AcDbSymbolTableRecord
100
AcDbBlockTableRecord
  2
*Model_Space
340
22
  0
BLOCK_RECORD
  5
1B
330
1
100
AcDbSymbolTableRecord
100
AcDbBlockTableRecord
  2
*Paper_Space
340
1E
  0
BLOCK_RECORD
  5
23
330
1
100
AcDbSymbolTableRecord
100
AcDbBlockTableRecord
  2
*Paper_Space0
340
26
  0
ENDTAB
  0
ENDSEC
  0
SECTION
  2
BLOCKS
  0
BLOCK
  5
20
330
1F
100
AcDbEntity
  8
0
100
AcDbBlockBegin
  2
*Model_Space
 70
     0
 10
0.0
 20
0.0
 30
0.0
  3
*Model_Space
  1

  0
ENDBLK
  5
21
330
1F
100
AcDbEntity
  8
0
100
AcDbBlockEnd
  0
BLOCK
  5
1C
330
1B
100
AcDbEntity
 67
     1
  8
0
100
AcDbBlockBegin
  2
*Paper_Space
 70
     0
 10
0.0
 20
0.0
 30
0.0
  3
*Paper_Space
  1

  0
ENDBLK
  5
1D
330
1B
100
AcDbEntity
 67
     1
  8
0
100
AcDbBlockEnd
  0
BLOCK
  5
24
330
23
100
AcDbEntity
  8
0
100
AcDbBlockBegin
  2
*Paper_Space0
 70
     0
 10
0.0
 20
0.0
 30
0.0
  3
*Paper_Space0
  1

  0
ENDBLK
  5
25
330
23
100
AcDbEntity
  8
0
100
AcDbBlockEnd
  0
ENDSEC
  0
SECTION
  2
ENTITIES
  0
SPLINE
  5
41
330
1F
100
AcDbEntity
  8
AXIS
 62
     9
100
AcDbSpline
210
0.0
220
0.0
230
1.0
 70
    11
 71
     3
 72
   184
 73
   180
 74
     0
 42
0.0000000001
 43
0.0000000001
 40
0.0
 40
0.0
 40
0.0
 40
0.0
 40
0.0217391304347826
 40
0.0217391304347826
 40
0.0217391304347826
 40
0.0217391304347826
 40
0.0434782608695652
 40
0.0434782608695652
 40
0.0434782608695652
 40
0.0434782608695652
 40
0.0652173913043478
 40
0.0652173913043478
 40
0.0652173913043478
 40
0.0652173913043478
 40
0.0869565217391304
 40
0.0869565217391304
 40
0.0869565217391304
 40
0.0869565217391304
 40
0.108695652173913
 40
0.108695652173913
 40
0.108695652173913
 40
0.108695652173913
 40
0.1304347826086956
 40
0.1304347826086956
 40
0.1304347826086956
 40
0.1304347826086956
 40
0.1521739130434783
 40
0.1521739130434783
 40
0.1521739130434783
 40
0.1521739130434783
 40
0.1739130434782609
 40
0.1739130434782609
 40
0.1739130434782609
 40
0.1739130434782609
 40
0.1956521739130435
 40
0.1956521739130435
 40
0.1956521739130435
 40
0.1956521739130435
 40
0.2173913043478261
 40
0.2173913043478261
 40
0.2173913043478261
 40
0.2173913043478261
 40
0.2391304347826087
 40
0.2391304347826087
 40
0.2391304347826087
 40
0.2391304347826087
 40
0.2608695652173913
 40
0.2608695652173913
 40
0.2608695652173913
 40
0.2608695652173913
 40
0.2826086956521739
 40
0.2826086956521739
 40
0.2826086956521739
 40
0.2826086956521739
 40
0.3043478260869565
 40
0.3043478260869565
 40
0.3043478260869565
 40
0.3043478260869565
 40
0.3260869565217391
 40
0.3260869565217391
 40
0.3260869565217391
 40
0.3260869565217391
 40
0.3478260869565217
 40
0.3478260869565217
 40
0.3478260869565217
 40
0.3478260869565217
 40
0.3695652173913043
 40
0.3695652173913043
 40
0.3695652173913043
 40
0.3695652173913043
 40
0.391304347826087
 40
0.391304347826087
 40
0.391304347826087
 40
0.391304347826087
 40
0.4130434782608696
 40
0.4130434782608696
 40
0.4130434782608696
 40
0.4130434782608696
 40
0.4347826086956522
 40
0.4347826086956522
 40
0.4347826086956522
 40
0.4347826086956522
 40
0.4565217391304348
 40
0.4565217391304348
 40
0.4565217391304348
 40
0.4565217391304348
 40
0.4782608695652174
 40
0.4782608695652174
 40
0.4782608695652174
 40
0.4782608695652174
 40
0.5
 40
0.5
 40
0.5
 40
0.5
 40
0.5217391304347826
 40
0.5217391304347826
 40
0.5217391304347826
 40
0.5217391304347826
 40
0.5434782608695652
 40
0.5434782608695652
 40
0.5434782608695652
 40
0.5434782608695652
 40
0.5652173913043478
 40
0.5652173913043478
 40
0.5652173913043478
 40
0.5652173913043478
 40
0.5869565217391305
 40
0.5869565217391305
 40
0.5869565217391305
 40
0.5869565217391305
 40
0.6086956521739131
 40
0.6086956521739131
 40
0.6086956521739131
 40
0.6086956521739131
 40
0.6304347826086957
 40
0.6304347826086957
 40
0.6304347826086957
 40
0.6304347826086957
 40
0.6521739130434783
 40
0.6521739130434783
 40
0.6521739130434783
 40
0.6521739130434783
 40
0.6739130434782609
 40
0.6739130434782609
 40
0.6739130434782609
 40
0.6739130434782609
 40
0.6956521739130435
 40
0.6956521739130435
 40
0.6956521739130435
 40
0.6956521739130435
 40
0.717391304347826
 40
0.717391304347826
 40
0.717391304347826
 40
0.717391304347826
 40
0.7391304347826086
 40
0.7391304347826086
 40
0.7391304347826086
 40
0.7391304347826086
 40
0.7608695652173914
 40
0.7608695652173914
 40
0.7608695652173914
 40
0.7608695652173914
 40
0.782608695652174
 40
0.782608695652174
 40
0.782608695652174
 40
0.782608695652174
 40
0.8043478260869565
 40
0.8043478260869565
 40
0.8043478260869565
 40
0.8043478260869565
 40
0.8260869565217391
 40
0.8260869565217391
 40
0.8260869565217391
 40
0.8260869565217391
 40
0.8478260869565217
 40
0.8478260869565217
 40
0.8478260869565217
 40
0.8478260869565217
 40
0.8695652173913043
 40
0.8695652173913043
 40
0.8695652173913043
 40
0.8695652173913043
 40
0.8913043478260869
 40
0.8913043478260869
 40
0.8913043478260869
 40
0.8913043478260869
 40
0.9130434782608695
 40
0.9130434782608695
 40
0.9130434782608695
 40
0.9130434782608695
 40
0.9347826086956522
 40
0.9347826086956522
 40
0.9347826086956522
 40
0.9347826086956522
 40
0.9565217391304348
 40
0.9565217391304348
 40
0.9565217391304348
 40
0.9565217391304348
 40
1.0
 40
1.0
 40
1.0
 40
1.0
 10
-19.3723
 20
6.3745
 30
0.0
 10
-19.3723
 20
6.3745
 30
0.0
 10
-8.3864
 20
6.3964
 30
0.0
 10
-8.3864
 20
6.3964
 30
0.0
 10
-8.3864
 20
6.3964
 30
0.0
 10
-8.3864
 20
6.3964
 30
0.0
 10
-8.3533
 20
6.1208
 30
0.0
 10
-8.3533
 20
6.1208
 30
0.0
 10
-8.3533
 20
6.1208
 30
0.0
 10
-8.3533
 20
6.1208
 30
0.0
 10
-7.9234
 20
6.1263
 30
0.0
 10
-7.9234
 20
6.1263
 30
0.0
 10
-7.9234
 20
6.1263
 30
0.0
 10
-7.9234
 20
6.1263
 30
0.0
 10
-7.9179
 20
6.3689
 30
0.0
 10
-7.9179
 20
6.3689
 30
0.0
 10
-7.9179
 20
6.3689
 30
0.0
 10
-7.9179
 20
6.3689
 30
0.0
 10
-6.7271
 20
6.3855
 30
0.0
 10
-6.7271
 20
6.3855
 30
0.0
 10
-6.7271
 20
6.3855
 30
0.0
 10
-6.7271
 20
6.3855
 30
0.0
 10
-6.7325
 20
8.1218
 30
0.0
 10
-6.7325
 20
8.1218
 30
0.0
 10
-6.7325
 20
8.1218
 30
0.0
 10
-6.7325
 20
8.1218
 30
0.0
 10
-7.6421
 20
8.5849
 30
0.0
 10
-7.6421
 20
8.5849
 30
0.0
 10
-7.6421
 20
8.5849
 30
0.0
 10
-7.6421
 20
8.5849
 30
0.0
 10
-7.6527
 20
13.5897
 30
0.0
 10
-7.6527
 20
13.5897
 30
0.0
 10
-7.6527
 20
13.5897
 30
0.0
 10
-7.6527
 20
13.5897
 30
0.0
 10
-7.0518
 20
13.8874
 30
0.0
 10
-7.0518
 20
13.8874
 30
0.0
 10
-7.0518
 20
13.8874
 30
0.0
 10
-7.0518
 20
13.8874
 30
0.0
 10
-6.9692
 20
14.2346
 30
0.0
 10
-6.9692
 20
14.2346
 30
0.0
 10
-6.9692
 20
14.2346
 30
0.0
 10
-6.9692
 20
14.2346
 30
0.0
 10
1.8396
 20
14.1849
 30
0.0
 10
1.8396
 20
14.1849
 30
0.0
 10
1.8396
 20
14.1849
 30
0.0
 10
1.8396
 20
14.1849
 30
0.0
 10
1.8562
 20
13.8487
 30
0.0
 10
1.8562
 20
13.8487
 30
0.0
 10
1.8562
 20
13.8487
 30
0.0
 10
1.8562
 20
13.8487
 30
0.0
 10
2.5948
 20
13.5345
 30
0.0
 10
2.5948
 20
13.5345
 30
0.0
 10
2.5948
 20
13.5345
 30
0.0
 10
2.5948
 20
13.5345
 30
0.0
 10
2.6066
 20
8.7056
 30
0.0
 10
2.6066
 20
8.7056
 30
0.0
 10
2.6066
 20
8.7056
 30
0.0
 10
2.6066
 20
8.7056
 30
0.0
 10
1.6419
 20
8.1214
 30
0.0
 10
1.6419
 20
8.1214
 30
0.0
 10
1.6419
 20
8.1214
 30
0.0
 10
1.6419
 20
8.1214
 30
0.0
 10
1.653
 20
6.4511
 30
0.0
 10
1.653
 20
6.4511
 30
0.0
 10
1.653
 20
6.4511
 30
0.0
 10
1.653
 20
6.4511
 30
0.0
 10
4.7565
 20
6.379
 30
0.0
 10
4.7565
 20
6.379
 30
0.0
 10
4.7565
 20
6.379
 30
0.0
 10
4.7565
 20
6.379
 30
0.0
 10
4.8226
 20
6.0042
 30
0.0
 10
4.8226
 20
6.0042
 30
0.0
 10
4.8226
 20
6.0042
 30
0.0
 10
4.8226
 20
6.0042
 30
0.0
 10
5.247
 20
6.0318
 30
0.0
 10
5.247
 20
6.0318
 30
0.0
 10
5.247
 20
6.0318
 30
0.0
 10
5.247
 20
6.0318
 30
0.0
 10
5.2909
 20
12.5413
 30
0.0
 10
5.2909
 20
12.5413
 30
0.0
 10
5.2909
 20
12.5413
 30
0.0
 10
5.2909
 20
12.5413
 30
0.0
 10
5.4177
 20
12.7673
 30
0.0
 10
5.4177
 20
12.7673
 30
0.0
 10
5.4177
 20
12.7673
 30
0.0
 10
5.4177
 20
12.7673
 30
0.0
 10
5.6327
 20
12.839
 30
0.0
 10
5.6327
 20
12.839
 30
0.0
 10
5.6327
 20
12.839
 30
0.0
 10
5.6327
 20
12.839
 30
0.0
 10
7.6391
 20
12.8169
 30
0.0
 10
7.6391
 20
12.8169
 30
0.0
 10
7.6391
 20
12.8169
 30
0.0
 10
7.6391
 20
12.8169
 30
0.0
 10
7.7273
 20
6.0974
 30
0.0
 10
7.7273
 20
6.0974
 30
0.0
 10
7.7273
 20
6.0974
 30
0.0
 10
7.7273
 20
6.0974
 30
0.0
 10
14.9093
 20
6.1194
 30
0.0
 10
14.9093
 20
6.1194
 30
0.0
 10
14.9093
 20
6.1194
 30
0.0
 10
14.9093
 20
6.1194
 30
0.0
 10
15.477
 20
5.5627
 30
0.0
 10
15.477
 20
5.5627
 30
0.0
 10
15.477
 20
5.5627
 30
0.0
 10
15.477
 20
5.5627
 30
0.0
 10
15.4877
 20
-3.6538
 30
0.0
 10
15.4877
 20
-3.6538
 30
0.0
 10
15.4877
 20
-3.6538
 30
0.0
 10
15.4877
 20
-3.6538
 30
0.0
 10
14.9586
 20
-4.172
 30
0.0
 10
14.9586
 20
-4.172
 30
0.0
 10
14.9586
 20
-4.172
 30
0.0
 10
14.9586
 20
-4.172
 30
0.0
 10
7.732
 20
-4.1554
 30
0.0
 10
7.732
 20
-4.1554
 30
0.0
 10
7.732
 20
-4.1554
 30
0.0
 10
7.732
 20
-4.1554
 30
0.0
 10
7.688
 20
-10.9576
 30
0.0
 10
7.688
 20
-10.9576
 30
0.0
 10
7.688
 20
-10.9576
 30
0.0
 10
7.688
 20
-10.9576
 30
0.0
 10
5.7036
 20
-10.9686
 30
0.0
 10
5.7036
 20
-10.9686
 30
0.0
 10
5.7036
 20
-10.9686
 30
0.0
 10
5.7036
 20
-10.9686
 30
0.0
 10
5.2957
 20
-10.7151
 30
0.0
 10
5.2957
 20
-10.7151
 30
0.0
 10
5.2957
 20
-10.7151
 30
0.0
 10
5.2957
 20
-10.7151
 30
0.0
 10
5.2295
 20
-4.1444
 30
0.0
 10
5.2295
 20
-4.1444
 30
0.0
 10
5.2295
 20
-4.1444
 30
0.0
 10
5.2295
 20
-4.1444
 30
0.0
 10
4.8326
 20
-4.1334
 30
0.0
 10
4.8326
 20
-4.1334
 30
0.0
 10
4.8326
 20
-4.1334
 30
0.0
 10
4.8326
 20
-4.1334
 30
0.0
 10
4.7665
 20
-4.4972
 30
0.0
 10
4.7665
 20
-4.4972
 30
0.0
 10
4.7665
 20
-4.4972
 30
0.0
 10
4.7665
 20
-4.4972
 30
0.0
 10
-7.8677
 20
-4.5628
 30
0.0
 10
-7.8677
 20
-4.5628
 30
0.0
 10
-7.8677
 20
-4.5628
 30
0.0
 10
-7.8677
 20
-4.5628
 30
0.0
 10
-7.8898
 20
-4.2872
 30
0.0
 10
-7.8898
 20
-4.2872
 30
0.0
 10
-7.8898
 20
-4.2872
 30
0.0
 10
-7.8898
 20
-4.2872
 30
0.0
 10
-8.3197
 20
-4.2652
 30
0.0
 10
-8.3197
 20
-4.2652
 30
0.0
 10
-8.3197
 20
-4.2652
 30
0.0
 10
-8.3197
 20
-4.2652
 30
0.0
 10
-8.3418
 20
-4.5077
 30
0.0
 10
-8.3418
 20
-4.5077
 30
0.0
 10
-8.3418
 20
-4.5077
 30
0.0
 10
-8.3418
 20
-4.5077
 30
0.0
 10
-19.1233
 20
-4.5186
 30
0.0
 10
-19.1233
 20
-4.5186
 30
0.0
 10
-19.1233
 20
-4.5186
 30
0.0
 10
-19.1233
 20
-4.5186
 30
0.0
 10
-19.3989
 20
-4.4304
 30
0.0
 10
-19.3989
 20
-4.4304
 30
0.0
 10
-19.3989
 20
-4.4304
 30
0.0
 10
-19.3989
 20
-4.4304
 30
0.0
 10
-19.5092
 20
-4.1548
 30
0.0
 10
-19.5092
 20
-4.1548
 30
0.0
 10
-19.5092
 20
-4.1548
 30
0.0
 10
-19.5092
 20
-4.1548
 30
0.0
 10
-19.5476
 20
6.1395
 30
0.0
 10
-19.5476
 20
6.1395
 30
0.0
 10
-19.5476
 20
6.1395
 30
0.0
 10
-19.5476
 20
6.1395
 30
0.0
 10
-19.4952
 20
6.2745
 30
0.0
 10
-19.4952
 20
6.2745
 30
0.0
 10
-19.4952
 20
6.2745
 30
0.0
 10
-19.4952
 20
6.2745
 30
0.0
 10
-19.3723
 20
6.3745
 30
0.0
 10
-19.3723
 20
6.3745
 30
0.0
  0
SPLINE
  5
42
330
1F
100
AcDbEntity
  8
AXIS
 62
   250
370
    30
100
AcDbSpline
210
0.0
220
0.0
230
1.0
 70
    11
 71
     3
 72
    40
 73
    36
 74
     0
 42
0.0000000001
 43
0.0000000001
 40
0.0
 40
0.0
 40
0.0
 40
0.0
 40
0.1
 40
0.1
 40
0.1
 40
0.1
 40
0.2
 40
0.2
 40
0.2
 40
0.2
 40
0.3
 40
0.3
 40
0.3
 40
0.3
 40
0.4
 40
0.4
 40
0.4
 40
0.4
 40
0.5
 40
0.5
 40
0.5
 40
0.5
 40
0.6
 40
0.6
 40
0.6
 40
0.6
 40
0.7
 40
0.7
 40
0.7
 40
0.7
 40
0.8
 40
0.8
 40
0.8
 40
0.8
 40
1.0
 40
1.0
 40
1.0
 40
1.0
 10
7.7132
 20
-10.9644
 30
0.0
 10
7.7132
 20
-10.9644
 30
0.0
 10
5.7013
 20
-10.9655
 30
0.0
 10
5.7013
 20
-10.9655
 30
0.0
 10
5.7013
 20
-10.9655
 30
0.0
 10
5.7013
 20
-10.9655
 30
0.0
 10
5.518
 20
-10.874
 30
0.0
 10
5.518
 20
-10.874
 30
0.0
 10
5.518
 20
-10.874
 30
0.0
 10
5.518
 20
-10.874
 30
0.0
 10
5.2735
 20
-10.7215
 30
0.0
 10
5.2735
 20
-10.7215
 30
0.0
 10
5.2735
 20
-10.7215
 30
0.0
 10
5.2735
 20
-10.7215
 30
0.0
 10
5.2735
 20
-10.5385
 30
0.0
 10
5.2735
 20
-10.5385
 30
0.0
 10
5.2735
 20
-10.5385
 30
0.0
 10
5.2735
 20
-10.5385
 30
0.0
 10
5.2735
 20
12.5811
 30
0.0
 10
5.2735
 20
12.5811
 30
0.0
 10
5.2735
 20
12.5811
 30
0.0
 10
5.2735
 20
12.5811
 30
0.0
 10
5.4874
 20
12.8251
 30
0.0
 10
5.4874
 20
12.8251
 30
0.0
 10
5.4874
 20
12.8251
 30
0.0
 10
5.4874
 20
12.8251
 30
0.0
 10
5.7625
 20
12.8861
 30
0.0
 10
5.7625
 20
12.8861
 30
0.0
 10
5.7625
 20
12.8861
 30
0.0
 10
5.7625
 20
12.8861
 30
0.0
 10
7.7132
 20
12.8666
 30
0.0
 10
7.7132
 20
12.8666
 30
0.0
 10
7.7132
 20
12.8666
 30
0.0
 10
7.7132
 20
12.8666
 30
0.0
 10
7.7132
 20
-10.9644
 30
0.0
 10
7.7132
 20
-10.9644
 30
0.0
  0
SPLINE
  5
43
330
1F
100
AcDbEntity
  8
AXIS
 62
   250
370
    30
100
AcDbSpline
210
0.0
220
0.0
230
1.0
 70
    27
 71
     3
 72
    12
 73
     8
 74
     0
 42
0.0000000001
 43
0.0000000001
 40
0.0
 40
0.0
 40
0.0
 40
0.0
 40
0.3333333333333333
 40
0.3333333333333333
 40
0.3333333333333333
 40
0.3333333333333333
 40
1.0
 40
1.0
 40
1.0
 40
1.0
 10
-8.3362
 20
6.1794
 30
0.0
 10
-8.3362
 20
6.1794
 30
0.0
 10
-7.8498
 20
6.1794
 30
0.0
 10
-7.8498
 20
6.1794
 30
0.0
 10
-7.8498
 20
6.1794
 30
0.0
 10
-7.8498
 20
6.1794
 30
0.0
 10
-8.3362
 20
6.1794
 30
0.0
 10
-8.3362
 20
6.1794
 30
0.0
  0
SPLINE
  5
44
330
1F
100
AcDbEntity
  8
AXIS
 62
   250
370
    30
100
AcDbSpline
210
0.0
220
0.0
230
1.0
 70
    27
 71
     3
 72
    12
 73
     8
 74
     0
 42
0.0000000001
 43
0.0000000001
 40
0.0
 40
0.0
 40
0.0
 40
0.0
 40
0.3333333333333333
 40
0.3333333333333333
 40
0.3333333333333333
 40
0.3333333333333333
 40
1.0
 40
1.0
 40
1.0
 40
1.0
 10
4.7952
 20
-4.1555
 30
0.0
 10
4.7952
 20
-4.1555
 30
0.0
 10
5.2815
 20
-4.1555
 30
0.0
 10
5.2815
 20
-4.1555
 30
0.0
 10
5.2815
 20
-4.1555
 30
0.0
 10
5.2815
 20
-4.1555
 30
0.0
 10
4.7952
 20
-4.1555
 30
0.0
 10
4.7952
 20
-4.1555
 30
0.0
  0
SPLINE
  5
45
330
1F
100
AcDbEntity
  8
AXIS
 62
   250
370
    30
100
AcDbSpline
210
0.0
220
0.0
230
1.0
 70
    27
 71
     3
 72
    12
 73
     8
 74
     0
 42
0.0000000001
 43
0.0000000001
 40
0.0
 40
0.0
 40
0.0
 40
0.0
 40
0.3333333333333333
 40
0.3333333333333333
 40
0.3333333333333333
 40
0.3333333333333333
 40
1.0
 40
1.0
 40
1.0
 40
1.0
 10
4.7952
 20
6.0578
 30
0.0
 10
4.7952
 20
6.0578
 30
0.0
 10
5.2815
 20
6.0578
 30
0.0
 10
5.2815
 20
6.0578
 30
0.0
 10
5.2815
 20
6.0578
 30
0.0
 10
5.2815
 20
6.0578
 30
0.0
 10
4.7952
 20
6.0578
 30
0.0
 10
4.7952
 20
6.0578
 30
0.0
  0
SPLINE
  5
46
330
1F
100
AcDbEntity
  8
AXIS
 62
   250
370
    30
100
AcDbSpline
210
0.0
220
0.0
230
1.0
 70
    27
 71
     3
 72
    12
 73
     8
 74
     0
 42
0.0000000001
 43
0.0000000001
 40
0.0
 40
0.0
 40
0.0
 40
0.0
 40
0.3333333333333333
 40
0.3333333333333333
 40
0.3333333333333333
 40
0.3333333333333333
 40
1.0
 40
1.0
 40
1.0
 40
1.0
 10
-8.3362
 20
-4.2771
 30
0.0
 10
-8.3362
 20
-4.2771
 30
0.0
 10
-7.8498
 20
-4.2771
 30
0.0
 10
-7.8498
 20
-4.2771
 30
0.0
 10
-7.8498
 20
-4.2771
 30
0.0
 10
-7.8498
 20
-4.2771
 30
0.0
 10
-8.3362
 20
-4.2771
 30
0.0
 10
-8.3362
 20
-4.2771
 30
0.0
  0
SPLINE
  5
47
330
1F
100
AcDbEntity
  8
AXIS
 62
   250
370
    30
100
AcDbSpline
210
0.0
220
0.0
230
1.0
 70
    11
 71
     3
 72
    32
 73
    28
 74
     0
 42
0.0000000001
 43
0.0000000001
 40
0.0
 40
0.0
 40
0.0
 40
0.0
 40
0.125
 40
0.125
 40
0.125
 40
0.125
 40
0.25
 40
0.25
 40
0.25
 40
0.25
 40
0.375
 40
0.375
 40
0.375
 40
0.375
 40
0.5
 40
0.5
 40
0.5
 40
0.5
 40
0.625
 40
0.625
 40
0.625
 40
0.625
 40
0.75
 40
0.75
 40
0.75
 40
0.75
 40
1.0
 40
1.0
 40
1.0
 40
1.0
 10
4.7952
 20
6.0578
 30
0.0
 10
4.7952
 20
6.0578
 30
0.0
 10
4.7952
 20
-4.1555
 30
0.0
 10
4.7952
 20
-4.1555
 30
0.0
 10
4.7952
 20
-4.1555
 30
0.0
 10
4.7952
 20
-4.1555
 30
0.0
 10
4.7952
 20
-4.559
 30
0.0
 10
4.7952
 20
-4.559
 30
0.0
 10
4.7952
 20
-4.559
 30
0.0
 10
4.7952
 20
-4.559
 30
0.0
 10
-6.5475
 20
-4.5591
 30
0.0
 10
-6.5475
 20
-4.5591
 30
0.0
 10
-6.5475
 20
-4.5591
 30
0.0
 10
-6.5475
 20
-4.5591
 30
0.0
 10
-7.9043
 20
-4.5696
 30
0.0
 10
-7.9043
 20
-4.5696
 30
0.0
 10
-7.9043
 20
-4.5696
 30
0.0
 10
-7.9043
 20
-4.5696
 30
0.0
 10
-7.9043
 20
6.3885
 30
0.0
 10
-7.9043
 20
6.3885
 30
0.0
 10
-7.9043
 20
6.3885
 30
0.0
 10
-7.9043
 20
6.3885
 30
0.0
 10
4.7455
 20
6.3885
 30
0.0
 10
4.7455
 20
6.3885
 30
0.0
 10
4.7455
 20
6.3885
 30
0.0
 10
4.7455
 20
6.3885
 30
0.0
 10
4.7952
 20
6.0578
 30
0.0
 10
4.7952
 20
6.0578
 30
0.0
  0
SPLINE
  5
48
330
1F
100
AcDbEntity
  8
AXIS
 62
   250
370
    30
100
AcDbSpline
210
0.0
220
0.0
230
1.0
 70
    11
 71
     3
 72
    44
 73
    40
 74
     0
 42
0.0000000001
 43
0.0000000001
 40
0.0
 40
0.0
 40
0.0
 40
0.0
 40
0.0909090909090909
 40
0.0909090909090909
 40
0.0909090909090909
 40
0.0909090909090909
 40
0.1818181818181818
 40
0.1818181818181818
 40
0.1818181818181818
 40
0.1818181818181818
 40
0.2727272727272727
 40
0.2727272727272727
 40
0.2727272727272727
 40
0.2727272727272727
 40
0.3636363636363636
 40
0.3636363636363636
 40
0.3636363636363636
 40
0.3636363636363636
 40
0.4545454545454545
 40
0.4545454545454545
 40
0.4545454545454545
 40
0.4545454545454545
 40
0.5454545454545454
 40
0.5454545454545454
 40
0.5454545454545454
 40
0.5454545454545454
 40
0.6363636363636364
 40
0.6363636363636364
 40
0.6363636363636364
 40
0.6363636363636364
 40
0.7272727272727273
 40
0.7272727272727273
 40
0.7272727272727273
 40
0.7272727272727273
 40
0.8181818181818182
 40
0.8181818181818182
 40
0.8181818181818182
 40
0.8181818181818182
 40
1.0
 40
1.0
 40
1.0
 40
1.0
 10
-19.2508
 20
6.3978
 30
0.0
 10
-19.2508
 20
6.3978
 30
0.0
 10
-8.344
 20
6.4316
 30
0.0
 10
-8.344
 20
6.4316
 30
0.0
 10
-8.344
 20
6.4316
 30
0.0
 10
-8.344
 20
6.4316
 30
0.0
 10
-8.3362
 20
6.1794
 30
0.0
 10
-8.3362
 20
6.1794
 30
0.0
 10
-8.3362
 20
6.1794
 30
0.0
 10
-8.3362
 20
6.1794
 30
0.0
 10
-8.3362
 20
-4.2771
 30
0.0
 10
-8.3362
 20
-4.2771
 30
0.0
 10
-8.3362
 20
-4.2771
 30
0.0
 10
-8.3362
 20
-4.2771
 30
0.0
 10
-8.3362
 20
-4.5037
 30
0.0
 10
-8.3362
 20
-4.5037
 30
0.0
 10
-8.3362
 20
-4.5037
 30
0.0
 10
-8.3362
 20
-4.5037
 30
0.0
 10
-19.2508
 20
-4.5037
 30
0.0
 10
-19.2508
 20
-4.5037
 30
0.0
 10
-19.2508
 20
-4.5037
 30
0.0
 10
-19.2508
 20
-4.5037
 30
0.0
 10
-19.4373
 20
-4.4699
 30
0.0
 10
-19.4373
 20
-4.4699
 30
0.0
 10
-19.4373
 20
-4.4699
 30
0.0
 10
-19.4373
 20
-4.4699
 30
0.0
 10
-19.5391
 20
-4.3006
 30
0.0
 10
-19.5391
 20
-4.3006
 30
0.0
 10
-19.5391
 20
-4.3006
 30
0.0
 10
-19.5391
 20
-4.3006
 30
0.0
 10
-19.5391
 20
6.1439
 30
0.0
 10
-19.5391
 20
6.1439
 30
0.0
 10
-19.5391
 20
6.1439
 30
0.0
 10
-19.5391
 20
6.1439
 30
0.0
 10
-19.4373
 20
6.3978
 30
0.0
 10
-19.4373
 20
6.3978
 30
0.0
 10
-19.4373
 20
6.3978
 30
0.0
 10
-19.4373
 20
6.3978
 30
0.0
 10
-19.2508
 20
6.3978
 30
0.0
 10
-19.2508
 20
6.3978
 30
0.0
  0
SPLINE
  5
49
330
1F
100
AcDbEntity
  8
AXIS
 62
   250
370
    30
100
AcDbSpline
210
0.0
220
0.0
230
1.0
 70
     8
 71
     3
 72
    24
 73
    20
 74
     0
 42
0.0000000001
 43
0.0000000001
 40
0.0
 40
0.0
 40
0.0
 40
0.0
 40
0.1666666666666667
 40
0.1666666666666667
 40
0.1666666666666667
 40
0.1666666666666667
 40
0.3333333333333333
 40
0.3333333333333333
 40
0.3333333333333333
 40
0.3333333333333333
 40
0.5
 40
0.5
 40
0.5
 40
0.5
 40
0.6666666666666666
 40
0.6666666666666666
 40
0.6666666666666666
 40
0.6666666666666666
 40
1.0
 40
1.0
 40
1.0
 40
1.0
 10
7.7032
 20
-4.146
 30
0.0
 10
7.7032
 20
-4.146
 30
0.0
 10
14.972
 20
-4.1696
 30
0.0
 10
14.972
 20
-4.1696
 30
0.0
 10
14.972
 20
-4.1696
 30
0.0
 10
14.972
 20
-4.1696
 30
0.0
 10
15.4948
 20
-3.6692
 30
0.0
 10
15.4948
 20
-3.6692
 30
0.0
 10
15.4948
 20
-3.6692
 30
0.0
 10
15.4948
 20
-3.6692
 30
0.0
 10
15.4948
 20
5.5714
 30
0.0
 10
15.4948
 20
5.5714
 30
0.0
 10
15.4948
 20
5.5714
 30
0.0
 10
15.4948
 20
5.5714
 30
0.0
 10
14.9248
 20
6.12
 30
0.0
 10
14.9248
 20
6.12
 30
0.0
 10
14.9248
 20
6.12
 30
0.0
 10
14.9248
 20
6.12
 30
0.0
 10
7.7268
 20
6.0728
 30
0.0
 10
7.7268
 20
6.0728
 30
0.0
  0
SPLINE
  5
4A
330
1F
100
AcDbEntity
  8
AXIS
 62
   250
370
    30
100
AcDbSpline
210
0.0
220
0.0
230
1.0
 70
    27
 71
     3
 72
    16
 73
    12
 74
     0
 42
0.0000000001
 43
0.0000000001
 40
0.0
 40
0.0
 40
0.0
 40
0.0
 40
0.25
 40
0.25
 40
0.25
 40
0.25
 40
0.5
 40
0.5
 40
0.5
 40
0.5
 40
1.0
 40
1.0
 40
1.0
 40
1.0
 10
1.6929
 20
8.1462
 30
0.0
 10
1.6929
 20
8.1462
 30
0.0
 10
1.654
 20
8.1462
 30
0.0
 10
1.654
 20
8.1462
 30
0.0
 10
1.654
 20
8.1462
 30
0.0
 10
1.654
 20
8.1462
 30
0.0
 10
-6.7567
 20
8.1462
 30
0.0
 10
-6.7567
 20
8.1462
 30
0.0
 10
-6.7567
 20
8.1462
 30
0.0
 10
-6.7567
 20
8.1462
 30
0.0
 10
1.6929
 20
8.1462
 30
0.0
 10
1.6929
 20
8.1462
 30
0.0
  0
SPLINE
  5
4B
330
1F
100
AcDbEntity
  8
AXIS
 62
   250
370
    30
100
AcDbSpline
210
0.0
220
0.0
230
1.0
 70
     8
 71
     3
 72
    52
 73
    48
 74
     0
 42
0.0000000001
 43
0.0000000001
 40
0.0
 40
0.0
 40
0.0
 40
0.0
 40
0.0769230769230769
 40
0.0769230769230769
 40
0.0769230769230769
 40
0.0769230769230769
 40
0.1538461538461539
 40
0.1538461538461539
 40
0.1538461538461539
 40
0.1538461538461539
 40
0.2307692307692308
 40
0.2307692307692308
 40
0.2307692307692308
 40
0.2307692307692308
 40
0.3076923076923077
 40
0.3076923076923077
 40
0.3076923076923077
 40
0.3076923076923077
 40
0.3846153846153846
 40
0.3846153846153846
 40
0.3846153846153846
 40
0.3846153846153846
 40
0.4615384615384616
 40
0.4615384615384616
 40
0.4615384615384616
 40
0.4615384615384616
 40
0.5384615384615384
 40
0.5384615384615384
 40
0.5384615384615384
 40
0.5384615384615384
 40
0.6153846153846154
 40
0.6153846153846154
 40
0.6153846153846154
 40
0.6153846153846154
 40
0.6923076923076923
 40
0.6923076923076923
 40
0.6923076923076923
 40
0.6923076923076923
 40
0.7692307692307693
 40
0.7692307692307693
 40
0.7692307692307693
 40
0.7692307692307693
 40
0.8461538461538461
 40
0.8461538461538461
 40
0.8461538461538461
 40
0.8461538461538461
 40
1.0
 40
1.0
 40
1.0
 40
1.0
 10
-6.7567
 20
6.4078
 30
0.0
 10
-6.7567
 20
6.4078
 30
0.0
 10
-6.7567
 20
8.1462
 30
0.0
 10
-6.7567
 20
8.1462
 30
0.0
 10
-6.7567
 20
8.1462
 30
0.0
 10
-6.7567
 20
8.1462
 30
0.0
 10
-7.6549
 20
8.5874
 30
0.0
 10
-7.6549
 20
8.5874
 30
0.0
 10
-7.6549
 20
8.5874
 30
0.0
 10
-7.6549
 20
8.5874
 30
0.0
 10
-7.6549
 20
13.6163
 30
0.0
 10
-7.6549
 20
13.6163
 30
0.0
 10
-7.6549
 20
13.6163
 30
0.0
 10
-7.6549
 20
13.6163
 30
0.0
 10
-7.0017
 20
13.919
 30
0.0
 10
-7.0017
 20
13.919
 30
0.0
 10
-7.0017
 20
13.919
 30
0.0
 10
-7.0017
 20
13.919
 30
0.0
 10
-7.025
 20
14.2449
 30
0.0
 10
-7.025
 20
14.2449
 30
0.0
 10
-7.025
 20
14.2449
 30
0.0
 10
-7.025
 20
14.2449
 30
0.0
 10
1.8637
 20
14.1984
 30
0.0
 10
1.8637
 20
14.1984
 30
0.0
 10
1.8637
 20
14.1984
 30
0.0
 10
1.8637
 20
14.1984
 30
0.0
 10
1.887
 20
13.8491
 30
0.0
 10
1.887
 20
13.8491
 30
0.0
 10
1.887
 20
13.8491
 30
0.0
 10
1.887
 20
13.8491
 30
0.0
 10
2.5869
 20
13.5698
 30
0.0
 10
2.5869
 20
13.5698
 30
0.0
 10
2.5869
 20
13.5698
 30
0.0
 10
2.5869
 20
13.5698
 30
0.0
 10
2.5869
 20
8.7038
 30
0.0
 10
2.5869
 20
8.7038
 30
0.0
 10
2.5869
 20
8.7038
 30
0.0
 10
2.5869
 20
8.7038
 30
0.0
 10
1.6537
 20
8.1683
 30
0.0
 10
1.6537
 20
8.1683
 30
0.0
 10
1.6537
 20
8.1683
 30
0.0
 10
1.6537
 20
8.1683
 30
0.0
 10
1.654
 20
8.1462
 30
0.0
 10
1.654
 20
8.1462
 30
0.0
 10
1.654
 20
8.1462
 30
0.0
 10
1.654
 20
8.1462
 30
0.0
 10
1.6767
 20
6.3909
 30
0.0
 10
1.6767
 20
6.3909
 30
0.0
  0
SPLINE
  5
4C
330
1F
100
AcDbEntity
  8
AXIS
 62
   250
370
    15
100
AcDbSpline
210
0.0
220
0.0
230
1.0
 70
    24
 71
     3
 72
     8
 73
     4
 74
     0
 42
0.0000000001
 43
0.0000000001
 40
0.0
 40
0.0
 40
0.0
 40
0.0
 40
1.0
 40
1.0
 40
1.0
 40
1.0
 10
2.6645
 20
8.7189
 30
0.0
 10
2.6645
 20
8.7189
 30
0.0
 10
-7.4873
 20
8.567
 30
0.0
 10
-7.4873
 20
8.567
 30
0.0
  0
SPLINE
  5
4D
330
1F
100
AcDbEntity
  8
AXIS
 62
   250
370
    15
100
AcDbSpline
210
0.0
220
0.0
230
1.0
 70
    24
 71
     3
 72
     8
 73
     4
 74
     0
 42
0.0000000001
 43
0.0000000001
 40
0.0
 40
0.0
 40
0.0
 40
0.0
 40
1.0
 40
1.0
 40
1.0
 40
1.0
 10
2.4872
 20
12.2134
 30
0.0
 10
2.4872
 20
12.2134
 30
0.0
 10
-7.6646
 20
12.0615
 30
0.0
 10
-7.6646
 20
12.0615
 30
0.0
  0
SPLINE
  5
4E
330
1F
100
AcDbEntity
  8
AXIS
 62
   250
370
    15
100
AcDbSpline
210
0.0
220
0.0
230
1.0
 70
    24
 71
     3
 72
     8
 73
     4
 74
     0
 42
0.0000000001
 43
0.0000000001
 40
0.0
 40
0.0
 40
0.0
 40
0.0
 40
1.0
 40
1.0
 40
1.0
 40
1.0
 10
2.5378
 20
10.8717
 30
0.0
 10
2.5378
 20
10.8717
 30
0.0
 10
-7.614
 20
10.7198
 30
0.0
 10
-7.614
 20
10.7198
 30
0.0
  0
SPLINE
  5
4F
330
1F
100
AcDbEntity
  8
AXIS
 62
   250
370
    15
100
AcDbSpline
210
0.0
220
0.0
230
1.0
 70
    24
 71
     3
 72
     8
 73
     4
 74
     0
 42
0.0000000001
 43
0.0000000001
 40
0.0
 40
0.0
 40
0.0
 40
0.0
 40
1.0
 40
1.0
 40
1.0
 40
1.0
 10
2.4882
 20
9.8327
 30
0.0
 10
2.4882
 20
9.8327
 30
0.0
 10
-7.6636
 20
9.6808
 30
0.0
 10
-7.6636
 20
9.6808
 30
0.0
  0
SPLINE
  5
50
330
1F
100
AcDbEntity
  8
AXIS
 62
   250
370
    15
100
AcDbSpline
210
0.0
220
0.0
230
1.0
 70
    24
 71
     3
 72
     8
 73
     4
 74
     0
 42
0.0000000001
 43
0.0000000001
 40
0.0
 40
0.0
 40
0.0
 40
0.0
 40
1.0
 40
1.0
 40
1.0
 40
1.0
 10
2.4872
 20
13.4539
 30
0.0
 10
2.4872
 20
13.4539
 30
0.0
 10
-7.6646
 20
13.302
 30
0.0
 10
-7.6646
 20
13.302
 30
0.0
  0
SPLINE
  5
51
330
1F
100
AcDbEntity
  8
AXIS
 62
   250
370
    15
100
AcDbSpline
210
0.0
220
0.0
230
1.0
 70
    24
 71
     3
 72
     8
 73
     4
 74
     0
 42
0.0000000001
 43
0.0000000001
 40
0.0
 40
0.0
 40
0.0
 40
0.0
 40
1.0
 40
1.0
 40
1.0
 40
1.0
 10
8.6754
 20
-4.0512
 30
0.0
 10
8.6754
 20
-4.0512
 30
0.0
 10
8.3754
 20
5.9488
 30
0.0
 10
8.3754
 20
5.9488
 30
0.0
  0
SPLINE
  5
52
330
1F
100
AcDbEntity
  8
AXIS
 62
   250
370
    15
100
AcDbSpline
210
0.0
220
0.0
230
1.0
 70
    24
 71
     3
 72
     8
 73
     4
 74
     0
 42
0.0000000001
 43
0.0000000001
 40
0.0
 40
0.0
 40
0.0
 40
0.0
 40
1.0
 40
1.0
 40
1.0
 40
1.0
 10
13.7468
 20
-4.0332
 30
0.0
 10
13.7468
 20
-4.0332
 30
0.0
 10
13.4468
 20
5.9668
 30
0.0
 10
13.4468
 20
5.9668
 30
0.0
  0
SPLINE
  5
53
330
1F
100
AcDbEntity
  8
AXIS
 62
   250
370
    15
100
AcDbSpline
210
0.0
220
0.0
230
1.0
 70
    24
 71
     3
 72
     8
 73
     4
 74
     0
 42
0.0000000001
 43
0.0000000001
 40
0.0
 40
0.0
 40
0.0
 40
0.0
 40
1.0
 40
1.0
 40
1.0
 40
1.0
 10
12.5604
 20
-4.0152
 30
0.0
 10
12.5604
 20
-4.0152
 30
0.0
 10
12.2604
 20
5.9848
 30
0.0
 10
12.2604
 20
5.9848
 30
0.0
  0
SPLINE
  5
54
330
1F
100
AcDbEntity
  8
AXIS
 62
   250
370
    15
100
AcDbSpline
210
0.0
220
0.0
230
1.0
 70
    24
 71
     3
 72
     8
 73
     4
 74
     0
 42
0.0000000001
 43
0.0000000001
 40
0.0
 40
0.0
 40
0.0
 40
0.0
 40
1.0
 40
1.0
 40
1.0
 40
1.0
 10
11.2068
 20
-4.0332
 30
0.0
 10
11.2068
 20
-4.0332
 30
0.0
 10
10.9068
 20
5.9668
 30
0.0
 10
10.9068
 20
5.9668
 30
0.0
  0
SPLINE
  5
55
330
1F
100
AcDbEntity
  8
AXIS
 62
   250
370
    15
100
AcDbSpline
210
0.0
220
0.0
230
1.0
 70
    24
 71
     3
 72
     8
 73
     4
 74
     0
 42
0.0000000001
 43
0.0000000001
 40
0.0
 40
0.0
 40
0.0
 40
0.0
 40
1.0
 40
1.0
 40
1.0
 40
1.0
 10
10.0204
 20
-4.0152
 30
0.0
 10
10.0204
 20
-4.0152
 30
0.0
 10
9.7204
 20
5.9848
 30
0.0
 10
9.7204
 20
5.9848
 30
0.0
  0
SPLINE
  5
56
330
1F
100
AcDbEntity
  8
AXIS
 62
   250
370
    15
100
AcDbSpline
210
0.0
220
0.0
230
1.0
 70
    24
 71
     3
 72
     8
 73
     4
 74
     0
 42
0.0000000001
 43
0.0000000001
 40
0.0
 40
0.0
 40
0.0
 40
0.0
 40
1.0
 40
1.0
 40
1.0
 40
1.0
 10
15.1004
 20
-4.0152
 30
0.0
 10
15.1004
 20
-4.0152
 30
0.0
 10
14.8004
 20
5.9848
 30
0.0
 10
14.8004
 20
5.9848
 30
0.0
  0
SPLINE
  5
57
330
1F
100
AcDbEntity
  8
AXIS
 62
   250
100
AcDbSpline
210
0.0
220
0.0
230
1.0
 70
    11
 71
     3
 72
   124
 73
   120
 74
     0
 42
0.0000000001
 43
0.0000000001
 40
0.0
 40
0.0
 40
0.0
 40
0.0
 40
0.032258064516129
 40
0.032258064516129
 40
0.032258064516129
 40
0.032258064516129
 40
0.0645161290322581
 40
0.0645161290322581
 40
0.0645161290322581
 40
0.0645161290322581
 40
0.0967741935483871
 40
0.0967741935483871
 40
0.0967741935483871
 40
0.0967741935483871
 40
0.1290322580645161
 40
0.1290322580645161
 40
0.1290322580645161
 40
0.1290322580645161
 40
0.1612903225806452
 40
0.1612903225806452
 40
0.1612903225806452
 40
0.1612903225806452
 40
0.1935483870967742
 40
0.1935483870967742
 40
0.1935483870967742
 40
0.1935483870967742
 40
0.2258064516129032
 40
0.2258064516129032
 40
0.2258064516129032
 40
0.2258064516129032
 40
0.2580645161290323
 40
0.2580645161290323
 40
0.2580645161290323
 40
0.2580645161290323
 40
0.2903225806451613
 40
0.2903225806451613
 40
0.2903225806451613
 40
0.2903225806451613
 40
0.3225806451612903
 40
0.3225806451612903
 40
0.3225806451612903
 40
0.3225806451612903
 40
0.3548387096774194
 40
0.3548387096774194
 40
0.3548387096774194
 40
0.3548387096774194
 40
0.3870967741935484
 40
0.3870967741935484
 40
0.3870967741935484
 40
0.3870967741935484
 40
0.4193548387096774
 40
0.4193548387096774
 40
0.4193548387096774
 40
0.4193548387096774
 40
0.4516129032258064
 40
0.4516129032258064
 40
0.4516129032258064
 40
0.4516129032258064
 40
0.4838709677419355
 40
0.4838709677419355
 40
0.4838709677419355
 40
0.4838709677419355
 40
0.5161290322580645
 40
0.5161290322580645
 40
0.5161290322580645
 40
0.5161290322580645
 40
0.5483870967741935
 40
0.5483870967741935
 40
0.5483870967741935
 40
0.5483870967741935
 40
0.5806451612903226
 40
0.5806451612903226
 40
0.5806451612903226
 40
0.5806451612903226
 40
0.6129032258064516
 40
0.6129032258064516
 40
0.6129032258064516
 40
0.6129032258064516
 40
0.6451612903225806
 40
0.6451612903225806
 40
0.6451612903225806
 40
0.6451612903225806
 40
0.6774193548387096
 40
0.6774193548387096
 40
0.6774193548387096
 40
0.6774193548387096
 40
0.7096774193548387
 40
0.7096774193548387
 40
0.7096774193548387
 40
0.7096774193548387
 40
0.7419354838709677
 40
0.7419354838709677
 40
0.7419354838709677
 40
0.7419354838709677
 40
0.7741935483870968
 40
0.7741935483870968
 40
0.7741935483870968
 40
0.7741935483870968
 40
0.8064516129032258
 40
0.8064516129032258
 40
0.8064516129032258
 40
0.8064516129032258
 40
0.8387096774193549
 40
0.8387096774193549
 40
0.8387096774193549
 40
0.8387096774193549
 40
0.8709677419354839
 40
0.8709677419354839
 40
0.8709677419354839
 40
0.8709677419354839
 40
0.9032258064516129
 40
0.9032258064516129
 40
0.9032258064516129
 40
0.9032258064516129
 40
0.9354838709677419
 40
0.9354838709677419
 40
0.9354838709677419
 40
0.9354838709677419
 40
1.0
 40
1.0
 40
1.0
 40
1.0
 10
10.4443
 20
-14.6013
 30
0.0
 10
10.4443
 20
-14.6013
 30
0.0
 10
10.4443
 20
-14.318
 30
0.0
 10
10.4443
 20
-14.318
 30
0.0
 10
10.4443
 20
-14.318
 30
0.0
 10
10.4443
 20
-14.318
 30
0.0
 10
9.3151
 20
-14.318
 30
0.0
 10
9.3151
 20
-14.318
 30
0.0
 10
9.3151
 20
-14.318
 30
0.0
 10
9.3151
 20
-14.318
 30
0.0
 10
9.3151
 20
-14.3103
 30
0.0
 10
9.3151
 20
-14.3103
 30
0.0
 10
9.3151
 20
-14.3103
 30
0.0
 10
9.3151
 20
-14.3103
 30
0.0
 10
9.513
 20
-14.124
 30
0.0
 10
9.513
 20
-14.124
 30
0.0
 10
9.513
 20
-14.124
 30
0.0
 10
9.6462
 20
-13.9966
 30
0.0
 10
9.7665
 20
-13.8756
 30
0.0
 10
9.8732
 20
-13.7618
 30
0.0
 10
9.8732
 20
-13.7618
 30
0.0
 10
9.98
 20
-13.648
 30
0.0
 10
10.0712
 20
-13.5367
 30
0.0
 10
10.1468
 20
-13.4294
 30
0.0
 10
10.1468
 20
-13.4294
 30
0.0
 10
10.2231
 20
-13.322
 30
0.0
 10
10.2807
 20
-13.214
 30
0.0
 10
10.3214
 20
-13.1054
 30
0.0
 10
10.3214
 20
-13.1054
 30
0.0
 10
10.3615
 20
-12.9974
 30
0.0
 10
10.3816
 20
-12.8855
 30
0.0
 10
10.3822
 20
-12.7697
 30
0.0
 10
10.3822
 20
-12.7697
 30
0.0
 10
10.3822
 20
-12.6785
 30
0.0
 10
10.368
 20
-12.5893
 30
0.0
 10
10.3383
 20
-12.5026
 30
0.0
 10
10.3383
 20
-12.5026
 30
0.0
 10
10.3085
 20
-12.4159
 30
0.0
 10
10.2619
 20
-12.3377
 30
0.0
 10
10.1999
 20
-12.2678
 30
0.0
 10
10.1999
 20
-12.2678
 30
0.0
 10
10.1378
 20
-12.1973
 30
0.0
 10
10.0576
 20
-12.1417
 30
0.0
 10
9.9599
 20
-12.1003
 30
0.0
 10
9.9599
 20
-12.1003
 30
0.0
 10
9.8623
 20
-12.0583
 30
0.0
 10
9.7458
 20
-12.0369
 30
0.0
 10
9.61
 20
-12.0363
 30
0.0
 10
9.61
 20
-12.0363
 30
0.0
 10
9.5143
 20
-12.0369
 30
0.0
 10
9.4231
 20
-12.0479
 30
0.0
 10
9.3364
 20
-12.0706
 30
0.0
 10
9.3364
 20
-12.0706
 30
0.0
 10
9.2498
 20
-12.0932
 30
0.0
 10
9.1696
 20
-12.1236
 30
0.0
 10
9.0959
 20
-12.1624
 30
0.0
 10
9.0959
 20
-12.1624
 30
0.0
 10
9.0228
 20
-12.2006
 30
0.0
 10
8.9575
 20
-12.2439
 30
0.0
 10
8.8999
 20
-12.2924
 30
0.0
 10
8.8999
 20
-12.2924
 30
0.0
 10
8.8999
 20
-12.2924
 30
0.0
 10
9.0085
 20
-12.533
 30
0.0
 10
9.0085
 20
-12.533
 30
0.0
 10
9.0085
 20
-12.533
 30
0.0
 10
9.0474
 20
-12.5
 30
0.0
 10
9.0939
 20
-12.467
 30
0.0
 10
9.1482
 20
-12.4347
 30
0.0
 10
9.1482
 20
-12.4347
 30
0.0
 10
9.2026
 20
-12.4017
 30
0.0
 10
9.2627
 20
-12.3752
 30
0.0
 10
9.3293
 20
-12.3532
 30
0.0
 10
9.3293
 20
-12.3532
 30
0.0
 10
9.3959
 20
-12.3319
 30
0.0
 10
9.4677
 20
-12.3202
 30
0.0
 10
9.5441
 20
-12.3196
 30
0.0
 10
9.5441
 20
-12.3196
 30
0.0
 10
9.6378
 20
-12.3202
 30
0.0
 10
9.7167
 20
-12.3338
 30
0.0
 10
9.7808
 20
-12.3603
 30
0.0
 10
9.7808
 20
-12.3603
 30
0.0
 10
9.8441
 20
-12.3875
 30
0.0
 10
9.8952
 20
-12.4237
 30
0.0
 10
9.9334
 20
-12.4696
 30
0.0
 10
9.9334
 20
-12.4696
 30
0.0
 10
9.9716
 20
-12.5162
 30
0.0
 10
9.9994
 20
-12.5686
 30
0.0
 10
10.0162
 20
-12.6274
 30
0.0
 10
10.0162
 20
-12.6274
 30
0.0
 10
10.033
 20
-12.6863
 30
0.0
 10
10.0414
 20
-12.7477
 30
0.0
 10
10.0408
 20
-12.8124
 30
0.0
 10
10.0408
 20
-12.8124
 30
0.0
 10
10.0408
 20
-12.9068
 30
0.0
 10
10.022
 20
-12.9999
 30
0.0
 10
9.9845
 20
-13.0924
 30
0.0
 10
9.9845
 20
-13.0924
 30
0.0
 10
9.947
 20
-13.1856
 30
0.0
 10
9.8901
 20
-13.2826
 30
0.0
 10
9.8131
 20
-13.3848
 30
0.0
 10
9.8131
 20
-13.3848
 30
0.0
 10
9.7361
 20
-13.4869
 30
0.0
 10
9.6385
 20
-13.5988
 30
0.0
 10
9.5201
 20
-13.7204
 30
0.0
 10
9.5201
 20
-13.7204
 30
0.0
 10
9.4024
 20
-13.842
 30
0.0
 10
9.2627
 20
-13.9791
 30
0.0
 10
9.1017
 20
-14.1318
 30
0.0
 10
9.1017
 20
-14.1318
 30
0.0
 10
9.1017
 20
-14.1318
 30
0.0
 10
8.8339
 20
-14.3918
 30
0.0
 10
8.8339
 20
-14.3918
 30
0.0
 10
8.8339
 20
-14.3918
 30
0.0
 10
8.8339
 20
-14.3918
 30
0.0
 10
8.8339
 20
-14.6013
 30
0.0
 10
8.8339
 20
-14.6013
 30
0.0
 10
8.8339
 20
-14.6013
 30
0.0
 10
8.8339
 20
-14.6013
 30
0.0
 10
10.4443
 20
-14.6013
 30
0.0
 10
10.4443
 20
-14.6013
 30
0.0
  0
SPLINE
  5
58
330
1F
100
AcDbEntity
  8
AXIS
 62
   250
100
AcDbSpline
210
0.0
220
0.0
230
1.0
 70
    11
 71
     3
 72
   124
 73
   120
 74
     0
 42
0.0000000001
 43
0.0000000001
 40
0.0
 40
0.0
 40
0.0
 40
0.0
 40
0.032258064516129
 40
0.032258064516129
 40
0.032258064516129
 40
0.032258064516129
 40
0.0645161290322581
 40
0.0645161290322581
 40
0.0645161290322581
 40
0.0645161290322581
 40
0.0967741935483871
 40
0.0967741935483871
 40
0.0967741935483871
 40
0.0967741935483871
 40
0.1290322580645161
 40
0.1290322580645161
 40
0.1290322580645161
 40
0.1290322580645161
 40
0.1612903225806452
 40
0.1612903225806452
 40
0.1612903225806452
 40
0.1612903225806452
 40
0.1935483870967742
 40
0.1935483870967742
 40
0.1935483870967742
 40
0.1935483870967742
 40
0.2258064516129032
 40
0.2258064516129032
 40
0.2258064516129032
 40
0.2258064516129032
 40
0.2580645161290323
 40
0.2580645161290323
 40
0.2580645161290323
 40
0.2580645161290323
 40
0.2903225806451613
 40
0.2903225806451613
 40
0.2903225806451613
 40
0.2903225806451613
 40
0.3225806451612903
 40
0.3225806451612903
 40
0.3225806451612903
 40
0.3225806451612903
 40
0.3548387096774194
 40
0.3548387096774194
 40
0.3548387096774194
 40
0.3548387096774194
 40
0.3870967741935484
 40
0.3870967741935484
 40
0.3870967741935484
 40
0.3870967741935484
 40
0.4193548387096774
 40
0.4193548387096774
 40
0.4193548387096774
 40
0.4193548387096774
 40
0.4516129032258064
 40
0.4516129032258064
 40
0.4516129032258064
 40
0.4516129032258064
 40
0.4838709677419355
 40
0.4838709677419355
 40
0.4838709677419355
 40
0.4838709677419355
 40
0.5161290322580645
 40
0.5161290322580645
 40
0.5161290322580645
 40
0.5161290322580645
 40
0.5483870967741935
 40
0.5483870967741935
 40
0.5483870967741935
 40
0.5483870967741935
 40
0.5806451612903226
 40
0.5806451612903226
 40
0.5806451612903226
 40
0.5806451612903226
 40
0.6129032258064516
 40
0.6129032258064516
 40
0.6129032258064516
 40
0.6129032258064516
 40
0.6451612903225806
 40
0.6451612903225806
 40
0.6451612903225806
 40
0.6451612903225806
 40
0.6774193548387096
 40
0.6774193548387096
 40
0.6774193548387096
 40
0.6774193548387096
 40
0.7096774193548387
 40
0.7096774193548387
 40
0.7096774193548387
 40
0.7096774193548387
 40
0.7419354838709677
 40
0.7419354838709677
 40
0.7419354838709677
 40
0.7419354838709677
 40
0.7741935483870968
 40
0.7741935483870968
 40
0.7741935483870968
 40
0.7741935483870968
 40
0.8064516129032258
 40
0.8064516129032258
 40
0.8064516129032258
 40
0.8064516129032258
 40
0.8387096774193549
 40
0.8387096774193549
 40
0.8387096774193549
 40
0.8387096774193549
 40
0.8709677419354839
 40
0.8709677419354839
 40
0.8709677419354839
 40
0.8709677419354839
 40
0.9032258064516129
 40
0.9032258064516129
 40
0.9032258064516129
 40
0.9032258064516129
 40
0.9354838709677419
 40
0.9354838709677419
 40
0.9354838709677419
 40
0.9354838709677419
 40
1.0
 40
1.0
 40
1.0
 40
1.0
 10
12.435
 20
-14.6013
 30
0.0
 10
12.435
 20
-14.6013
 30
0.0
 10
12.435
 20
-14.318
 30
0.0
 10
12.435
 20
-14.318
 30
0.0
 10
12.435
 20
-14.318
 30
0.0
 10
12.435
 20
-14.318
 30
0.0
 10
11.3058
 20
-14.318
 30
0.0
 10
11.3058
 20
-14.318
 30
0.0
 10
11.3058
 20
-14.318
 30
0.0
 10
11.3058
 20
-14.318
 30
0.0
 10
11.3058
 20
-14.3103
 30
0.0
 10
11.3058
 20
-14.3103
 30
0.0
 10
11.3058
 20
-14.3103
 30
0.0
 10
11.3058
 20
-14.3103
 30
0.0
 10
11.5037
 20
-14.124
 30
0.0
 10
11.5037
 20
-14.124
 30
0.0
 10
11.5037
 20
-14.124
 30
0.0
 10
11.6369
 20
-13.9966
 30
0.0
 10
11.7572
 20
-13.8756
 30
0.0
 10
11.8639
 20
-13.7618
 30
0.0
 10
11.8639
 20
-13.7618
 30
0.0
 10
11.9707
 20
-13.648
 30
0.0
 10
12.0619
 20
-13.5367
 30
0.0
 10
12.1375
 20
-13.4294
 30
0.0
 10
12.1375
 20
-13.4294
 30
0.0
 10
12.2138
 20
-13.322
 30
0.0
 10
12.2714
 20
-13.214
 30
0.0
 10
12.3121
 20
-13.1054
 30
0.0
 10
12.3121
 20
-13.1054
 30
0.0
 10
12.3522
 20
-12.9974
 30
0.0
 10
12.3723
 20
-12.8855
 30
0.0
 10
12.3729
 20
-12.7697
 30
0.0
 10
12.3729
 20
-12.7697
 30
0.0
 10
12.3729
 20
-12.6785
 30
0.0
 10
12.3587
 20
-12.5893
 30
0.0
 10
12.329
 20
-12.5026
 30
0.0
 10
12.329
 20
-12.5026
 30
0.0
 10
12.2992
 20
-12.4159
 30
0.0
 10
12.2526
 20
-12.3377
 30
0.0
 10
12.1906
 20
-12.2678
 30
0.0
 10
12.1906
 20
-12.2678
 30
0.0
 10
12.1285
 20
-12.1973
 30
0.0
 10
12.0483
 20
-12.1417
 30
0.0
 10
11.9506
 20
-12.1003
 30
0.0
 10
11.9506
 20
-12.1003
 30
0.0
 10
11.853
 20
-12.0583
 30
0.0
 10
11.7365
 20
-12.0369
 30
0.0
 10
11.6007
 20
-12.0363
 30
0.0
 10
11.6007
 20
-12.0363
 30
0.0
 10
11.505
 20
-12.0369
 30
0.0
 10
11.4138
 20
-12.0479
 30
0.0
 10
11.3271
 20
-12.0706
 30
0.0
 10
11.3271
 20
-12.0706
 30
0.0
 10
11.2405
 20
-12.0932
 30
0.0
 10
11.1603
 20
-12.1236
 30
0.0
 10
11.0866
 20
-12.1624
 30
0.0
 10
11.0866
 20
-12.1624
 30
0.0
 10
11.0135
 20
-12.2006
 30
0.0
 10
10.9482
 20
-12.2439
 30
0.0
 10
10.8906
 20
-12.2924
 30
0.0
 10
10.8906
 20
-12.2924
 30
0.0
 10
10.8906
 20
-12.2924
 30
0.0
 10
10.9992
 20
-12.533
 30
0.0
 10
10.9992
 20
-12.533
 30
0.0
 10
10.9992
 20
-12.533
 30
0.0
 10
11.0381
 20
-12.5
 30
0.0
 10
11.0846
 20
-12.467
 30
0.0
 10
11.1389
 20
-12.4347
 30
0.0
 10
11.1389
 20
-12.4347
 30
0.0
 10
11.1933
 20
-12.4017
 30
0.0
 10
11.2534
 20
-12.3752
 30
0.0
 10
11.32
 20
-12.3532
 30
0.0
 10
11.32
 20
-12.3532
 30
0.0
 10
11.3866
 20
-12.3319
 30
0.0
 10
11.4584
 20
-12.3202
 30
0.0
 10
11.5348
 20
-12.3196
 30
0.0
 10
11.5348
 20
-12.3196
 30
0.0
 10
11.6285
 20
-12.3202
 30
0.0
 10
11.7074
 20
-12.3338
 30
0.0
 10
11.7715
 20
-12.3603
 30
0.0
 10
11.7715
 20
-12.3603
 30
0.0
 10
11.8348
 20
-12.3875
 30
0.0
 10
11.8859
 20
-12.4237
 30
0.0
 10
11.9241
 20
-12.4696
 30
0.0
 10
11.9241
 20
-12.4696
 30
0.0
 10
11.9623
 20
-12.5162
 30
0.0
 10
11.9901
 20
-12.5686
 30
0.0
 10
12.0069
 20
-12.6274
 30
0.0
 10
12.0069
 20
-12.6274
 30
0.0
 10
12.0237
 20
-12.6863
 30
0.0
 10
12.0321
 20
-12.7477
 30
0.0
 10
12.0315
 20
-12.8124
 30
0.0
 10
12.0315
 20
-12.8124
 30
0.0
 10
12.0315
 20
-12.9068
 30
0.0
 10
12.0127
 20
-12.9999
 30
0.0
 10
11.9752
 20
-13.0924
 30
0.0
 10
11.9752
 20
-13.0924
 30
0.0
 10
11.9377
 20
-13.1856
 30
0.0
 10
11.8808
 20
-13.2826
 30
0.0
 10
11.8038
 20
-13.3848
 30
0.0
 10
11.8038
 20
-13.3848
 30
0.0
 10
11.7268
 20
-13.4869
 30
0.0
 10
11.6292
 20
-13.5988
 30
0.0
 10
11.5108
 20
-13.7204
 30
0.0
 10
11.5108
 20
-13.7204
 30
0.0
 10
11.3931
 20
-13.842
 30
0.0
 10
11.2534
 20
-13.9791
 30
0.0
 10
11.0924
 20
-14.1318
 30
0.0
 10
11.0924
 20
-14.1318
 30
0.0
 10
11.0924
 20
-14.1318
 30
0.0
 10
10.8246
 20
-14.3918
 30
0.0
 10
10.8246
 20
-14.3918
 30
0.0
 10
10.8246
 20
-14.3918
 30
0.0
 10
10.8246
 20
-14.3918
 30
0.0
 10
10.8246
 20
-14.6013
 30
0.0
 10
10.8246
 20
-14.6013
 30
0.0
 10
10.8246
 20
-14.6013
 30
0.0
 10
10.8246
 20
-14.6013
 30
0.0
 10
12.435
 20
-14.6013
 30
0.0
 10
12.435
 20
-14.6013
 30
0.0
  0
SPLINE
  5
59
330
1F
100
AcDbEntity
  8
AXIS
 62
   250
100
AcDbSpline
210
0.0
220
0.0
230
1.0
 70
    11
 71
     3
 72
    36
 73
    32
 74
     0
 42
0.0000000001
 43
0.0000000001
 40
0.0
 40
0.0
 40
0.0
 40
0.0
 40
0.1111111111111111
 40
0.1111111111111111
 40
0.1111111111111111
 40
0.1111111111111111
 40
0.2222222222222222
 40
0.2222222222222222
 40
0.2222222222222222
 40
0.2222222222222222
 40
0.3333333333333333
 40
0.3333333333333333
 40
0.3333333333333333
 40
0.3333333333333333
 40
0.4444444444444444
 40
0.4444444444444444
 40
0.4444444444444444
 40
0.4444444444444444
 40
0.5555555555555556
 40
0.5555555555555556
 40
0.5555555555555556
 40
0.5555555555555556
 40
0.6666666666666666
 40
0.6666666666666666
 40
0.6666666666666666
 40
0.6666666666666666
 40
0.7777777777777778
 40
0.7777777777777778
 40
0.7777777777777778
 40
0.7777777777777778
 40
1.0
 40
1.0
 40
1.0
 40
1.0
 10
0.0971
 20
-14.5266
 30
0.0
 10
0.0971
 20
-14.5266
 30
0.0
 10
0.4269
 20
-14.5266
 30
0.0
 10
0.4269
 20
-14.5266
 30
0.0
 10
0.4269
 20
-14.5266
 30
0.0
 10
0.4269
 20
-14.5266
 30
0.0
 10
0.4269
 20
-12.0043
 30
0.0
 10
0.4269
 20
-12.0043
 30
0.0
 10
0.4269
 20
-12.0043
 30
0.0
 10
0.4269
 20
-12.0043
 30
0.0
 10
0.1359
 20
-12.0043
 30
0.0
 10
0.1359
 20
-12.0043
 30
0.0
 10
0.1359
 20
-12.0043
 30
0.0
 10
0.1359
 20
-12.0043
 30
0.0
 10
-0.4151
 20
-12.2992
 30
0.0
 10
-0.4151
 20
-12.2992
 30
0.0
 10
-0.4151
 20
-12.2992
 30
0.0
 10
-0.4151
 20
-12.2992
 30
0.0
 10
-0.3492
 20
-12.5592
 30
0.0
 10
-0.3492
 20
-12.5592
 30
0.0
 10
-0.3492
 20
-12.5592
 30
0.0
 10
-0.3492
 20
-12.5592
 30
0.0
 10
0.0893
 20
-12.3225
 30
0.0
 10
0.0893
 20
-12.3225
 30
0.0
 10
0.0893
 20
-12.3225
 30
0.0
 10
0.0893
 20
-12.3225
 30
0.0
 10
0.0971
 20
-12.3225
 30
0.0
 10
0.0971
 20
-12.3225
 30
0.0
 10
0.0971
 20
-12.3225
 30
0.0
 10
0.0971
 20
-12.3225
 30
0.0
 10
0.0971
 20
-14.5266
 30
0.0
 10
0.0971
 20
-14.5266
 30
0.0
  0
SPLINE
  5
5A
330
1F
100
AcDbEntity
  8
AXIS
 62
   250
100
AcDbSpline
210
0.0
220
0.0
230
1.0
 70
    11
 71
     3
 72
   132
 73
   128
 74
     0
 42
0.0000000001
 43
0.0000000001
 40
0.0
 40
0.0
 40
0.0
 40
0.0
 40
0.0303030303030303
 40
0.0303030303030303
 40
0.0303030303030303
 40
0.0303030303030303
 40
0.0606060606060606
 40
0.0606060606060606
 40
0.0606060606060606
 40
0.0606060606060606
 40
0.0909090909090909
 40
0.0909090909090909
 40
0.0909090909090909
 40
0.0909090909090909
 40
0.1212121212121212
 40
0.1212121212121212
 40
0.1212121212121212
 40
0.1212121212121212
 40
0.1515151515151515
 40
0.1515151515151515
 40
0.1515151515151515
 40
0.1515151515151515
 40
0.1818181818181818
 40
0.1818181818181818
 40
0.1818181818181818
 40
0.1818181818181818
 40
0.2121212121212121
 40
0.2121212121212121
 40
0.2121212121212121
 40
0.2121212121212121
 40
0.2424242424242424
 40
0.2424242424242424
 40
0.2424242424242424
 40
0.2424242424242424
 40
0.2727272727272727
 40
0.2727272727272727
 40
0.2727272727272727
 40
0.2727272727272727
 40
0.303030303030303
 40
0.303030303030303
 40
0.303030303030303
 40
0.303030303030303
 40
0.3333333333333333
 40
0.3333333333333333
 40
0.3333333333333333
 40
0.3333333333333333
 40
0.3636363636363636
 40
0.3636363636363636
 40
0.3636363636363636
 40
0.3636363636363636
 40
0.3939393939393939
 40
0.3939393939393939
 40
0.3939393939393939
 40
0.3939393939393939
 40
0.4242424242424243
 40
0.4242424242424243
 40
0.4242424242424243
 40
0.4242424242424243
 40
0.4545454545454545
 40
0.4545454545454545
 40
0.4545454545454545
 40
0.4545454545454545
 40
0.4848484848484849
 40
0.4848484848484849
 40
0.4848484848484849
 40
0.4848484848484849
 40
0.5151515151515151
 40
0.5151515151515151
 40
0.5151515151515151
 40
0.5151515151515151
 40
0.5454545454545454
 40
0.5454545454545454
 40
0.5454545454545454
 40
0.5454545454545454
 40
0.5757575757575758
 40
0.5757575757575758
 40
0.5757575757575758
 40
0.5757575757575758
 40
0.6060606060606061
 40
0.6060606060606061
 40
0.6060606060606061
 40
0.6060606060606061
 40
0.6363636363636364
 40
0.6363636363636364
 40
0.6363636363636364
 40
0.6363636363636364
 40
0.6666666666666666
 40
0.6666666666666666
 40
0.6666666666666666
 40
0.6666666666666666
 40
0.696969696969697
 40
0.696969696969697
 40
0.696969696969697
 40
0.696969696969697
 40
0.7272727272727273
 40
0.7272727272727273
 40
0.7272727272727273
 40
0.7272727272727273
 40
0.7575757575757576
 40
0.7575757575757576
 40
0.7575757575757576
 40
0.7575757575757576
 40
0.7878787878787878
 40
0.7878787878787878
 40
0.7878787878787878
 40
0.7878787878787878
 40
0.8181818181818182
 40
0.8181818181818182
 40
0.8181818181818182
 40
0.8181818181818182
 40
0.8484848484848485
 40
0.8484848484848485
 40
0.8484848484848485
 40
0.8484848484848485
 40
0.8787878787878788
 40
0.8787878787878788
 40
0.8787878787878788
 40
0.8787878787878788
 40
0.9090909090909091
 40
0.9090909090909091
 40
0.9090909090909091
 40
0.9090909090909091
 40
0.9393939393939394
 40
0.9393939393939394
 40
0.9393939393939394
 40
0.9393939393939394
 40
1.0
 40
1.0
 40
1.0
 40
1.0
 10
2.8523
 20
-12.0043
 30
0.0
 10
2.8523
 20
-12.0043
 30
0.0
 10
1.6454
 20
-12.0043
 30
0.0
 10
1.6454
 20
-12.0043
 30
0.0
 10
1.6454
 20
-12.0043
 30
0.0
 10
1.6454
 20
-12.0043
 30
0.0
 10
1.4824
 20
-13.215
 30
0.0
 10
1.4824
 20
-13.215
 30
0.0
 10
1.4824
 20
-13.215
 30
0.0
 10
1.529
 20
-13.2085
 30
0.0
 10
1.5807
 20
-13.2033
 30
0.0
 10
1.639
 20
-13.1988
 30
0.0
 10
1.639
 20
-13.1988
 30
0.0
 10
1.6965
 20
-13.1943
 30
0.0
 10
1.7625
 20
-13.1917
 30
0.0
 10
1.8356
 20
-13.1917
 30
0.0
 10
1.8356
 20
-13.1917
 30
0.0
 10
2.0024
 20
-13.1924
 30
0.0
 10
2.1389
 20
-13.2163
 30
0.0
 10
2.245
 20
-13.2629
 30
0.0
 10
2.245
 20
-13.2629
 30
0.0
 10
2.3517
 20
-13.3101
 30
0.0
 10
2.4306
 20
-13.3747
 30
0.0
 10
2.4817
 20
-13.4575
 30
0.0
 10
2.4817
 20
-13.4575
 30
0.0
 10
2.5328
 20
-13.541
 30
0.0
 10
2.558
 20
-13.6373
 30
0.0
 10
2.5573
 20
-13.7466
 30
0.0
 10
2.5573
 20
-13.7466
 30
0.0
 10
2.558
 20
-13.8313
 30
0.0
 10
2.5425
 20
-13.907
 30
0.0
 10
2.5108
 20
-13.9743
 30
0.0
 10
2.5108
 20
-13.9743
 30
0.0
 10
2.4797
 20
-14.0422
 30
0.0
 10
2.4364
 20
-14.0991
 30
0.0
 10
2.3814
 20
-14.147
 30
0.0
 10
2.3814
 20
-14.147
 30
0.0
 10
2.3264
 20
-14.1942
 30
0.0
 10
2.2631
 20
-14.2304
 30
0.0
 10
2.1913
 20
-14.2556
 30
0.0
 10
2.1913
 20
-14.2556
 30
0.0
 10
2.1195
 20
-14.2808
 30
0.0
 10
2.0438
 20
-14.2938
 30
0.0
 10
1.9636
 20
-14.2938
 30
0.0
 10
1.9636
 20
-14.2938
 30
0.0
 10
1.8854
 20
-14.2931
 30
0.0
 10
1.8116
 20
-14.286
 30
0.0
 10
1.7424
 20
-14.2711
 30
0.0
 10
1.7424
 20
-14.2711
 30
0.0
 10
1.6732
 20
-14.2569
 30
0.0
 10
1.6111
 20
-14.2394
 30
0.0
 10
1.5562
 20
-14.2181
 30
0.0
 10
1.5562
 20
-14.2181
 30
0.0
 10
1.5012
 20
-14.1968
 30
0.0
 10
1.4559
 20
-14.1754
 30
0.0
 10
1.4204
 20
-14.1541
 30
0.0
 10
1.4204
 20
-14.1541
 30
0.0
 10
1.4204
 20
-14.1541
 30
0.0
 10
1.335
 20
-14.4141
 30
0.0
 10
1.335
 20
-14.4141
 30
0.0
 10
1.335
 20
-14.4141
 30
0.0
 10
1.377
 20
-14.4406
 30
0.0
 10
1.4294
 20
-14.4652
 30
0.0
 10
1.4921
 20
-14.4891
 30
0.0
 10
1.4921
 20
-14.4891
 30
0.0
 10
1.5549
 20
-14.5124
 30
0.0
 10
1.626
 20
-14.5311
 30
0.0
 10
1.7056
 20
-14.546
 30
0.0
 10
1.7056
 20
-14.546
 30
0.0
 10
1.7858
 20
-14.5609
 30
0.0
 10
1.8718
 20
-14.5686
 30
0.0
 10
1.9636
 20
-14.5693
 30
0.0
 10
1.9636
 20
-14.5693
 30
0.0
 10
2.1014
 20
-14.5686
 30
0.0
 10
2.2268
 20
-14.5466
 30
0.0
 10
2.3413
 20
-14.504
 30
0.0
 10
2.3413
 20
-14.504
 30
0.0
 10
2.4558
 20
-14.4613
 30
0.0
 10
2.5548
 20
-14.4011
 30
0.0
 10
2.6382
 20
-14.3235
 30
0.0
 10
2.6382
 20
-14.3235
 30
0.0
 10
2.7223
 20
-14.2459
 30
0.0
 10
2.7869
 20
-14.1547
 30
0.0
 10
2.8329
 20
-14.0506
 30
0.0
 10
2.8329
 20
-14.0506
 30
0.0
 10
2.8788
 20
-13.9458
 30
0.0
 10
2.9021
 20
-13.8313
 30
0.0
 10
2.9027
 20
-13.7078
 30
0.0
 10
2.9027
 20
-13.7078
 30
0.0
 10
2.9021
 20
-13.603
 30
0.0
 10
2.8852
 20
-13.5086
 30
0.0
 10
2.8529
 20
-13.4252
 30
0.0
 10
2.8529
 20
-13.4252
 30
0.0
 10
2.8206
 20
-13.3418
 30
0.0
 10
2.7779
 20
-13.27
 30
0.0
 10
2.7236
 20
-13.2092
 30
0.0
 10
2.7236
 20
-13.2092
 30
0.0
 10
2.6692
 20
-13.1484
 30
0.0
 10
2.6084
 20
-13.0999
 30
0.0
 10
2.5418
 20
-13.0637
 30
0.0
 10
2.5418
 20
-13.0637
 30
0.0
 10
2.4636
 20
-13.0158
 30
0.0
 10
2.3788
 20
-12.9809
 30
0.0
 10
2.2864
 20
-12.9595
 30
0.0
 10
2.2864
 20
-12.9595
 30
0.0
 10
2.1939
 20
-12.9382
 30
0.0
 10
2.0981
 20
-12.9272
 30
0.0
 10
1.9985
 20
-12.9278
 30
0.0
 10
1.9985
 20
-12.9278
 30
0.0
 10
1.9533
 20
-12.9278
 30
0.0
 10
1.9145
 20
-12.9285
 30
0.0
 10
1.8828
 20
-12.9304
 30
0.0
 10
1.8828
 20
-12.9304
 30
0.0
 10
1.8511
 20
-12.9324
 30
0.0
 10
1.8213
 20
-12.9356
 30
0.0
 10
1.7929
 20
-12.9395
 30
0.0
 10
1.7929
 20
-12.9395
 30
0.0
 10
1.7929
 20
-12.9395
 30
0.0
 10
1.8899
 20
-12.2914
 30
0.0
 10
1.8899
 20
-12.2914
 30
0.0
 10
1.8899
 20
-12.2914
 30
0.0
 10
1.8899
 20
-12.2914
 30
0.0
 10
2.8523
 20
-12.2914
 30
0.0
 10
2.8523
 20
-12.2914
 30
0.0
 10
2.8523
 20
-12.2914
 30
0.0
 10
2.8523
 20
-12.2914
 30
0.0
 10
2.8523
 20
-12.0043
 30
0.0
 10
2.8523
 20
-12.0043
 30
0.0
  0
SPLINE
  5
5B
330
1F
100
AcDbEntity
  8
AXIS
 62
   250
100
AcDbSpline
210
0.0
220
0.0
230
1.0
 70
    11
 71
     3
 72
    36
 73
    32
 74
     0
 42
0.0000000001
 43
0.0000000001
 40
0.0
 40
0.0
 40
0.0
 40
0.0
 40
0.1111111111111111
 40
0.1111111111111111
 40
0.1111111111111111
 40
0.1111111111111111
 40
0.2222222222222222
 40
0.2222222222222222
 40
0.2222222222222222
 40
0.2222222222222222
 40
0.3333333333333333
 40
0.3333333333333333
 40
0.3333333333333333
 40
0.3333333333333333
 40
0.4444444444444444
 40
0.4444444444444444
 40
0.4444444444444444
 40
0.4444444444444444
 40
0.5555555555555556
 40
0.5555555555555556
 40
0.5555555555555556
 40
0.5555555555555556
 40
0.6666666666666666
 40
0.6666666666666666
 40
0.6666666666666666
 40
0.6666666666666666
 40
0.7777777777777778
 40
0.7777777777777778
 40
0.7777777777777778
 40
0.7777777777777778
 40
1.0
 40
1.0
 40
1.0
 40
1.0
 10
-2.9776
 20
-15.9919
 30
0.0
 10
-2.9776
 20
-15.9919
 30
0.0
 10
-2.9776
 20
-16.2752
 30
0.0
 10
-2.9776
 20
-16.2752
 30
0.0
 10
-2.9776
 20
-16.2752
 30
0.0
 10
-2.9776
 20
-16.2752
 30
0.0
 10
-1.7436
 20
-16.2752
 30
0.0
 10
-1.7436
 20
-16.2752
 30
0.0
 10
-1.7436
 20
-16.2752
 30
0.0
 10
-1.7436
 20
-16.2752
 30
0.0
 10
-1.7436
 20
-16.2829
 30
0.0
 10
-1.7436
 20
-16.2829
 30
0.0
 10
-1.7436
 20
-16.2829
 30
0.0
 10
-1.7436
 20
-16.2829
 30
0.0
 10
-2.8379
 20
-18.5142
 30
0.0
 10
-2.8379
 20
-18.5142
 30
0.0
 10
-2.8379
 20
-18.5142
 30
0.0
 10
-2.8379
 20
-18.5142
 30
0.0
 10
-2.4848
 20
-18.5142
 30
0.0
 10
-2.4848
 20
-18.5142
 30
0.0
 10
-2.4848
 20
-18.5142
 30
0.0
 10
-2.4848
 20
-18.5142
 30
0.0
 10
-1.3866
 20
-16.2169
 30
0.0
 10
-1.3866
 20
-16.2169
 30
0.0
 10
-1.3866
 20
-16.2169
 30
0.0
 10
-1.3866
 20
-16.2169
 30
0.0
 10
-1.3866
 20
-15.9919
 30
0.0
 10
-1.3866
 20
-15.9919
 30
0.0
 10
-1.3866
 20
-15.9919
 30
0.0
 10
-1.3866
 20
-15.9919
 30
0.0
 10
-2.9776
 20
-15.9919
 30
0.0
 10
-2.9776
 20
-15.9919
 30
0.0
  0
SPLINE
  5
5C
330
1F
100
AcDbEntity
  8
AXIS
 62
   250
100
AcDbSpline
210
0.0
220
0.0
230
1.0
 70
    11
 71
     3
 72
   124
 73
   120
 74
     0
 42
0.0000000001
 43
0.0000000001
 40
0.0
 40
0.0
 40
0.0
 40
0.0
 40
0.032258064516129
 40
0.032258064516129
 40
0.032258064516129
 40
0.032258064516129
 40
0.0645161290322581
 40
0.0645161290322581
 40
0.0645161290322581
 40
0.0645161290322581
 40
0.0967741935483871
 40
0.0967741935483871
 40
0.0967741935483871
 40
0.0967741935483871
 40
0.1290322580645161
 40
0.1290322580645161
 40
0.1290322580645161
 40
0.1290322580645161
 40
0.1612903225806452
 40
0.1612903225806452
 40
0.1612903225806452
 40
0.1612903225806452
 40
0.1935483870967742
 40
0.1935483870967742
 40
0.1935483870967742
 40
0.1935483870967742
 40
0.2258064516129032
 40
0.2258064516129032
 40
0.2258064516129032
 40
0.2258064516129032
 40
0.2580645161290323
 40
0.2580645161290323
 40
0.2580645161290323
 40
0.2580645161290323
 40
0.2903225806451613
 40
0.2903225806451613
 40
0.2903225806451613
 40
0.2903225806451613
 40
0.3225806451612903
 40
0.3225806451612903
 40
0.3225806451612903
 40
0.3225806451612903
 40
0.3548387096774194
 40
0.3548387096774194
 40
0.3548387096774194
 40
0.3548387096774194
 40
0.3870967741935484
 40
0.3870967741935484
 40
0.3870967741935484
 40
0.3870967741935484
 40
0.4193548387096774
 40
0.4193548387096774
 40
0.4193548387096774
 40
0.4193548387096774
 40
0.4516129032258064
 40
0.4516129032258064
 40
0.4516129032258064
 40
0.4516129032258064
 40
0.4838709677419355
 40
0.4838709677419355
 40
0.4838709677419355
 40
0.4838709677419355
 40
0.5161290322580645
 40
0.5161290322580645
 40
0.5161290322580645
 40
0.5161290322580645
 40
0.5483870967741935
 40
0.5483870967741935
 40
0.5483870967741935
 40
0.5483870967741935
 40
0.5806451612903226
 40
0.5806451612903226
 40
0.5806451612903226
 40
0.5806451612903226
 40
0.6129032258064516
 40
0.6129032258064516
 40
0.6129032258064516
 40
0.6129032258064516
 40
0.6451612903225806
 40
0.6451612903225806
 40
0.6451612903225806
 40
0.6451612903225806
 40
0.6774193548387096
 40
0.6774193548387096
 40
0.6774193548387096
 40
0.6774193548387096
 40
0.7096774193548387
 40
0.7096774193548387
 40
0.7096774193548387
 40
0.7096774193548387
 40
0.7419354838709677
 40
0.7419354838709677
 40
0.7419354838709677
 40
0.7419354838709677
 40
0.7741935483870968
 40
0.7741935483870968
 40
0.7741935483870968
 40
0.7741935483870968
 40
0.8064516129032258
 40
0.8064516129032258
 40
0.8064516129032258
 40
0.8064516129032258
 40
0.8387096774193549
 40
0.8387096774193549
 40
0.8387096774193549
 40
0.8387096774193549
 40
0.8709677419354839
 40
0.8709677419354839
 40
0.8709677419354839
 40
0.8709677419354839
 40
0.9032258064516129
 40
0.9032258064516129
 40
0.9032258064516129
 40
0.9032258064516129
 40
0.9354838709677419
 40
0.9354838709677419
 40
0.9354838709677419
 40
0.9354838709677419
 40
1.0
 40
1.0
 40
1.0
 40
1.0
 10
0.5769
 20
-18.5142
 30
0.0
 10
0.5769
 20
-18.5142
 30
0.0
 10
0.5769
 20
-18.2309
 30
0.0
 10
0.5769
 20
-18.2309
 30
0.0
 10
0.5769
 20
-18.2309
 30
0.0
 10
0.5769
 20
-18.2309
 30
0.0
 10
-0.5523
 20
-18.2309
 30
0.0
 10
-0.5523
 20
-18.2309
 30
0.0
 10
-0.5523
 20
-18.2309
 30
0.0
 10
-0.5523
 20
-18.2309
 30
0.0
 10
-0.5523
 20
-18.2232
 30
0.0
 10
-0.5523
 20
-18.2232
 30
0.0
 10
-0.5523
 20
-18.2232
 30
0.0
 10
-0.5523
 20
-18.2232
 30
0.0
 10
-0.3544
 20
-18.0369
 30
0.0
 10
-0.3544
 20
-18.0369
 30
0.0
 10
-0.3544
 20
-18.0369
 30
0.0
 10
-0.2212
 20
-17.9095
 30
0.0
 10
-0.1009
 20
-17.7885
 30
0.0
 10
0.0058
 20
-17.6747
 30
0.0
 10
0.0058
 20
-17.6747
 30
0.0
 10
0.1126
 20
-17.5609
 30
0.0
 10
0.2038
 20
-17.4496
 30
0.0
 10
0.2794
 20
-17.3423
 30
0.0
 10
0.2794
 20
-17.3423
 30
0.0
 10
0.3557
 20
-17.2349
 30
0.0
 10
0.4133
 20
-17.1269
 30
0.0
 10
0.454
 20
-17.0183
 30
0.0
 10
0.454
 20
-17.0183
 30
0.0
 10
0.4941
 20
-16.9103
 30
0.0
 10
0.5142
 20
-16.7984
 30
0.0
 10
0.5148
 20
-16.6826
 30
0.0
 10
0.5148
 20
-16.6826
 30
0.0
 10
0.5148
 20
-16.5914
 30
0.0
 10
0.5006
 20
-16.5022
 30
0.0
 10
0.4709
 20
-16.4155
 30
0.0
 10
0.4709
 20
-16.4155
 30
0.0
 10
0.4411
 20
-16.3288
 30
0.0
 10
0.3945
 20
-16.2506
 30
0.0
 10
0.3325
 20
-16.1807
 30
0.0
 10
0.3325
 20
-16.1807
 30
0.0
 10
0.2704
 20
-16.1102
 30
0.0
 10
0.1902
 20
-16.0546
 30
0.0
 10
0.0925
 20
-16.0132
 30
0.0
 10
0.0925
 20
-16.0132
 30
0.0
 10
-0.0051
 20
-15.9712
 30
0.0
 10
-0.1216
 20
-15.9498
 30
0.0
 10
-0.2574
 20
-15.9492
 30
0.0
 10
-0.2574
 20
-15.9492
 30
0.0
 10
-0.3531
 20
-15.9498
 30
0.0
 10
-0.4443
 20
-15.9608
 30
0.0
 10
-0.531
 20
-15.9835
 30
0.0
 10
-0.531
 20
-15.9835
 30
0.0
 10
-0.6176
 20
-16.0061
 30
0.0
 10
-0.6978
 20
-16.0365
 30
0.0
 10
-0.7715
 20
-16.0753
 30
0.0
 10
-0.7715
 20
-16.0753
 30
0.0
 10
-0.8446
 20
-16.1135
 30
0.0
 10
-0.9099
 20
-16.1568
 30
0.0
 10
-0.9675
 20
-16.2053
 30
0.0
 10
-0.9675
 20
-16.2053
 30
0.0
 10
-0.9675
 20
-16.2053
 30
0.0
 10
-0.8589
 20
-16.4459
 30
0.0
 10
-0.8589
 20
-16.4459
 30
0.0
 10
-0.8589
 20
-16.4459
 30
0.0
 10
-0.82
 20
-16.4129
 30
0.0
 10
-0.7735
 20
-16.3799
 30
0.0
 10
-0.7192
 20
-16.3476
 30
0.0
 10
-0.7192
 20
-16.3476
 30
0.0
 10
-0.6648
 20
-16.3146
 30
0.0
 10
-0.6047
 20
-16.2881
 30
0.0
 10
-0.5381
 20
-16.2661
 30
0.0
 10
-0.5381
 20
-16.2661
 30
0.0
 10
-0.4715
 20
-16.2448
 30
0.0
 10
-0.3997
 20
-16.2331
 30
0.0
 10
-0.3233
 20
-16.2325
 30
0.0
 10
-0.3233
 20
-16.2325
 30
0.0
 10
-0.2296
 20
-16.2331
 30
0.0
 10
-0.1507
 20
-16.2467
 30
0.0
 10
-0.0866
 20
-16.2732
 30
0.0
 10
-0.0866
 20
-16.2732
 30
0.0
 10
-0.0233
 20
-16.3004
 30
0.0
 10
0.0278
 20
-16.3366
 30
0.0
 10
0.066
 20
-16.3825
 30
0.0
 10
0.066
 20
-16.3825
 30
0.0
 10
0.1042
 20
-16.4291
 30
0.0
 10
0.132
 20
-16.4815
 30
0.0
 10
0.1488
 20
-16.5403
 30
0.0
 10
0.1488
 20
-16.5403
 30
0.0
 10
0.1656
 20
-16.5992
 30
0.0
 10
0.174
 20
-16.6606
 30
0.0
 10
0.1734
 20
-16.7253
 30
0.0
 10
0.1734
 20
-16.7253
 30
0.0
 10
0.1734
 20
-16.8197
 30
0.0
 10
0.1546
 20
-16.9128
 30
0.0
 10
0.1171
 20
-17.0053
 30
0.0
 10
0.1171
 20
-17.0053
 30
0.0
 10
0.0796
 20
-17.0985
 30
0.0
 10
0.0227
 20
-17.1955
 30
0.0
 10
-0.0543
 20
-17.2977
 30
0.0
 10
-0.0543
 20
-17.2977
 30
0.0
 10
-0.1313
 20
-17.3998
 30
0.0
 10
-0.2289
 20
-17.5117
 30
0.0
 10
-0.3473
 20
-17.6333
 30
0.0
 10
-0.3473
 20
-17.6333
 30
0.0
 10
-0.465
 20
-17.7549
 30
0.0
 10
-0.6047
 20
-17.892
 30
0.0
 10
-0.7657
 20
-18.0447
 30
0.0
 10
-0.7657
 20
-18.0447
 30
0.0
 10
-0.7657
 20
-18.0447
 30
0.0
 10
-1.0335
 20
-18.3047
 30
0.0
 10
-1.0335
 20
-18.3047
 30
0.0
 10
-1.0335
 20
-18.3047
 30
0.0
 10
-1.0335
 20
-18.3047
 30
0.0
 10
-1.0335
 20
-18.5142
 30
0.0
 10
-1.0335
 20
-18.5142
 30
0.0
 10
-1.0335
 20
-18.5142
 30
0.0
 10
-1.0335
 20
-18.5142
 30
0.0
 10
0.5769
 20
-18.5142
 30
0.0
 10
0.5769
 20
-18.5142
 30
0.0
  0
SPLINE
  5
5D
330
1F
100
AcDbEntity
  8
AXIS
 62
   250
370
    15
100
AcDbSpline
210
0.0
220
0.0
230
1.0
 70
    24
 71
     3
 72
     8
 73
     4
 74
     0
 42
0.0000000001
 43
0.0000000001
 40
0.0
 40
0.0
 40
0.0
 40
0.0
 40
1.0
 40
1.0
 40
1.0
 40
1.0
 10
-20.1633
 20
-4.5203
 30
0.0
 10
-20.1633
 20
-4.5203
 30
0.0
 10
-23.1529
 20
-4.5203
 30
0.0
 10
-23.1529
 20
-4.5203
 30
0.0
  0
SPLINE
  5
5E
330
1F
100
AcDbEntity
  8
AXIS
 62
   250
370
    15
100
AcDbSpline
210
0.0
220
0.0
230
1.0
 70
    24
 71
     3
 72
     8
 73
     4
 74
     0
 42
0.0000000001
 43
0.0000000001
 40
0.0
 40
0.0
 40
0.0
 40
0.0
 40
1.0
 40
1.0
 40
1.0
 40
1.0
 10
-20.0182
 20
6.4222
 30
0.0
 10
-20.0182
 20
6.4222
 30
0.0
 10
-23.0302
 20
6.4222
 30
0.0
 10
-23.0302
 20
6.4222
 30
0.0
  0
SPLINE
  5
5F
330
1F
100
AcDbEntity
  8
AXIS
 62
   250
370
    15
100
AcDbSpline
210
0.0
220
0.0
230
1.0
 70
    24
 71
     3
 72
     8
 73
     4
 74
     0
 42
0.0000000001
 43
0.0000000001
 40
0.0
 40
0.0
 40
0.0
 40
0.0
 40
1.0
 40
1.0
 40
1.0
 40
1.0
 10
-22.4979
 20
-6.4114
 30
0.0
 10
-22.4979
 20
-6.4114
 30
0.0
 10
-22.4979
 20
8.8244
 30
0.0
 10
-22.4979
 20
8.8244
 30
0.0
  0
SPLINE
  5
60
330
1F
100
AcDbEntity
  8
AXIS
 62
   250
370
    15
100
AcDbSpline
210
0.0
220
0.0
230
1.0
 70
    24
 71
     3
 72
     8
 73
     4
 74
     0
 42
0.0000000001
 43
0.0000000001
 40
0.0
 40
0.0
 40
0.0
 40
0.0
 40
1.0
 40
1.0
 40
1.0
 40
1.0
 10
15.4948
 20
-5.2821
 30
0.0
 10
15.4948
 20
-5.2821
 30
0.0
 10
15.4948
 20
-19.6856
 30
0.0
 10
15.4948
 20
-19.6856
 30
0.0
  0
SPLINE
  5
61
330
1F
100
AcDbEntity
  8
AXIS
 62
   250
370
    15
100
AcDbSpline
210
0.0
220
0.0
230
1.0
 70
    24
 71
     3
 72
     8
 73
     4
 74
     0
 42
0.0000000001
 43
0.0000000001
 40
0.0
 40
0.0
 40
0.0
 40
0.0
 40
1.0
 40
1.0
 40
1.0
 40
1.0
 10
-19.5222
 20
-5.2026
 30
0.0
 10
-19.5222
 20
-5.2026
 30
0.0
 10
-19.5222
 20
-19.619
 30
0.0
 10
-19.5222
 20
-19.619
 30
0.0
  0
SPLINE
  5
62
330
1F
100
AcDbEntity
  8
AXIS
 62
   250
370
    15
100
AcDbSpline
210
0.0
220
0.0
230
1.0
 70
    24
 71
     3
 72
     8
 73
     4
 74
     0
 42
0.0000000001
 43
0.0000000001
 40
0.0
 40
0.0
 40
0.0
 40
0.0
 40
1.0
 40
1.0
 40
1.0
 40
1.0
 10
-19.522
 20
-18.9054
 30
0.0
 10
-19.522
 20
-18.9054
 30
0.0
 10
15.4176
 20
-18.9054
 30
0.0
 10
15.4176
 20
-18.9054
 30
0.0
  0
SPLINE
  5
63
330
1F
100
AcDbEntity
  8
AXIS
 62
   250
370
    15
100
AcDbSpline
210
0.0
220
0.0
230
1.0
 70
    24
 71
     3
 72
     8
 73
     4
 74
     0
 42
0.0000000001
 43
0.0000000001
 40
0.0
 40
0.0
 40
0.0
 40
0.0
 40
1.0
 40
1.0
 40
1.0
 40
1.0
 10
4.7952
 20
-5.3697
 30
0.0
 10
4.7952
 20
-5.3697
 30
0.0
 10
4.7952
 20
-15.8019
 30
0.0
 10
4.7952
 20
-15.8019
 30
0.0
  0
SPLINE
  5
64
330
1F
100
AcDbEntity
  8
AXIS
 62
   250
370
    15
100
AcDbSpline
210
0.0
220
0.0
230
1.0
 70
    24
 71
     3
 72
     8
 73
     4
 74
     0
 42
0.0000000001
 43
0.0000000001
 40
0.0
 40
0.0
 40
0.0
 40
0.0
 40
1.0
 40
1.0
 40
1.0
 40
1.0
 10
15.4952
 20
-15.0648
 30
0.0
 10
15.4952
 20
-15.0648
 30
0.0
 10
-6.2086
 20
-15.0648
 30
0.0
 10
-6.2086
 20
-15.0648
 30
0.0
  0
SPLINE
  5
65
330
1F
100
AcDbEntity
  8
AXIS
 62
   250
370
    15
100
AcDbSpline
210
0.0
220
0.0
230
1.0
 70
    24
 71
     3
 72
     8
 73
     4
 74
     0
 42
0.0000000001
 43
0.0000000001
 40
0.0
 40
0.0
 40
0.0
 40
0.0
 40
1.0
 40
1.0
 40
1.0
 40
1.0
 10
8.6454
 20
-10.9644
 30
0.0
 10
8.6454
 20
-10.9644
 30
0.0
 10
26.0791
 20
-10.9644
 30
0.0
 10
26.0791
 20
-10.9644
 30
0.0
  0
SPLINE
  5
66
330
1F
100
AcDbEntity
  8
AXIS
 62
   250
370
    15
100
AcDbSpline
210
0.0
220
0.0
230
1.0
 70
    24
 71
     3
 72
     8
 73
     4
 74
     0
 42
0.0000000001
 43
0.0000000001
 40
0.0
 40
0.0
 40
0.0
 40
0.0
 40
1.0
 40
1.0
 40
1.0
 40
1.0
 10
8.7422
 20
12.8666
 30
0.0
 10
8.7422
 20
12.8666
 30
0.0
 10
25.9667
 20
12.8666
 30
0.0
 10
25.9667
 20
12.8666
 30
0.0
  0
SPLINE
  5
67
330
1F
100
AcDbEntity
  8
AXIS
 62
   250
370
    15
100
AcDbSpline
210
0.0
220
0.0
230
1.0
 70
    24
 71
     3
 72
     8
 73
     4
 74
     0
 42
0.0000000001
 43
0.0000000001
 40
0.0
 40
0.0
 40
0.0
 40
0.0
 40
1.0
 40
1.0
 40
1.0
 40
1.0
 10
25.3055
 20
-10.9647
 30
0.0
 10
25.3055
 20
-10.9647
 30
0.0
 10
25.3055
 20
12.7988
 30
0.0
 10
25.3055
 20
12.7988
 30
0.0
  0
SPLINE
  5
68
330
1F
100
AcDbEntity
  8
AXIS
 62
   250
370
    15
100
AcDbSpline
210
0.0
220
0.0
230
1.0
 70
    24
 71
     3
 72
     8
 73
     4
 74
     0
 42
0.0000000001
 43
0.0000000001
 40
0.0
 40
0.0
 40
0.0
 40
0.0
 40
1.0
 40
1.0
 40
1.0
 40
1.0
 10
16.3636
 20
-4.1554
 30
0.0
 10
16.3636
 20
-4.1554
 30
0.0
 10
21.0431
 20
-4.1554
 30
0.0
 10
21.0431
 20
-4.1554
 30
0.0
  0
SPLINE
  5
69
330
1F
100
AcDbEntity
  8
AXIS
 62
   250
370
    15
100
AcDbSpline
210
0.0
220
0.0
230
1.0
 70
    24
 71
     3
 72
     8
 73
     4
 74
     0
 42
0.0000000001
 43
0.0000000001
 40
0.0
 40
0.0
 40
0.0
 40
0.0
 40
1.0
 40
1.0
 40
1.0
 40
1.0
 10
16.3636
 20
6.0578
 30
0.0
 10
16.3636
 20
6.0578
 30
0.0
 10
21.1394
 20
6.0578
 30
0.0
 10
21.1394
 20
6.0578
 30
0.0
  0
SPLINE
  5
6A
330
1F
100
AcDbEntity
  8
AXIS
 62
   250
370
    15
100
AcDbSpline
210
0.0
220
0.0
230
1.0
 70
    24
 71
     3
 72
     8
 73
     4
 74
     0
 42
0.0000000001
 43
0.0000000001
 40
0.0
 40
0.0
 40
0.0
 40
0.0
 40
1.0
 40
1.0
 40
1.0
 40
1.0
 10
20.5245
 20
-6.3118
 30
0.0
 10
20.5245
 20
-6.3118
 30
0.0
 10
20.5245
 20
7.9316
 30
0.0
 10
20.5245
 20
7.9316
 30
0.0
  0
SPLINE
  5
6B
330
1F
100
AcDbEntity
  8
AXIS
 62
   250
370
    15
100
AcDbSpline
210
0.0
220
0.0
230
1.0
 70
    24
 71
     3
 72
     8
 73
     4
 74
     0
 42
0.0000000001
 43
0.0000000001
 40
0.0
 40
0.0
 40
0.0
 40
0.0
 40
1.0
 40
1.0
 40
1.0
 40
1.0
 10
-2.5
 20
-5.5953
 30
0.0
 10
-2.5
 20
-5.5953
 30
0.0
 10
-2.5
 20
-15.6718
 30
0.0
 10
-2.5
 20
-15.6718
 30
0.0
  0
SPLINE
  5
6C
330
1F
100
AcDbEntity
  8
AXIS
  6
New Line1
 62
   250
370
    15
100
AcDbSpline
210
0.0
220
0.0
230
1.0
 70
    24
 71
     3
 72
     8
 73
     4
 74
     0
 42
0.0000000001
 43
0.0000000001
 40
0.0
 40
0.0
 40
0.0
 40
0.0
 40
1.0
 40
1.0
 40
1.0
 40
1.0
 10
16.3635
 20
0.9505
 30
0.0
 10
16.3635
 20
0.9505
 30
0.0
 10
-20.4405
 20
0.9505
 30
0.0
 10
-20.4405
 20
0.9505
 30
0.0
  0
SPLINE
  5
6E
330
1F
100
AcDbEntity
  8
AXIS
  6
New Line2
 62
   250
370
    15
100
AcDbSpline
210
0.0
220
0.0
230
1.0
 70
    24
 71
     3
 72
     8
 73
     4
 74
     0
 42
0.0000000001
 43
0.0000000001
 40
0.0
 40
0.0
 40
0.0
 40
0.0
 40
1.0
 40
1.0
 40
1.0
 40
1.0
 10
-2.4998
 20
15.436
 30
0.0
 10
-2.4998
 20
15.436
 30
0.0
 10
-2.4998
 20
0.136
 30
0.0
 10
-2.4998
 20
0.136
 30
0.0
  0
SPLINE
  5
70
330
1F
100
AcDbEntity
  8
AXIS
 62
   250
100
AcDbSpline
210
0.0
220
0.0
230
1.0
 70
    11
 71
     3
 72
    48
 73
    44
 74
     0
 42
0.0000000001
 43
0.0000000001
 40
0.0
 40
0.0
 40
0.0
 40
0.0
 40
0.0833333333333333
 40
0.0833333333333333
 40
0.0833333333333333
 40
0.0833333333333333
 40
0.1666666666666667
 40
0.1666666666666667
 40
0.1666666666666667
 40
0.1666666666666667
 40
0.25
 40
0.25
 40
0.25
 40
0.25
 40
0.3333333333333333
 40
0.3333333333333333
 40
0.3333333333333333
 40
0.3333333333333333
 40
0.4166666666666667
 40
0.4166666666666667
 40
0.4166666666666667
 40
0.4166666666666667
 40
0.5
 40
0.5
 40
0.5
 40
0.5
 40
0.5833333333333334
 40
0.5833333333333334
 40
0.5833333333333334
 40
0.5833333333333334
 40
0.6666666666666666
 40
0.6666666666666666
 40
0.6666666666666666
 40
0.6666666666666666
 40
0.75
 40
0.75
 40
0.75
 40
0.75
 40
0.8333333333333334
 40
0.8333333333333334
 40
0.8333333333333334
 40
0.8333333333333334
 40
1.0
 40
1.0
 40
1.0
 40
1.0
 10
24.6485
 20
-2.3898
 30
0.0
 10
24.6485
 20
-2.3898
 30
0.0
 10
23.9578
 20
-2.3898
 30
0.0
 10
23.9578
 20
-2.3898
 30
0.0
 10
23.9578
 20
-2.3898
 30
0.0
 10
23.9578
 20
-2.3898
 30
0.0
 10
23.9578
 20
-2.0367
 30
0.0
 10
23.9578
 20
-2.0367
 30
0.0
 10
23.9578
 20
-2.0367
 30
0.0
 10
23.9578
 20
-2.0367
 30
0.0
 10
23.6939
 20
-2.0367
 30
0.0
 10
23.6939
 20
-2.0367
 30
0.0
 10
23.6939
 20
-2.0367
 30
0.0
 10
23.6939
 20
-2.0367
 30
0.0
 10
23.6939
 20
-2.3898
 30
0.0
 10
23.6939
 20
-2.3898
 30
0.0
 10
23.6939
 20
-2.3898
 30
0.0
 10
23.6939
 20
-2.3898
 30
0.0
 10
22.1262
 20
-2.3898
 30
0.0
 10
22.1262
 20
-2.3898
 30
0.0
 10
22.1262
 20
-2.3898
 30
0.0
 10
22.1262
 20
-2.3898
 30
0.0
 10
22.1262
 20
-2.7584
 30
0.0
 10
22.1262
 20
-2.7584
 30
0.0
 10
22.1262
 20
-2.7584
 30
0.0
 10
22.1262
 20
-2.7584
 30
0.0
 10
23.7366
 20
-3.8838
 30
0.0
 10
23.7366
 20
-3.8838
 30
0.0
 10
23.7366
 20
-3.8838
 30
0.0
 10
23.7366
 20
-3.8838
 30
0.0
 10
23.9578
 20
-3.8838
 30
0.0
 10
23.9578
 20
-3.8838
 30
0.0
 10
23.9578
 20
-3.8838
 30
0.0
 10
23.9578
 20
-3.8838
 30
0.0
 10
23.9578
 20
-2.7119
 30
0.0
 10
23.9578
 20
-2.7119
 30
0.0
 10
23.9578
 20
-2.7119
 30
0.0
 10
23.9578
 20
-2.7119
 30
0.0
 10
24.6485
 20
-2.7119
 30
0.0
 10
24.6485
 20
-2.7119
 30
0.0
 10
24.6485
 20
-2.7119
 30
0.0
 10
24.6485
 20
-2.7119
 30
0.0
 10
24.6485
 20
-2.3898
 30
0.0
 10
24.6485
 20
-2.3898
 30
0.0
  0
SPLINE
  5
71
330
1F
100
AcDbEntity
  8
AXIS
 62
   250
100
AcDbSpline
210
0.0
220
0.0
230
1.0
 70
    11
 71
     3
 72
    36
 73
    32
 74
     0
 42
0.0000000001
 43
0.0000000001
 40
0.0
 40
0.0
 40
0.0
 40
0.0
 40
0.1111111111111111
 40
0.1111111111111111
 40
0.1111111111111111
 40
0.1111111111111111
 40
0.2222222222222222
 40
0.2222222222222222
 40
0.2222222222222222
 40
0.2222222222222222
 40
0.3333333333333333
 40
0.3333333333333333
 40
0.3333333333333333
 40
0.3333333333333333
 40
0.4444444444444444
 40
0.4444444444444444
 40
0.4444444444444444
 40
0.4444444444444444
 40
0.5555555555555556
 40
0.5555555555555556
 40
0.5555555555555556
 40
0.5555555555555556
 40
0.6666666666666666
 40
0.6666666666666666
 40
0.6666666666666666
 40
0.6666666666666666
 40
0.7777777777777778
 40
0.7777777777777778
 40
0.7777777777777778
 40
0.7777777777777778
 40
1.0
 40
1.0
 40
1.0
 40
1.0
 10
23.6939
 20
-3.5384
 30
0.0
 10
23.6939
 20
-3.5384
 30
0.0
 10
23.6861
 20
-3.5384
 30
0.0
 10
23.6861
 20
-3.5384
 30
0.0
 10
23.6861
 20
-3.5384
 30
0.0
 10
23.6861
 20
-3.5384
 30
0.0
 10
22.8285
 20
-2.9214
 30
0.0
 10
22.8285
 20
-2.9214
 30
0.0
 10
22.8285
 20
-2.9214
 30
0.0
 10
22.771
 20
-2.8872
 30
0.0
 10
22.7128
 20
-2.8529
 30
0.0
 10
22.6539
 20
-2.8192
 30
0.0
 10
22.6539
 20
-2.8192
 30
0.0
 10
22.5944
 20
-2.7863
 30
0.0
 10
22.5285
 20
-2.75
 30
0.0
 10
22.456
 20
-2.7119
 30
0.0
 10
22.456
 20
-2.7119
 30
0.0
 10
22.456
 20
-2.7119
 30
0.0
 10
22.456
 20
-2.7002
 30
0.0
 10
22.456
 20
-2.7002
 30
0.0
 10
22.456
 20
-2.7002
 30
0.0
 10
22.588
 20
-2.708
 30
0.0
 10
22.7199
 20
-2.7119
 30
0.0
 10
22.8518
 20
-2.7119
 30
0.0
 10
22.8518
 20
-2.7119
 30
0.0
 10
22.8518
 20
-2.7119
 30
0.0
 10
23.6939
 20
-2.7119
 30
0.0
 10
23.6939
 20
-2.7119
 30
0.0
 10
23.6939
 20
-2.7119
 30
0.0
 10
23.6939
 20
-2.7119
 30
0.0
 10
23.6939
 20
-3.5384
 30
0.0
 10
23.6939
 20
-3.5384
 30
0.0
  0
SPLINE
  5
72
330
1F
100
AcDbEntity
  8
AXIS
 62
   250
100
AcDbSpline
210
0.0
220
0.0
230
1.0
 70
    11
 71
     3
 72
   124
 73
   120
 74
     0
 42
0.0000000001
 43
0.0000000001
 40
0.0
 40
0.0
 40
0.0
 40
0.0
 40
0.032258064516129
 40
0.032258064516129
 40
0.032258064516129
 40
0.032258064516129
 40
0.0645161290322581
 40
0.0645161290322581
 40
0.0645161290322581
 40
0.0645161290322581
 40
0.0967741935483871
 40
0.0967741935483871
 40
0.0967741935483871
 40
0.0967741935483871
 40
0.1290322580645161
 40
0.1290322580645161
 40
0.1290322580645161
 40
0.1290322580645161
 40
0.1612903225806452
 40
0.1612903225806452
 40
0.1612903225806452
 40
0.1612903225806452
 40
0.1935483870967742
 40
0.1935483870967742
 40
0.1935483870967742
 40
0.1935483870967742
 40
0.2258064516129032
 40
0.2258064516129032
 40
0.2258064516129032
 40
0.2258064516129032
 40
0.2580645161290323
 40
0.2580645161290323
 40
0.2580645161290323
 40
0.2580645161290323
 40
0.2903225806451613
 40
0.2903225806451613
 40
0.2903225806451613
 40
0.2903225806451613
 40
0.3225806451612903
 40
0.3225806451612903
 40
0.3225806451612903
 40
0.3225806451612903
 40
0.3548387096774194
 40
0.3548387096774194
 40
0.3548387096774194
 40
0.3548387096774194
 40
0.3870967741935484
 40
0.3870967741935484
 40
0.3870967741935484
 40
0.3870967741935484
 40
0.4193548387096774
 40
0.4193548387096774
 40
0.4193548387096774
 40
0.4193548387096774
 40
0.4516129032258064
 40
0.4516129032258064
 40
0.4516129032258064
 40
0.4516129032258064
 40
0.4838709677419355
 40
0.4838709677419355
 40
0.4838709677419355
 40
0.4838709677419355
 40
0.5161290322580645
 40
0.5161290322580645
 40
0.5161290322580645
 40
0.5161290322580645
 40
0.5483870967741935
 40
0.5483870967741935
 40
0.5483870967741935
 40
0.5483870967741935
 40
0.5806451612903226
 40
0.5806451612903226
 40
0.5806451612903226
 40
0.5806451612903226
 40
0.6129032258064516
 40
0.6129032258064516
 40
0.6129032258064516
 40
0.6129032258064516
 40
0.6451612903225806
 40
0.6451612903225806
 40
0.6451612903225806
 40
0.6451612903225806
 40
0.6774193548387096
 40
0.6774193548387096
 40
0.6774193548387096
 40
0.6774193548387096
 40
0.7096774193548387
 40
0.7096774193548387
 40
0.7096774193548387
 40
0.7096774193548387
 40
0.7419354838709677
 40
0.7419354838709677
 40
0.7419354838709677
 40
0.7419354838709677
 40
0.7741935483870968
 40
0.7741935483870968
 40
0.7741935483870968
 40
0.7741935483870968
 40
0.8064516129032258
 40
0.8064516129032258
 40
0.8064516129032258
 40
0.8064516129032258
 40
0.8387096774193549
 40
0.8387096774193549
 40
0.8387096774193549
 40
0.8387096774193549
 40
0.8709677419354839
 40
0.8709677419354839
 40
0.8709677419354839
 40
0.8709677419354839
 40
0.9032258064516129
 40
0.9032258064516129
 40
0.9032258064516129
 40
0.9032258064516129
 40
0.9354838709677419
 40
0.9354838709677419
 40
0.9354838709677419
 40
0.9354838709677419
 40
1.0
 40
1.0
 40
1.0
 40
1.0
 10
24.6873
 20
-1.5788
 30
0.0
 10
24.6892
 20
-1.538
 30
0.0
 10
24.6892
 20
-1.4908
 30
0.0
 10
24.686
 20
-1.4378
 30
0.0
 10
24.686
 20
-1.4378
 30
0.0
 10
24.6834
 20
-1.3847
 30
0.0
 10
24.6776
 20
-1.3265
 30
0.0
 10
24.6679
 20
-1.2645
 30
0.0
 10
24.6679
 20
-1.2645
 30
0.0
 10
24.6576
 20
-1.1733
 30
0.0
 10
24.6375
 20
-1.084
 30
0.0
 10
24.609
 20
-0.9967
 30
0.0
 10
24.609
 20
-0.9967
 30
0.0
 10
24.5799
 20
-0.9094
 30
0.0
 10
24.5418
 20
-0.826
 30
0.0
 10
24.4952
 20
-0.7471
 30
0.0
 10
24.4952
 20
-0.7471
 30
0.0
 10
24.4487
 20
-0.6681
 30
0.0
 10
24.3937
 20
-0.5964
 30
0.0
 10
24.3303
 20
-0.531
 30
0.0
 10
24.3303
 20
-0.531
 30
0.0
 10
24.2501
 20
-0.4476
 30
0.0
 10
24.1537
 20
-0.3732
 30
0.0
 10
24.0399
 20
-0.3079
 30
0.0
 10
24.0399
 20
-0.3079
 30
0.0
 10
23.9267
 20
-0.2426
 30
0.0
 10
23.7961
 20
-0.1915
 30
0.0
 10
23.648
 20
-0.154
 30
0.0
 10
23.648
 20
-0.154
 30
0.0
 10
23.4999
 20
-0.1165
 30
0.0
 10
23.3343
 20
-0.0971
 30
0.0
 10
23.1506
 20
-0.0964
 30
0.0
 10
23.1506
 20
-0.0964
 30
0.0
 10
22.987
 20
-0.0964
 30
0.0
 10
22.8402
 20
-0.1158
 30
0.0
 10
22.7089
 20
-0.154
 30
0.0
 10
22.7089
 20
-0.154
 30
0.0
 10
22.5776
 20
-0.1921
 30
0.0
 10
22.4657
 20
-0.2478
 30
0.0
 10
22.3726
 20
-0.3202
 30
0.0
 10
22.3726
 20
-0.3202
 30
0.0
 10
22.2795
 20
-0.3926
 30
0.0
 10
22.2083
 20
-0.4799
 30
0.0
 10
22.1585
 20
-0.5828
 30
0.0
 10
22.1585
 20
-0.5828
 30
0.0
 10
22.1087
 20
-0.6856
 30
0.0
 10
22.0841
 20
-0.8014
 30
0.0
 10
22.0835
 20
-0.9307
 30
0.0
 10
22.0835
 20
-0.9307
 30
0.0
 10
22.0841
 20
-1.0601
 30
0.0
 10
22.1087
 20
-1.1778
 30
0.0
 10
22.1566
 20
-1.2832
 30
0.0
 10
22.1566
 20
-1.2832
 30
0.0
 10
22.2038
 20
-1.3886
 30
0.0
 10
22.2698
 20
-1.4792
 30
0.0
 10
22.3525
 20
-1.5548
 30
0.0
 10
22.3525
 20
-1.5548
 30
0.0
 10
22.436
 20
-1.6312
 30
0.0
 10
22.531
 20
-1.6894
 30
0.0
 10
22.6384
 20
-1.7301
 30
0.0
 10
22.6384
 20
-1.7301
 30
0.0
 10
22.7458
 20
-1.7709
 30
0.0
 10
22.8596
 20
-1.7916
 30
0.0
 10
22.9799
 20
-1.7922
 30
0.0
 10
22.9799
 20
-1.7922
 30
0.0
 10
23.0879
 20
-1.7916
 30
0.0
 10
23.1888
 20
-1.7741
 30
0.0
 10
23.2819
 20
-1.7398
 30
0.0
 10
23.2819
 20
-1.7398
 30
0.0
 10
23.3757
 20
-1.7049
 30
0.0
 10
23.4572
 20
-1.6551
 30
0.0
 10
23.5277
 20
-1.5904
 30
0.0
 10
23.5277
 20
-1.5904
 30
0.0
 10
23.5975
 20
-1.5257
 30
0.0
 10
23.6525
 20
-1.4475
 30
0.0
 10
23.692
 20
-1.3569
 30
0.0
 10
23.692
 20
-1.3569
 30
0.0
 10
23.7314
 20
-1.2657
 30
0.0
 10
23.7515
 20
-1.1642
 30
0.0
 10
23.7521
 20
-1.051
 30
0.0
 10
23.7521
 20
-1.051
 30
0.0
 10
23.7515
 20
-0.923
 30
0.0
 10
23.7282
 20
-0.8085
 30
0.0
 10
23.6823
 20
-0.7082
 30
0.0
 10
23.6823
 20
-0.7082
 30
0.0
 10
23.6363
 20
-0.6086
 30
0.0
 10
23.5704
 20
-0.5233
 30
0.0
 10
23.4843
 20
-0.4534
 30
0.0
 10
23.4843
 20
-0.4534
 30
0.0
 10
23.4843
 20
-0.4534
 30
0.0
 10
23.4843
 20
-0.4418
 30
0.0
 10
23.4843
 20
-0.4418
 30
0.0
 10
23.4843
 20
-0.4418
 30
0.0
 10
23.6318
 20
-0.4657
 30
0.0
 10
23.7612
 20
-0.5065
 30
0.0
 10
23.8718
 20
-0.5634
 30
0.0
 10
23.8718
 20
-0.5634
 30
0.0
 10
23.983
 20
-0.6209
 30
0.0
 10
24.0761
 20
-0.6914
 30
0.0
 10
24.1518
 20
-0.7755
 30
0.0
 10
24.1518
 20
-0.7755
 30
0.0
 10
24.2216
 20
-0.8479
 30
0.0
 10
24.276
 20
-0.9288
 30
0.0
 10
24.3161
 20
-1.0187
 30
0.0
 10
24.3161
 20
-1.0187
 30
0.0
 10
24.3562
 20
-1.1086
 30
0.0
 10
24.3827
 20
-1.2037
 30
0.0
 10
24.3963
 20
-1.3033
 30
0.0
 10
24.3963
 20
-1.3033
 30
0.0
 10
24.4021
 20
-1.3608
 30
0.0
 10
24.4066
 20
-1.4126
 30
0.0
 10
24.4092
 20
-1.4572
 30
0.0
 10
24.4092
 20
-1.4572
 30
0.0
 10
24.4118
 20
-1.5018
 30
0.0
 10
24.4118
 20
-1.5426
 30
0.0
 10
24.4079
 20
-1.5788
 30
0.0
 10
24.4079
 20
-1.5788
 30
0.0
 10
24.4079
 20
-1.5788
 30
0.0
 10
24.6873
 20
-1.5788
 30
0.0
 10
24.6873
 20
-1.5788
 30
0.0
  0
SPLINE
  5
73
330
1F
100
AcDbEntity
  8
AXIS
 62
   250
100
AcDbSpline
210
0.0
220
0.0
230
1.0
 70
    11
 71
     3
 72
    64
 73
    60
 74
     0
 42
0.0000000001
 43
0.0000000001
 40
0.0
 40
0.0
 40
0.0
 40
0.0
 40
0.0625
 40
0.0625
 40
0.0625
 40
0.0625
 40
0.125
 40
0.125
 40
0.125
 40
0.125
 40
0.1875
 40
0.1875
 40
0.1875
 40
0.1875
 40
0.25
 40
0.25
 40
0.25
 40
0.25
 40
0.3125
 40
0.3125
 40
0.3125
 40
0.3125
 40
0.375
 40
0.375
 40
0.375
 40
0.375
 40
0.4375
 40
0.4375
 40
0.4375
 40
0.4375
 40
0.5
 40
0.5
 40
0.5
 40
0.5
 40
0.5625
 40
0.5625
 40
0.5625
 40
0.5625
 40
0.625
 40
0.625
 40
0.625
 40
0.625
 40
0.6875
 40
0.6875
 40
0.6875
 40
0.6875
 40
0.75
 40
0.75
 40
0.75
 40
0.75
 40
0.8125
 40
0.8125
 40
0.8125
 40
0.8125
 40
0.875
 40
0.875
 40
0.875
 40
0.875
 40
1.0
 40
1.0
 40
1.0
 40
1.0
 10
22.3435
 20
-0.9618
 30
0.0
 10
22.3441
 20
-0.8719
 30
0.0
 10
22.3635
 20
-0.7936
 30
0.0
 10
22.4017
 20
-0.7283
 30
0.0
 10
22.4017
 20
-0.7283
 30
0.0
 10
22.4398
 20
-0.663
 30
0.0
 10
22.4935
 20
-0.6086
 30
0.0
 10
22.5621
 20
-0.5666
 30
0.0
 10
22.5621
 20
-0.5666
 30
0.0
 10
22.6306
 20
-0.5239
 30
0.0
 10
22.7115
 20
-0.4929
 30
0.0
 10
22.8033
 20
-0.4722
 30
0.0
 10
22.8033
 20
-0.4722
 30
0.0
 10
22.8958
 20
-0.4515
 30
0.0
 10
22.9961
 20
-0.4418
 30
0.0
 10
23.1041
 20
-0.4418
 30
0.0
 10
23.1041
 20
-0.4418
 30
0.0
 10
23.1325
 20
-0.4418
 30
0.0
 10
23.1571
 20
-0.4444
 30
0.0
 10
23.1765
 20
-0.4502
 30
0.0
 10
23.1765
 20
-0.4502
 30
0.0
 10
23.1965
 20
-0.4554
 30
0.0
 10
23.2153
 20
-0.4631
 30
0.0
 10
23.2321
 20
-0.4728
 30
0.0
 10
23.2321
 20
-0.4728
 30
0.0
 10
23.2832
 20
-0.5026
 30
0.0
 10
23.3285
 20
-0.542
 30
0.0
 10
23.3679
 20
-0.5905
 30
0.0
 10
23.3679
 20
-0.5905
 30
0.0
 10
23.4074
 20
-0.6384
 30
0.0
 10
23.4384
 20
-0.6947
 30
0.0
 10
23.4611
 20
-0.7587
 30
0.0
 10
23.4611
 20
-0.7587
 30
0.0
 10
23.4837
 20
-0.8227
 30
0.0
 10
23.4953
 20
-0.8932
 30
0.0
 10
23.496
 20
-0.9695
 30
0.0
 10
23.496
 20
-0.9695
 30
0.0
 10
23.4953
 20
-1.0685
 30
0.0
 10
23.4721
 20
-1.1539
 30
0.0
 10
23.4268
 20
-1.2263
 30
0.0
 10
23.4268
 20
-1.2263
 30
0.0
 10
23.3815
 20
-1.2987
 30
0.0
 10
23.3194
 20
-1.355
 30
0.0
 10
23.2392
 20
-1.3944
 30
0.0
 10
23.2392
 20
-1.3944
 30
0.0
 10
23.159
 20
-1.4339
 30
0.0
 10
23.0659
 20
-1.4539
 30
0.0
 10
22.9605
 20
-1.4546
 30
0.0
 10
22.9605
 20
-1.4546
 30
0.0
 10
22.8389
 20
-1.4539
 30
0.0
 10
22.7322
 20
-1.4326
 30
0.0
 10
22.6403
 20
-1.3906
 30
0.0
 10
22.6403
 20
-1.3906
 30
0.0
 10
22.5479
 20
-1.3485
 30
0.0
 10
22.4754
 20
-1.291
 30
0.0
 10
22.423
 20
-1.2172
 30
0.0
 10
22.423
 20
-1.2172
 30
0.0
 10
22.3706
 20
-1.1435
 30
0.0
 10
22.3441
 20
-1.0581
 30
0.0
 10
22.3435
 20
-0.9618
 30
0.0
  0
SPLINE
  5
74
330
1F
100
AcDbEntity
  8
AXIS
 62
   250
100
AcDbSpline
210
0.0
220
0.0
230
1.0
 70
    11
 71
     3
 72
    92
 73
    88
 74
     0
 42
0.0000000001
 43
0.0000000001
 40
0.0
 40
0.0
 40
0.0
 40
0.0
 40
0.0434782608695652
 40
0.0434782608695652
 40
0.0434782608695652
 40
0.0434782608695652
 40
0.0869565217391304
 40
0.0869565217391304
 40
0.0869565217391304
 40
0.0869565217391304
 40
0.1304347826086956
 40
0.1304347826086956
 40
0.1304347826086956
 40
0.1304347826086956
 40
0.1739130434782609
 40
0.1739130434782609
 40
0.1739130434782609
 40
0.1739130434782609
 40
0.2173913043478261
 40
0.2173913043478261
 40
0.2173913043478261
 40
0.2173913043478261
 40
0.2608695652173913
 40
0.2608695652173913
 40
0.2608695652173913
 40
0.2608695652173913
 40
0.3043478260869565
 40
0.3043478260869565
 40
0.3043478260869565
 40
0.3043478260869565
 40
0.3478260869565217
 40
0.3478260869565217
 40
0.3478260869565217
 40
0.3478260869565217
 40
0.391304347826087
 40
0.391304347826087
 40
0.391304347826087
 40
0.391304347826087
 40
0.4347826086956522
 40
0.4347826086956522
 40
0.4347826086956522
 40
0.4347826086956522
 40
0.4782608695652174
 40
0.4782608695652174
 40
0.4782608695652174
 40
0.4782608695652174
 40
0.5217391304347826
 40
0.5217391304347826
 40
0.5217391304347826
 40
0.5217391304347826
 40
0.5652173913043478
 40
0.5652173913043478
 40
0.5652173913043478
 40
0.5652173913043478
 40
0.6086956521739131
 40
0.6086956521739131
 40
0.6086956521739131
 40
0.6086956521739131
 40
0.6521739130434783
 40
0.6521739130434783
 40
0.6521739130434783
 40
0.6521739130434783
 40
0.6956521739130435
 40
0.6956521739130435
 40
0.6956521739130435
 40
0.6956521739130435
 40
0.7391304347826086
 40
0.7391304347826086
 40
0.7391304347826086
 40
0.7391304347826086
 40
0.782608695652174
 40
0.782608695652174
 40
0.782608695652174
 40
0.782608695652174
 40
0.8260869565217391
 40
0.8260869565217391
 40
0.8260869565217391
 40
0.8260869565217391
 40
0.8695652173913043
 40
0.8695652173913043
 40
0.8695652173913043
 40
0.8695652173913043
 40
0.9130434782608695
 40
0.9130434782608695
 40
0.9130434782608695
 40
0.9130434782608695
 40
1.0
 40
1.0
 40
1.0
 40
1.0
 10
22.7703
 20
0.9242
 30
0.0
 10
22.7703
 20
0.9242
 30
0.0
 10
23.69
 20
1.5606
 30
0.0
 10
23.69
 20
1.5606
 30
0.0
 10
23.69
 20
1.5606
 30
0.0
 10
23.69
 20
1.5606
 30
0.0
 10
24.6485
 20
0.8931
 30
0.0
 10
24.6485
 20
0.8931
 30
0.0
 10
24.6485
 20
0.8931
 30
0.0
 10
24.6485
 20
0.8931
 30
0.0
 10
24.6485
 20
1.2696
 30
0.0
 10
24.6485
 20
1.2696
 30
0.0
 10
24.6485
 20
1.2696
 30
0.0
 10
24.6485
 20
1.2696
 30
0.0
 10
24.2255
 20
1.5412
 30
0.0
 10
24.2255
 20
1.5412
 30
0.0
 10
24.2255
 20
1.5412
 30
0.0
 10
24.1699
 20
1.5781
 30
0.0
 10
24.1156
 20
1.6123
 30
0.0
 10
24.0625
 20
1.6447
 30
0.0
 10
24.0625
 20
1.6447
 30
0.0
 10
24.0095
 20
1.677
 30
0.0
 10
23.9552
 20
1.708
 30
0.0
 10
23.8996
 20
1.7391
 30
0.0
 10
23.8996
 20
1.7391
 30
0.0
 10
23.8996
 20
1.7391
 30
0.0
 10
23.8996
 20
1.7469
 30
0.0
 10
23.8996
 20
1.7469
 30
0.0
 10
23.8996
 20
1.7469
 30
0.0
 10
23.9558
 20
1.7798
 30
0.0
 10
24.0102
 20
1.8122
 30
0.0
 10
24.0638
 20
1.8452
 30
0.0
 10
24.0638
 20
1.8452
 30
0.0
 10
24.1175
 20
1.8775
 30
0.0
 10
24.1712
 20
1.9124
 30
0.0
 10
24.2255
 20
1.9486
 30
0.0
 10
24.2255
 20
1.9486
 30
0.0
 10
24.2255
 20
1.9486
 30
0.0
 10
24.6485
 20
2.228
 30
0.0
 10
24.6485
 20
2.228
 30
0.0
 10
24.6485
 20
2.228
 30
0.0
 10
24.6485
 20
2.228
 30
0.0
 10
24.6485
 20
2.6122
 30
0.0
 10
24.6485
 20
2.6122
 30
0.0
 10
24.6485
 20
2.6122
 30
0.0
 10
24.6485
 20
2.6122
 30
0.0
 10
23.6784
 20
1.9564
 30
0.0
 10
23.6784
 20
1.9564
 30
0.0
 10
23.6784
 20
1.9564
 30
0.0
 10
23.6784
 20
1.9564
 30
0.0
 10
22.7703
 20
2.5967
 30
0.0
 10
22.7703
 20
2.5967
 30
0.0
 10
22.7703
 20
2.5967
 30
0.0
 10
22.7703
 20
2.5967
 30
0.0
 10
22.7703
 20
2.2242
 30
0.0
 10
22.7703
 20
2.2242
 30
0.0
 10
22.7703
 20
2.2242
 30
0.0
 10
22.7703
 20
2.2242
 30
0.0
 10
23.17
 20
1.9642
 30
0.0
 10
23.17
 20
1.9642
 30
0.0
 10
23.17
 20
1.9642
 30
0.0
 10
23.2198
 20
1.9312
 30
0.0
 10
23.2703
 20
1.8988
 30
0.0
 10
23.3201
 20
1.8678
 30
0.0
 10
23.3201
 20
1.8678
 30
0.0
 10
23.3705
 20
1.8361
 30
0.0
 10
23.4229
 20
1.8051
 30
0.0
 10
23.4766
 20
1.774
 30
0.0
 10
23.4766
 20
1.774
 30
0.0
 10
23.4766
 20
1.774
 30
0.0
 10
23.4766
 20
1.7663
 30
0.0
 10
23.4766
 20
1.7663
 30
0.0
 10
23.4766
 20
1.7663
 30
0.0
 10
23.4248
 20
1.7359
 30
0.0
 10
23.3744
 20
1.7048
 30
0.0
 10
23.3252
 20
1.6738
 30
0.0
 10
23.3252
 20
1.6738
 30
0.0
 10
23.2761
 20
1.6427
 30
0.0
 10
23.2256
 20
1.6084
 30
0.0
 10
23.1739
 20
1.5722
 30
0.0
 10
23.1739
 20
1.5722
 30
0.0
 10
23.1739
 20
1.5722
 30
0.0
 10
22.7703
 20
1.3045
 30
0.0
 10
22.7703
 20
1.3045
 30
0.0
 10
22.7703
 20
1.3045
 30
0.0
 10
22.7703
 20
1.3045
 30
0.0
 10
22.7703
 20
0.9242
 30
0.0
 10
22.7703
 20
0.9242
 30
0.0
  0
SPLINE
  5
75
330
1F
100
AcDbEntity
  8
AXIS
 62
   250
100
AcDbSpline
210
0.0
220
0.0
230
1.0
 70
    11
 71
     3
 72
    48
 73
    44
 74
     0
 42
0.0000000001
 43
0.0000000001
 40
0.0
 40
0.0
 40
0.0
 40
0.0
 40
0.0833333333333333
 40
0.0833333333333333
 40
0.0833333333333333
 40
0.0833333333333333
 40
0.1666666666666667
 40
0.1666666666666667
 40
0.1666666666666667
 40
0.1666666666666667
 40
0.25
 40
0.25
 40
0.25
 40
0.25
 40
0.3333333333333333
 40
0.3333333333333333
 40
0.3333333333333333
 40
0.3333333333333333
 40
0.4166666666666667
 40
0.4166666666666667
 40
0.4166666666666667
 40
0.4166666666666667
 40
0.5
 40
0.5
 40
0.5
 40
0.5
 40
0.5833333333333334
 40
0.5833333333333334
 40
0.5833333333333334
 40
0.5833333333333334
 40
0.6666666666666666
 40
0.6666666666666666
 40
0.6666666666666666
 40
0.6666666666666666
 40
0.75
 40
0.75
 40
0.75
 40
0.75
 40
0.8333333333333334
 40
0.8333333333333334
 40
0.8333333333333334
 40
0.8333333333333334
 40
1.0
 40
1.0
 40
1.0
 40
1.0
 10
24.6485
 20
5.0337
 30
0.0
 10
24.6485
 20
5.0337
 30
0.0
 10
23.9578
 20
5.0337
 30
0.0
 10
23.9578
 20
5.0337
 30
0.0
 10
23.9578
 20
5.0337
 30
0.0
 10
23.9578
 20
5.0337
 30
0.0
 10
23.9578
 20
5.3868
 30
0.0
 10
23.9578
 20
5.3868
 30
0.0
 10
23.9578
 20
5.3868
 30
0.0
 10
23.9578
 20
5.3868
 30
0.0
 10
23.6939
 20
5.3868
 30
0.0
 10
23.6939
 20
5.3868
 30
0.0
 10
23.6939
 20
5.3868
 30
0.0
 10
23.6939
 20
5.3868
 30
0.0
 10
23.6939
 20
5.0337
 30
0.0
 10
23.6939
 20
5.0337
 30
0.0
 10
23.6939
 20
5.0337
 30
0.0
 10
23.6939
 20
5.0337
 30
0.0
 10
22.1262
 20
5.0337
 30
0.0
 10
22.1262
 20
5.0337
 30
0.0
 10
22.1262
 20
5.0337
 30
0.0
 10
22.1262
 20
5.0337
 30
0.0
 10
22.1262
 20
4.6651
 30
0.0
 10
22.1262
 20
4.6651
 30
0.0
 10
22.1262
 20
4.6651
 30
0.0
 10
22.1262
 20
4.6651
 30
0.0
 10
23.7366
 20
3.5397
 30
0.0
 10
23.7366
 20
3.5397
 30
0.0
 10
23.7366
 20
3.5397
 30
0.0
 10
23.7366
 20
3.5397
 30
0.0
 10
23.9578
 20
3.5397
 30
0.0
 10
23.9578
 20
3.5397
 30
0.0
 10
23.9578
 20
3.5397
 30
0.0
 10
23.9578
 20
3.5397
 30
0.0
 10
23.9578
 20
4.7116
 30
0.0
 10
23.9578
 20
4.7116
 30
0.0
 10
23.9578
 20
4.7116
 30
0.0
 10
23.9578
 20
4.7116
 30
0.0
 10
24.6485
 20
4.7116
 30
0.0
 10
24.6485
 20
4.7116
 30
0.0
 10
24.6485
 20
4.7116
 30
0.0
 10
24.6485
 20
4.7116
 30
0.0
 10
24.6485
 20
5.0337
 30
0.0
 10
24.6485
 20
5.0337
 30
0.0
  0
SPLINE
  5
76
330
1F
100
AcDbEntity
  8
AXIS
 62
   250
100
AcDbSpline
210
0.0
220
0.0
230
1.0
 70
    11
 71
     3
 72
    36
 73
    32
 74
     0
 42
0.0000000001
 43
0.0000000001
 40
0.0
 40
0.0
 40
0.0
 40
0.0
 40
0.1111111111111111
 40
0.1111111111111111
 40
0.1111111111111111
 40
0.1111111111111111
 40
0.2222222222222222
 40
0.2222222222222222
 40
0.2222222222222222
 40
0.2222222222222222
 40
0.3333333333333333
 40
0.3333333333333333
 40
0.3333333333333333
 40
0.3333333333333333
 40
0.4444444444444444
 40
0.4444444444444444
 40
0.4444444444444444
 40
0.4444444444444444
 40
0.5555555555555556
 40
0.5555555555555556
 40
0.5555555555555556
 40
0.5555555555555556
 40
0.6666666666666666
 40
0.6666666666666666
 40
0.6666666666666666
 40
0.6666666666666666
 40
0.7777777777777778
 40
0.7777777777777778
 40
0.7777777777777778
 40
0.7777777777777778
 40
1.0
 40
1.0
 40
1.0
 40
1.0
 10
23.6939
 20
3.8851
 30
0.0
 10
23.6939
 20
3.8851
 30
0.0
 10
23.6861
 20
3.8851
 30
0.0
 10
23.6861
 20
3.8851
 30
0.0
 10
23.6861
 20
3.8851
 30
0.0
 10
23.6861
 20
3.8851
 30
0.0
 10
22.8285
 20
4.5021
 30
0.0
 10
22.8285
 20
4.5021
 30
0.0
 10
22.8285
 20
4.5021
 30
0.0
 10
22.771
 20
4.5363
 30
0.0
 10
22.7128
 20
4.5706
 30
0.0
 10
22.6539
 20
4.6043
 30
0.0
 10
22.6539
 20
4.6043
 30
0.0
 10
22.5944
 20
4.6372
 30
0.0
 10
22.5285
 20
4.6735
 30
0.0
 10
22.456
 20
4.7116
 30
0.0
 10
22.456
 20
4.7116
 30
0.0
 10
22.456
 20
4.7116
 30
0.0
 10
22.456
 20
4.7233
 30
0.0
 10
22.456
 20
4.7233
 30
0.0
 10
22.456
 20
4.7233
 30
0.0
 10
22.588
 20
4.7155
 30
0.0
 10
22.7199
 20
4.7116
 30
0.0
 10
22.8518
 20
4.7116
 30
0.0
 10
22.8518
 20
4.7116
 30
0.0
 10
22.8518
 20
4.7116
 30
0.0
 10
23.6939
 20
4.7116
 30
0.0
 10
23.6939
 20
4.7116
 30
0.0
 10
23.6939
 20
4.7116
 30
0.0
 10
23.6939
 20
4.7116
 30
0.0
 10
23.6939
 20
3.8851
 30
0.0
 10
23.6939
 20
3.8851
 30
0.0
  0
SPLINE
  5
77
330
1F
100
AcDbEntity
  8
AXIS
 62
   250
100
AcDbSpline
210
0.0
220
0.0
230
1.0
 70
    11
 71
     3
 72
   124
 73
   120
 74
     0
 42
0.0000000001
 43
0.0000000001
 40
0.0
 40
0.0
 40
0.0
 40
0.0
 40
0.032258064516129
 40
0.032258064516129
 40
0.032258064516129
 40
0.032258064516129
 40
0.0645161290322581
 40
0.0645161290322581
 40
0.0645161290322581
 40
0.0645161290322581
 40
0.0967741935483871
 40
0.0967741935483871
 40
0.0967741935483871
 40
0.0967741935483871
 40
0.1290322580645161
 40
0.1290322580645161
 40
0.1290322580645161
 40
0.1290322580645161
 40
0.1612903225806452
 40
0.1612903225806452
 40
0.1612903225806452
 40
0.1612903225806452
 40
0.1935483870967742
 40
0.1935483870967742
 40
0.1935483870967742
 40
0.1935483870967742
 40
0.2258064516129032
 40
0.2258064516129032
 40
0.2258064516129032
 40
0.2258064516129032
 40
0.2580645161290323
 40
0.2580645161290323
 40
0.2580645161290323
 40
0.2580645161290323
 40
0.2903225806451613
 40
0.2903225806451613
 40
0.2903225806451613
 40
0.2903225806451613
 40
0.3225806451612903
 40
0.3225806451612903
 40
0.3225806451612903
 40
0.3225806451612903
 40
0.3548387096774194
 40
0.3548387096774194
 40
0.3548387096774194
 40
0.3548387096774194
 40
0.3870967741935484
 40
0.3870967741935484
 40
0.3870967741935484
 40
0.3870967741935484
 40
0.4193548387096774
 40
0.4193548387096774
 40
0.4193548387096774
 40
0.4193548387096774
 40
0.4516129032258064
 40
0.4516129032258064
 40
0.4516129032258064
 40
0.4516129032258064
 40
0.4838709677419355
 40
0.4838709677419355
 40
0.4838709677419355
 40
0.4838709677419355
 40
0.5161290322580645
 40
0.5161290322580645
 40
0.5161290322580645
 40
0.5161290322580645
 40
0.5483870967741935
 40
0.5483870967741935
 40
0.5483870967741935
 40
0.5483870967741935
 40
0.5806451612903226
 40
0.5806451612903226
 40
0.5806451612903226
 40
0.5806451612903226
 40
0.6129032258064516
 40
0.6129032258064516
 40
0.6129032258064516
 40
0.6129032258064516
 40
0.6451612903225806
 40
0.6451612903225806
 40
0.6451612903225806
 40
0.6451612903225806
 40
0.6774193548387096
 40
0.6774193548387096
 40
0.6774193548387096
 40
0.6774193548387096
 40
0.7096774193548387
 40
0.7096774193548387
 40
0.7096774193548387
 40
0.7096774193548387
 40
0.7419354838709677
 40
0.7419354838709677
 40
0.7419354838709677
 40
0.7419354838709677
 40
0.7741935483870968
 40
0.7741935483870968
 40
0.7741935483870968
 40
0.7741935483870968
 40
0.8064516129032258
 40
0.8064516129032258
 40
0.8064516129032258
 40
0.8064516129032258
 40
0.8387096774193549
 40
0.8387096774193549
 40
0.8387096774193549
 40
0.8387096774193549
 40
0.8709677419354839
 40
0.8709677419354839
 40
0.8709677419354839
 40
0.8709677419354839
 40
0.9032258064516129
 40
0.9032258064516129
 40
0.9032258064516129
 40
0.9032258064516129
 40
0.9354838709677419
 40
0.9354838709677419
 40
0.9354838709677419
 40
0.9354838709677419
 40
1.0
 40
1.0
 40
1.0
 40
1.0
 10
24.6873
 20
5.8447
 30
0.0
 10
24.6892
 20
5.8855
 30
0.0
 10
24.6892
 20
5.9327
 30
0.0
 10
24.686
 20
5.9857
 30
0.0
 10
24.686
 20
5.9857
 30
0.0
 10
24.6834
 20
6.0388
 30
0.0
 10
24.6776
 20
6.097
 30
0.0
 10
24.6679
 20
6.159
 30
0.0
 10
24.6679
 20
6.159
 30
0.0
 10
24.6576
 20
6.2502
 30
0.0
 10
24.6375
 20
6.3395
 30
0.0
 10
24.609
 20
6.4268
 30
0.0
 10
24.609
 20
6.4268
 30
0.0
 10
24.5799
 20
6.5141
 30
0.0
 10
24.5418
 20
6.5975
 30
0.0
 10
24.4952
 20
6.6764
 30
0.0
 10
24.4952
 20
6.6764
 30
0.0
 10
24.4487
 20
6.7554
 30
0.0
 10
24.3937
 20
6.8271
 30
0.0
 10
24.3303
 20
6.8925
 30
0.0
 10
24.3303
 20
6.8925
 30
0.0
 10
24.2501
 20
6.9759
 30
0.0
 10
24.1537
 20
7.0503
 30
0.0
 10
24.0399
 20
7.1156
 30
0.0
 10
24.0399
 20
7.1156
 30
0.0
 10
23.9267
 20
7.1809
 30
0.0
 10
23.7961
 20
7.232
 30
0.0
 10
23.648
 20
7.2695
 30
0.0
 10
23.648
 20
7.2695
 30
0.0
 10
23.4999
 20
7.307
 30
0.0
 10
23.3343
 20
7.3264
 30
0.0
 10
23.1506
 20
7.3271
 30
0.0
 10
23.1506
 20
7.3271
 30
0.0
 10
22.987
 20
7.3271
 30
0.0
 10
22.8402
 20
7.3077
 30
0.0
 10
22.7089
 20
7.2695
 30
0.0
 10
22.7089
 20
7.2695
 30
0.0
 10
22.5776
 20
7.2314
 30
0.0
 10
22.4657
 20
7.1757
 30
0.0
 10
22.3726
 20
7.1033
 30
0.0
 10
22.3726
 20
7.1033
 30
0.0
 10
22.2795
 20
7.0309
 30
0.0
 10
22.2083
 20
6.9436
 30
0.0
 10
22.1585
 20
6.8407
 30
0.0
 10
22.1585
 20
6.8407
 30
0.0
 10
22.1087
 20
6.7379
 30
0.0
 10
22.0841
 20
6.6221
 30
0.0
 10
22.0835
 20
6.4928
 30
0.0
 10
22.0835
 20
6.4928
 30
0.0
 10
22.0841
 20
6.3634
 30
0.0
 10
22.1087
 20
6.2457
 30
0.0
 10
22.1566
 20
6.1403
 30
0.0
 10
22.1566
 20
6.1403
 30
0.0
 10
22.2038
 20
6.0349
 30
0.0
 10
22.2698
 20
5.9443
 30
0.0
 10
22.3525
 20
5.8687
 30
0.0
 10
22.3525
 20
5.8687
 30
0.0
 10
22.436
 20
5.7923
 30
0.0
 10
22.531
 20
5.7341
 30
0.0
 10
22.6384
 20
5.6934
 30
0.0
 10
22.6384
 20
5.6934
 30
0.0
 10
22.7458
 20
5.6526
 30
0.0
 10
22.8596
 20
5.6319
 30
0.0
 10
22.9799
 20
5.6313
 30
0.0
 10
22.9799
 20
5.6313
 30
0.0
 10
23.0879
 20
5.6319
 30
0.0
 10
23.1888
 20
5.6494
 30
0.0
 10
23.2819
 20
5.6837
 30
0.0
 10
23.2819
 20
5.6837
 30
0.0
 10
23.3757
 20
5.7186
 30
0.0
 10
23.4572
 20
5.7684
 30
0.0
 10
23.5277
 20
5.8331
 30
0.0
 10
23.5277
 20
5.8331
 30
0.0
 10
23.5975
 20
5.8978
 30
0.0
 10
23.6525
 20
5.976
 30
0.0
 10
23.692
 20
6.0666
 30
0.0
 10
23.692
 20
6.0666
 30
0.0
 10
23.7314
 20
6.1578
 30
0.0
 10
23.7515
 20
6.2593
 30
0.0
 10
23.7521
 20
6.3725
 30
0.0
 10
23.7521
 20
6.3725
 30
0.0
 10
23.7515
 20
6.5005
 30
0.0
 10
23.7282
 20
6.615
 30
0.0
 10
23.6823
 20
6.7153
 30
0.0
 10
23.6823
 20
6.7153
 30
0.0
 10
23.6363
 20
6.8149
 30
0.0
 10
23.5704
 20
6.9002
 30
0.0
 10
23.4843
 20
6.9701
 30
0.0
 10
23.4843
 20
6.9701
 30
0.0
 10
23.4843
 20
6.9701
 30
0.0
 10
23.4843
 20
6.9817
 30
0.0
 10
23.4843
 20
6.9817
 30
0.0
 10
23.4843
 20
6.9817
 30
0.0
 10
23.6318
 20
6.9578
 30
0.0
 10
23.7612
 20
6.917
 30
0.0
 10
23.8718
 20
6.8601
 30
0.0
 10
23.8718
 20
6.8601
 30
0.0
 10
23.983
 20
6.8026
 30
0.0
 10
24.0761
 20
6.7321
 30
0.0
 10
24.1518
 20
6.648
 30
0.0
 10
24.1518
 20
6.648
 30
0.0
 10
24.2216
 20
6.5756
 30
0.0
 10
24.276
 20
6.4947
 30
0.0
 10
24.3161
 20
6.4048
 30
0.0
 10
24.3161
 20
6.4048
 30
0.0
 10
24.3562
 20
6.3149
 30
0.0
 10
24.3827
 20
6.2198
 30
0.0
 10
24.3963
 20
6.1202
 30
0.0
 10
24.3963
 20
6.1202
 30
0.0
 10
24.4021
 20
6.0627
 30
0.0
 10
24.4066
 20
6.0109
 30
0.0
 10
24.4092
 20
5.9663
 30
0.0
 10
24.4092
 20
5.9663
 30
0.0
 10
24.4118
 20
5.9217
 30
0.0
 10
24.4118
 20
5.8809
 30
0.0
 10
24.4079
 20
5.8447
 30
0.0
 10
24.4079
 20
5.8447
 30
0.0
 10
24.4079
 20
5.8447
 30
0.0
 10
24.6873
 20
5.8447
 30
0.0
 10
24.6873
 20
5.8447
 30
0.0
  0
SPLINE
  5
78
330
1F
100
AcDbEntity
  8
AXIS
 62
   250
100
AcDbSpline
210
0.0
220
0.0
230
1.0
 70
    11
 71
     3
 72
    64
 73
    60
 74
     0
 42
0.0000000001
 43
0.0000000001
 40
0.0
 40
0.0
 40
0.0
 40
0.0
 40
0.0625
 40
0.0625
 40
0.0625
 40
0.0625
 40
0.125
 40
0.125
 40
0.125
 40
0.125
 40
0.1875
 40
0.1875
 40
0.1875
 40
0.1875
 40
0.25
 40
0.25
 40
0.25
 40
0.25
 40
0.3125
 40
0.3125
 40
0.3125
 40
0.3125
 40
0.375
 40
0.375
 40
0.375
 40
0.375
 40
0.4375
 40
0.4375
 40
0.4375
 40
0.4375
 40
0.5
 40
0.5
 40
0.5
 40
0.5
 40
0.5625
 40
0.5625
 40
0.5625
 40
0.5625
 40
0.625
 40
0.625
 40
0.625
 40
0.625
 40
0.6875
 40
0.6875
 40
0.6875
 40
0.6875
 40
0.75
 40
0.75
 40
0.75
 40
0.75
 40
0.8125
 40
0.8125
 40
0.8125
 40
0.8125
 40
0.875
 40
0.875
 40
0.875
 40
0.875
 40
1.0
 40
1.0
 40
1.0
 40
1.0
 10
22.3435
 20
6.4617
 30
0.0
 10
22.3441
 20
6.5516
 30
0.0
 10
22.3635
 20
6.6299
 30
0.0
 10
22.4017
 20
6.6952
 30
0.0
 10
22.4017
 20
6.6952
 30
0.0
 10
22.4398
 20
6.7605
 30
0.0
 10
22.4935
 20
6.8149
 30
0.0
 10
22.5621
 20
6.8569
 30
0.0
 10
22.5621
 20
6.8569
 30
0.0
 10
22.6306
 20
6.8996
 30
0.0
 10
22.7115
 20
6.9306
 30
0.0
 10
22.8033
 20
6.9513
 30
0.0
 10
22.8033
 20
6.9513
 30
0.0
 10
22.8958
 20
6.972
 30
0.0
 10
22.9961
 20
6.9817
 30
0.0
 10
23.1041
 20
6.9817
 30
0.0
 10
23.1041
 20
6.9817
 30
0.0
 10
23.1325
 20
6.9817
 30
0.0
 10
23.1571
 20
6.9791
 30
0.0
 10
23.1765
 20
6.9733
 30
0.0
 10
23.1765
 20
6.9733
 30
0.0
 10
23.1965
 20
6.9681
 30
0.0
 10
23.2153
 20
6.9604
 30
0.0
 10
23.2321
 20
6.9507
 30
0.0
 10
23.2321
 20
6.9507
 30
0.0
 10
23.2832
 20
6.9209
 30
0.0
 10
23.3285
 20
6.8815
 30
0.0
 10
23.3679
 20
6.833
 30
0.0
 10
23.3679
 20
6.833
 30
0.0
 10
23.4074
 20
6.7851
 30
0.0
 10
23.4384
 20
6.7288
 30
0.0
 10
23.4611
 20
6.6648
 30
0.0
 10
23.4611
 20
6.6648
 30
0.0
 10
23.4837
 20
6.6008
 30
0.0
 10
23.4953
 20
6.5303
 30
0.0
 10
23.496
 20
6.454
 30
0.0
 10
23.496
 20
6.454
 30
0.0
 10
23.4953
 20
6.355
 30
0.0
 10
23.4721
 20
6.2696
 30
0.0
 10
23.4268
 20
6.1972
 30
0.0
 10
23.4268
 20
6.1972
 30
0.0
 10
23.3815
 20
6.1248
 30
0.0
 10
23.3194
 20
6.0685
 30
0.0
 10
23.2392
 20
6.0291
 30
0.0
 10
23.2392
 20
6.0291
 30
0.0
 10
23.159
 20
5.9896
 30
0.0
 10
23.0659
 20
5.9696
 30
0.0
 10
22.9605
 20
5.9689
 30
0.0
 10
22.9605
 20
5.9689
 30
0.0
 10
22.8389
 20
5.9696
 30
0.0
 10
22.7322
 20
5.9909
 30
0.0
 10
22.6403
 20
6.0329
 30
0.0
 10
22.6403
 20
6.0329
 30
0.0
 10
22.5479
 20
6.075
 30
0.0
 10
22.4754
 20
6.1325
 30
0.0
 10
22.423
 20
6.2063
 30
0.0
 10
22.423
 20
6.2063
 30
0.0
 10
22.3706
 20
6.28
 30
0.0
 10
22.3441
 20
6.3654
 30
0.0
 10
22.3435
 20
6.4617
 30
0.0
  0
SPLINE
  5
79
330
1F
100
AcDbEntity
  8
AXIS
 62
   250
100
AcDbSpline
210
0.0
220
0.0
230
1.0
 70
    11
 71
     3
 72
   124
 73
   120
 74
     0
 42
0.0000000001
 43
0.0000000001
 40
0.0
 40
0.0
 40
0.0
 40
0.0
 40
0.032258064516129
 40
0.032258064516129
 40
0.032258064516129
 40
0.032258064516129
 40
0.0645161290322581
 40
0.0645161290322581
 40
0.0645161290322581
 40
0.0645161290322581
 40
0.0967741935483871
 40
0.0967741935483871
 40
0.0967741935483871
 40
0.0967741935483871
 40
0.1290322580645161
 40
0.1290322580645161
 40
0.1290322580645161
 40
0.1290322580645161
 40
0.1612903225806452
 40
0.1612903225806452
 40
0.1612903225806452
 40
0.1612903225806452
 40
0.1935483870967742
 40
0.1935483870967742
 40
0.1935483870967742
 40
0.1935483870967742
 40
0.2258064516129032
 40
0.2258064516129032
 40
0.2258064516129032
 40
0.2258064516129032
 40
0.2580645161290323
 40
0.2580645161290323
 40
0.2580645161290323
 40
0.2580645161290323
 40
0.2903225806451613
 40
0.2903225806451613
 40
0.2903225806451613
 40
0.2903225806451613
 40
0.3225806451612903
 40
0.3225806451612903
 40
0.3225806451612903
 40
0.3225806451612903
 40
0.3548387096774194
 40
0.3548387096774194
 40
0.3548387096774194
 40
0.3548387096774194
 40
0.3870967741935484
 40
0.3870967741935484
 40
0.3870967741935484
 40
0.3870967741935484
 40
0.4193548387096774
 40
0.4193548387096774
 40
0.4193548387096774
 40
0.4193548387096774
 40
0.4516129032258064
 40
0.4516129032258064
 40
0.4516129032258064
 40
0.4516129032258064
 40
0.4838709677419355
 40
0.4838709677419355
 40
0.4838709677419355
 40
0.4838709677419355
 40
0.5161290322580645
 40
0.5161290322580645
 40
0.5161290322580645
 40
0.5161290322580645
 40
0.5483870967741935
 40
0.5483870967741935
 40
0.5483870967741935
 40
0.5483870967741935
 40
0.5806451612903226
 40
0.5806451612903226
 40
0.5806451612903226
 40
0.5806451612903226
 40
0.6129032258064516
 40
0.6129032258064516
 40
0.6129032258064516
 40
0.6129032258064516
 40
0.6451612903225806
 40
0.6451612903225806
 40
0.6451612903225806
 40
0.6451612903225806
 40
0.6774193548387096
 40
0.6774193548387096
 40
0.6774193548387096
 40
0.6774193548387096
 40
0.7096774193548387
 40
0.7096774193548387
 40
0.7096774193548387
 40
0.7096774193548387
 40
0.7419354838709677
 40
0.7419354838709677
 40
0.7419354838709677
 40
0.7419354838709677
 40
0.7741935483870968
 40
0.7741935483870968
 40
0.7741935483870968
 40
0.7741935483870968
 40
0.8064516129032258
 40
0.8064516129032258
 40
0.8064516129032258
 40
0.8064516129032258
 40
0.8387096774193549
 40
0.8387096774193549
 40
0.8387096774193549
 40
0.8387096774193549
 40
0.8709677419354839
 40
0.8709677419354839
 40
0.8709677419354839
 40
0.8709677419354839
 40
0.9032258064516129
 40
0.9032258064516129
 40
0.9032258064516129
 40
0.9032258064516129
 40
0.9354838709677419
 40
0.9354838709677419
 40
0.9354838709677419
 40
0.9354838709677419
 40
1.0
 40
1.0
 40
1.0
 40
1.0
 10
-23.5142
 20
-2.8838
 30
0.0
 10
-23.5142
 20
-2.8838
 30
0.0
 10
-23.7975
 20
-2.8838
 30
0.0
 10
-23.7975
 20
-2.8838
 30
0.0
 10
-23.7975
 20
-2.8838
 30
0.0
 10
-23.7975
 20
-2.8838
 30
0.0
 10
-23.7975
 20
-4.013
 30
0.0
 10
-23.7975
 20
-4.013
 30
0.0
 10
-23.7975
 20
-4.013
 30
0.0
 10
-23.7975
 20
-4.013
 30
0.0
 10
-23.8052
 20
-4.013
 30
0.0
 10
-23.8052
 20
-4.013
 30
0.0
 10
-23.8052
 20
-4.013
 30
0.0
 10
-23.8052
 20
-4.013
 30
0.0
 10
-23.9915
 20
-3.8151
 30
0.0
 10
-23.9915
 20
-3.8151
 30
0.0
 10
-23.9915
 20
-3.8151
 30
0.0
 10
-24.1189
 20
-3.6819
 30
0.0
 10
-24.2399
 20
-3.5616
 30
0.0
 10
-24.3537
 20
-3.4549
 30
0.0
 10
-24.3537
 20
-3.4549
 30
0.0
 10
-24.4675
 20
-3.3481
 30
0.0
 10
-24.5788
 20
-3.2569
 30
0.0
 10
-24.6861
 20
-3.1813
 30
0.0
 10
-24.6861
 20
-3.1813
 30
0.0
 10
-24.7935
 20
-3.105
 30
0.0
 10
-24.9015
 20
-3.0474
 30
0.0
 10
-25.0101
 20
-3.0067
 30
0.0
 10
-25.0101
 20
-3.0067
 30
0.0
 10
-25.1181
 20
-2.9666
 30
0.0
 10
-25.23
 20
-2.9465
 30
0.0
 10
-25.3458
 20
-2.9459
 30
0.0
 10
-25.3458
 20
-2.9459
 30
0.0
 10
-25.437
 20
-2.9459
 30
0.0
 10
-25.5262
 20
-2.9601
 30
0.0
 10
-25.6129
 20
-2.9898
 30
0.0
 10
-25.6129
 20
-2.9898
 30
0.0
 10
-25.6996
 20
-3.0196
 30
0.0
 10
-25.7778
 20
-3.0662
 30
0.0
 10
-25.8477
 20
-3.1282
 30
0.0
 10
-25.8477
 20
-3.1282
 30
0.0
 10
-25.9182
 20
-3.1903
 30
0.0
 10
-25.9738
 20
-3.2705
 30
0.0
 10
-26.0152
 20
-3.3682
 30
0.0
 10
-26.0152
 20
-3.3682
 30
0.0
 10
-26.0572
 20
-3.4658
 30
0.0
 10
-26.0786
 20
-3.5823
 30
0.0
 10
-26.0792
 20
-3.7181
 30
0.0
 10
-26.0792
 20
-3.7181
 30
0.0
 10
-26.0786
 20
-3.8138
 30
0.0
 10
-26.0676
 20
-3.905
 30
0.0
 10
-26.0449
 20
-3.9917
 30
0.0
 10
-26.0449
 20
-3.9917
 30
0.0
 10
-26.0223
 20
-4.0783
 30
0.0
 10
-25.9919
 20
-4.1585
 30
0.0
 10
-25.9531
 20
-4.2322
 30
0.0
 10
-25.9531
 20
-4.2322
 30
0.0
 10
-25.9149
 20
-4.3053
 30
0.0
 10
-25.8716
 20
-4.3706
 30
0.0
 10
-25.8231
 20
-4.4282
 30
0.0
 10
-25.8231
 20
-4.4282
 30
0.0
 10
-25.8231
 20
-4.4282
 30
0.0
 10
-25.5825
 20
-4.3196
 30
0.0
 10
-25.5825
 20
-4.3196
 30
0.0
 10
-25.5825
 20
-4.3196
 30
0.0
 10
-25.6155
 20
-4.2807
 30
0.0
 10
-25.6485
 20
-4.2342
 30
0.0
 10
-25.6808
 20
-4.1799
 30
0.0
 10
-25.6808
 20
-4.1799
 30
0.0
 10
-25.7138
 20
-4.1255
 30
0.0
 10
-25.7403
 20
-4.0654
 30
0.0
 10
-25.7623
 20
-3.9988
 30
0.0
 10
-25.7623
 20
-3.9988
 30
0.0
 10
-25.7836
 20
-3.9322
 30
0.0
 10
-25.7953
 20
-3.8604
 30
0.0
 10
-25.7959
 20
-3.784
 30
0.0
 10
-25.7959
 20
-3.784
 30
0.0
 10
-25.7953
 20
-3.6903
 30
0.0
 10
-25.7817
 20
-3.6114
 30
0.0
 10
-25.7552
 20
-3.5473
 30
0.0
 10
-25.7552
 20
-3.5473
 30
0.0
 10
-25.728
 20
-3.484
 30
0.0
 10
-25.6918
 20
-3.4329
 30
0.0
 10
-25.6459
 20
-3.3947
 30
0.0
 10
-25.6459
 20
-3.3947
 30
0.0
 10
-25.5993
 20
-3.3565
 30
0.0
 10
-25.5469
 20
-3.3287
 30
0.0
 10
-25.4881
 20
-3.3119
 30
0.0
 10
-25.4881
 20
-3.3119
 30
0.0
 10
-25.4292
 20
-3.2951
 30
0.0
 10
-25.3678
 20
-3.2867
 30
0.0
 10
-25.3031
 20
-3.2873
 30
0.0
 10
-25.3031
 20
-3.2873
 30
0.0
 10
-25.2087
 20
-3.2873
 30
0.0
 10
-25.1156
 20
-3.3061
 30
0.0
 10
-25.0231
 20
-3.3436
 30
0.0
 10
-25.0231
 20
-3.3436
 30
0.0
 10
-24.9299
 20
-3.3811
 30
0.0
 10
-24.8329
 20
-3.438
 30
0.0
 10
-24.7307
 20
-3.515
 30
0.0
 10
-24.7307
 20
-3.515
 30
0.0
 10
-24.6286
 20
-3.592
 30
0.0
 10
-24.5167
 20
-3.6896
 30
0.0
 10
-24.3951
 20
-3.808
 30
0.0
 10
-24.3951
 20
-3.808
 30
0.0
 10
-24.2735
 20
-3.9257
 30
0.0
 10
-24.1364
 20
-4.0654
 30
0.0
 10
-23.9837
 20
-4.2264
 30
0.0
 10
-23.9837
 20
-4.2264
 30
0.0
 10
-23.9837
 20
-4.2264
 30
0.0
 10
-23.7237
 20
-4.4942
 30
0.0
 10
-23.7237
 20
-4.4942
 30
0.0
 10
-23.7237
 20
-4.4942
 30
0.0
 10
-23.7237
 20
-4.4942
 30
0.0
 10
-23.5142
 20
-4.4942
 30
0.0
 10
-23.5142
 20
-4.4942
 30
0.0
 10
-23.5142
 20
-4.4942
 30
0.0
 10
-23.5142
 20
-4.4942
 30
0.0
 10
-23.5142
 20
-2.8838
 30
0.0
 10
-23.5142
 20
-2.8838
 30
0.0
  0
SPLINE
  5
7A
330
1F
100
AcDbEntity
  8
AXIS
 62
   250
100
AcDbSpline
210
0.0
220
0.0
230
1.0
 70
    11
 71
     3
 72
   124
 73
   120
 74
     0
 42
0.0000000001
 43
0.0000000001
 40
0.0
 40
0.0
 40
0.0
 40
0.0
 40
0.032258064516129
 40
0.032258064516129
 40
0.032258064516129
 40
0.032258064516129
 40
0.0645161290322581
 40
0.0645161290322581
 40
0.0645161290322581
 40
0.0645161290322581
 40
0.0967741935483871
 40
0.0967741935483871
 40
0.0967741935483871
 40
0.0967741935483871
 40
0.1290322580645161
 40
0.1290322580645161
 40
0.1290322580645161
 40
0.1290322580645161
 40
0.1612903225806452
 40
0.1612903225806452
 40
0.1612903225806452
 40
0.1612903225806452
 40
0.1935483870967742
 40
0.1935483870967742
 40
0.1935483870967742
 40
0.1935483870967742
 40
0.2258064516129032
 40
0.2258064516129032
 40
0.2258064516129032
 40
0.2258064516129032
 40
0.2580645161290323
 40
0.2580645161290323
 40
0.2580645161290323
 40
0.2580645161290323
 40
0.2903225806451613
 40
0.2903225806451613
 40
0.2903225806451613
 40
0.2903225806451613
 40
0.3225806451612903
 40
0.3225806451612903
 40
0.3225806451612903
 40
0.3225806451612903
 40
0.3548387096774194
 40
0.3548387096774194
 40
0.3548387096774194
 40
0.3548387096774194
 40
0.3870967741935484
 40
0.3870967741935484
 40
0.3870967741935484
 40
0.3870967741935484
 40
0.4193548387096774
 40
0.4193548387096774
 40
0.4193548387096774
 40
0.4193548387096774
 40
0.4516129032258064
 40
0.4516129032258064
 40
0.4516129032258064
 40
0.4516129032258064
 40
0.4838709677419355
 40
0.4838709677419355
 40
0.4838709677419355
 40
0.4838709677419355
 40
0.5161290322580645
 40
0.5161290322580645
 40
0.5161290322580645
 40
0.5161290322580645
 40
0.5483870967741935
 40
0.5483870967741935
 40
0.5483870967741935
 40
0.5483870967741935
 40
0.5806451612903226
 40
0.5806451612903226
 40
0.5806451612903226
 40
0.5806451612903226
 40
0.6129032258064516
 40
0.6129032258064516
 40
0.6129032258064516
 40
0.6129032258064516
 40
0.6451612903225806
 40
0.6451612903225806
 40
0.6451612903225806
 40
0.6451612903225806
 40
0.6774193548387096
 40
0.6774193548387096
 40
0.6774193548387096
 40
0.6774193548387096
 40
0.7096774193548387
 40
0.7096774193548387
 40
0.7096774193548387
 40
0.7096774193548387
 40
0.7419354838709677
 40
0.7419354838709677
 40
0.7419354838709677
 40
0.7419354838709677
 40
0.7741935483870968
 40
0.7741935483870968
 40
0.7741935483870968
 40
0.7741935483870968
 40
0.8064516129032258
 40
0.8064516129032258
 40
0.8064516129032258
 40
0.8064516129032258
 40
0.8387096774193549
 40
0.8387096774193549
 40
0.8387096774193549
 40
0.8387096774193549
 40
0.8709677419354839
 40
0.8709677419354839
 40
0.8709677419354839
 40
0.8709677419354839
 40
0.9032258064516129
 40
0.9032258064516129
 40
0.9032258064516129
 40
0.9032258064516129
 40
0.9354838709677419
 40
0.9354838709677419
 40
0.9354838709677419
 40
0.9354838709677419
 40
1.0
 40
1.0
 40
1.0
 40
1.0
 10
-23.5142
 20
-0.8931
 30
0.0
 10
-23.5142
 20
-0.8931
 30
0.0
 10
-23.7975
 20
-0.8931
 30
0.0
 10
-23.7975
 20
-0.8931
 30
0.0
 10
-23.7975
 20
-0.8931
 30
0.0
 10
-23.7975
 20
-0.8931
 30
0.0
 10
-23.7975
 20
-2.0223
 30
0.0
 10
-23.7975
 20
-2.0223
 30
0.0
 10
-23.7975
 20
-2.0223
 30
0.0
 10
-23.7975
 20
-2.0223
 30
0.0
 10
-23.8052
 20
-2.0223
 30
0.0
 10
-23.8052
 20
-2.0223
 30
0.0
 10
-23.8052
 20
-2.0223
 30
0.0
 10
-23.8052
 20
-2.0223
 30
0.0
 10
-23.9915
 20
-1.8244
 30
0.0
 10
-23.9915
 20
-1.8244
 30
0.0
 10
-23.9915
 20
-1.8244
 30
0.0
 10
-24.1189
 20
-1.6912
 30
0.0
 10
-24.2399
 20
-1.5709
 30
0.0
 10
-24.3537
 20
-1.4642
 30
0.0
 10
-24.3537
 20
-1.4642
 30
0.0
 10
-24.4675
 20
-1.3574
 30
0.0
 10
-24.5788
 20
-1.2662
 30
0.0
 10
-24.6861
 20
-1.1906
 30
0.0
 10
-24.6861
 20
-1.1906
 30
0.0
 10
-24.7935
 20
-1.1143
 30
0.0
 10
-24.9015
 20
-1.0567
 30
0.0
 10
-25.0101
 20
-1.016
 30
0.0
 10
-25.0101
 20
-1.016
 30
0.0
 10
-25.1181
 20
-0.9759
 30
0.0
 10
-25.23
 20
-0.9558
 30
0.0
 10
-25.3458
 20
-0.9552
 30
0.0
 10
-25.3458
 20
-0.9552
 30
0.0
 10
-25.437
 20
-0.9552
 30
0.0
 10
-25.5262
 20
-0.9694
 30
0.0
 10
-25.6129
 20
-0.9991
 30
0.0
 10
-25.6129
 20
-0.9991
 30
0.0
 10
-25.6996
 20
-1.0289
 30
0.0
 10
-25.7778
 20
-1.0755
 30
0.0
 10
-25.8477
 20
-1.1375
 30
0.0
 10
-25.8477
 20
-1.1375
 30
0.0
 10
-25.9182
 20
-1.1996
 30
0.0
 10
-25.9738
 20
-1.2798
 30
0.0
 10
-26.0152
 20
-1.3775
 30
0.0
 10
-26.0152
 20
-1.3775
 30
0.0
 10
-26.0572
 20
-1.4751
 30
0.0
 10
-26.0786
 20
-1.5916
 30
0.0
 10
-26.0792
 20
-1.7274
 30
0.0
 10
-26.0792
 20
-1.7274
 30
0.0
 10
-26.0786
 20
-1.8231
 30
0.0
 10
-26.0676
 20
-1.9143
 30
0.0
 10
-26.0449
 20
-2.001
 30
0.0
 10
-26.0449
 20
-2.001
 30
0.0
 10
-26.0223
 20
-2.0876
 30
0.0
 10
-25.9919
 20
-2.1678
 30
0.0
 10
-25.9531
 20
-2.2415
 30
0.0
 10
-25.9531
 20
-2.2415
 30
0.0
 10
-25.9149
 20
-2.3146
 30
0.0
 10
-25.8716
 20
-2.3799
 30
0.0
 10
-25.8231
 20
-2.4375
 30
0.0
 10
-25.8231
 20
-2.4375
 30
0.0
 10
-25.8231
 20
-2.4375
 30
0.0
 10
-25.5825
 20
-2.3289
 30
0.0
 10
-25.5825
 20
-2.3289
 30
0.0
 10
-25.5825
 20
-2.3289
 30
0.0
 10
-25.6155
 20
-2.29
 30
0.0
 10
-25.6485
 20
-2.2435
 30
0.0
 10
-25.6808
 20
-2.1892
 30
0.0
 10
-25.6808
 20
-2.1892
 30
0.0
 10
-25.7138
 20
-2.1348
 30
0.0
 10
-25.7403
 20
-2.0747
 30
0.0
 10
-25.7623
 20
-2.0081
 30
0.0
 10
-25.7623
 20
-2.0081
 30
0.0
 10
-25.7836
 20
-1.9415
 30
0.0
 10
-25.7953
 20
-1.8697
 30
0.0
 10
-25.7959
 20
-1.7933
 30
0.0
 10
-25.7959
 20
-1.7933
 30
0.0
 10
-25.7953
 20
-1.6996
 30
0.0
 10
-25.7817
 20
-1.6207
 30
0.0
 10
-25.7552
 20
-1.5566
 30
0.0
 10
-25.7552
 20
-1.5566
 30
0.0
 10
-25.728
 20
-1.4933
 30
0.0
 10
-25.6918
 20
-1.4422
 30
0.0
 10
-25.6459
 20
-1.404
 30
0.0
 10
-25.6459
 20
-1.404
 30
0.0
 10
-25.5993
 20
-1.3658
 30
0.0
 10
-25.5469
 20
-1.338
 30
0.0
 10
-25.4881
 20
-1.3212
 30
0.0
 10
-25.4881
 20
-1.3212
 30
0.0
 10
-25.4292
 20
-1.3044
 30
0.0
 10
-25.3678
 20
-1.296
 30
0.0
 10
-25.3031
 20
-1.2966
 30
0.0
 10
-25.3031
 20
-1.2966
 30
0.0
 10
-25.2087
 20
-1.2966
 30
0.0
 10
-25.1156
 20
-1.3154
 30
0.0
 10
-25.0231
 20
-1.3529
 30
0.0
 10
-25.0231
 20
-1.3529
 30
0.0
 10
-24.9299
 20
-1.3904
 30
0.0
 10
-24.8329
 20
-1.4473
 30
0.0
 10
-24.7307
 20
-1.5243
 30
0.0
 10
-24.7307
 20
-1.5243
 30
0.0
 10
-24.6286
 20
-1.6013
 30
0.0
 10
-24.5167
 20
-1.6989
 30
0.0
 10
-24.3951
 20
-1.8173
 30
0.0
 10
-24.3951
 20
-1.8173
 30
0.0
 10
-24.2735
 20
-1.935
 30
0.0
 10
-24.1364
 20
-2.0747
 30
0.0
 10
-23.9837
 20
-2.2357
 30
0.0
 10
-23.9837
 20
-2.2357
 30
0.0
 10
-23.9837
 20
-2.2357
 30
0.0
 10
-23.7237
 20
-2.5035
 30
0.0
 10
-23.7237
 20
-2.5035
 30
0.0
 10
-23.7237
 20
-2.5035
 30
0.0
 10
-23.7237
 20
-2.5035
 30
0.0
 10
-23.5142
 20
-2.5035
 30
0.0
 10
-23.5142
 20
-2.5035
 30
0.0
 10
-23.5142
 20
-2.5035
 30
0.0
 10
-23.5142
 20
-2.5035
 30
0.0
 10
-23.5142
 20
-0.8931
 30
0.0
 10
-23.5142
 20
-0.8931
 30
0.0
  0
SPLINE
  5
7B
330
1F
100
AcDbEntity
  8
AXIS
 62
   250
100
AcDbSpline
210
0.0
220
0.0
230
1.0
 70
    11
 71
     3
 72
    92
 73
    88
 74
     0
 42
0.0000000001
 43
0.0000000001
 40
0.0
 40
0.0
 40
0.0
 40
0.0
 40
0.0434782608695652
 40
0.0434782608695652
 40
0.0434782608695652
 40
0.0434782608695652
 40
0.0869565217391304
 40
0.0869565217391304
 40
0.0869565217391304
 40
0.0869565217391304
 40
0.1304347826086956
 40
0.1304347826086956
 40
0.1304347826086956
 40
0.1304347826086956
 40
0.1739130434782609
 40
0.1739130434782609
 40
0.1739130434782609
 40
0.1739130434782609
 40
0.2173913043478261
 40
0.2173913043478261
 40
0.2173913043478261
 40
0.2173913043478261
 40
0.2608695652173913
 40
0.2608695652173913
 40
0.2608695652173913
 40
0.2608695652173913
 40
0.3043478260869565
 40
0.3043478260869565
 40
0.3043478260869565
 40
0.3043478260869565
 40
0.3478260869565217
 40
0.3478260869565217
 40
0.3478260869565217
 40
0.3478260869565217
 40
0.391304347826087
 40
0.391304347826087
 40
0.391304347826087
 40
0.391304347826087
 40
0.4347826086956522
 40
0.4347826086956522
 40
0.4347826086956522
 40
0.4347826086956522
 40
0.4782608695652174
 40
0.4782608695652174
 40
0.4782608695652174
 40
0.4782608695652174
 40
0.5217391304347826
 40
0.5217391304347826
 40
0.5217391304347826
 40
0.5217391304347826
 40
0.5652173913043478
 40
0.5652173913043478
 40
0.5652173913043478
 40
0.5652173913043478
 40
0.6086956521739131
 40
0.6086956521739131
 40
0.6086956521739131
 40
0.6086956521739131
 40
0.6521739130434783
 40
0.6521739130434783
 40
0.6521739130434783
 40
0.6521739130434783
 40
0.6956521739130435
 40
0.6956521739130435
 40
0.6956521739130435
 40
0.6956521739130435
 40
0.7391304347826086
 40
0.7391304347826086
 40
0.7391304347826086
 40
0.7391304347826086
 40
0.782608695652174
 40
0.782608695652174
 40
0.782608695652174
 40
0.782608695652174
 40
0.8260869565217391
 40
0.8260869565217391
 40
0.8260869565217391
 40
0.8260869565217391
 40
0.8695652173913043
 40
0.8695652173913043
 40
0.8695652173913043
 40
0.8695652173913043
 40
0.9130434782608695
 40
0.9130434782608695
 40
0.9130434782608695
 40
0.9130434782608695
 40
1.0
 40
1.0
 40
1.0
 40
1.0
 10
-25.3924
 20
0.1974
 30
0.0
 10
-25.3924
 20
0.1974
 30
0.0
 10
-24.4727
 20
0.8338
 30
0.0
 10
-24.4727
 20
0.8338
 30
0.0
 10
-24.4727
 20
0.8338
 30
0.0
 10
-24.4727
 20
0.8338
 30
0.0
 10
-23.5142
 20
0.1663
 30
0.0
 10
-23.5142
 20
0.1663
 30
0.0
 10
-23.5142
 20
0.1663
 30
0.0
 10
-23.5142
 20
0.1663
 30
0.0
 10
-23.5142
 20
0.5428
 30
0.0
 10
-23.5142
 20
0.5428
 30
0.0
 10
-23.5142
 20
0.5428
 30
0.0
 10
-23.5142
 20
0.5428
 30
0.0
 10
-23.9372
 20
0.8144
 30
0.0
 10
-23.9372
 20
0.8144
 30
0.0
 10
-23.9372
 20
0.8144
 30
0.0
 10
-23.9928
 20
0.8513
 30
0.0
 10
-24.0471
 20
0.8855
 30
0.0
 10
-24.1002
 20
0.9179
 30
0.0
 10
-24.1002
 20
0.9179
 30
0.0
 10
-24.1532
 20
0.9502
 30
0.0
 10
-24.2075
 20
0.9812
 30
0.0
 10
-24.2631
 20
1.0123
 30
0.0
 10
-24.2631
 20
1.0123
 30
0.0
 10
-24.2631
 20
1.0123
 30
0.0
 10
-24.2631
 20
1.0201
 30
0.0
 10
-24.2631
 20
1.0201
 30
0.0
 10
-24.2631
 20
1.0201
 30
0.0
 10
-24.2069
 20
1.053
 30
0.0
 10
-24.1525
 20
1.0854
 30
0.0
 10
-24.0989
 20
1.1184
 30
0.0
 10
-24.0989
 20
1.1184
 30
0.0
 10
-24.0452
 20
1.1507
 30
0.0
 10
-23.9915
 20
1.1856
 30
0.0
 10
-23.9372
 20
1.2218
 30
0.0
 10
-23.9372
 20
1.2218
 30
0.0
 10
-23.9372
 20
1.2218
 30
0.0
 10
-23.5142
 20
1.5012
 30
0.0
 10
-23.5142
 20
1.5012
 30
0.0
 10
-23.5142
 20
1.5012
 30
0.0
 10
-23.5142
 20
1.5012
 30
0.0
 10
-23.5142
 20
1.8854
 30
0.0
 10
-23.5142
 20
1.8854
 30
0.0
 10
-23.5142
 20
1.8854
 30
0.0
 10
-23.5142
 20
1.8854
 30
0.0
 10
-24.4843
 20
1.2296
 30
0.0
 10
-24.4843
 20
1.2296
 30
0.0
 10
-24.4843
 20
1.2296
 30
0.0
 10
-24.4843
 20
1.2296
 30
0.0
 10
-25.3924
 20
1.8699
 30
0.0
 10
-25.3924
 20
1.8699
 30
0.0
 10
-25.3924
 20
1.8699
 30
0.0
 10
-25.3924
 20
1.8699
 30
0.0
 10
-25.3924
 20
1.4974
 30
0.0
 10
-25.3924
 20
1.4974
 30
0.0
 10
-25.3924
 20
1.4974
 30
0.0
 10
-25.3924
 20
1.4974
 30
0.0
 10
-24.9927
 20
1.2374
 30
0.0
 10
-24.9927
 20
1.2374
 30
0.0
 10
-24.9927
 20
1.2374
 30
0.0
 10
-24.9429
 20
1.2044
 30
0.0
 10
-24.8924
 20
1.172
 30
0.0
 10
-24.8426
 20
1.141
 30
0.0
 10
-24.8426
 20
1.141
 30
0.0
 10
-24.7922
 20
1.1093
 30
0.0
 10
-24.7398
 20
1.0783
 30
0.0
 10
-24.6861
 20
1.0472
 30
0.0
 10
-24.6861
 20
1.0472
 30
0.0
 10
-24.6861
 20
1.0472
 30
0.0
 10
-24.6861
 20
1.0395
 30
0.0
 10
-24.6861
 20
1.0395
 30
0.0
 10
-24.6861
 20
1.0395
 30
0.0
 10
-24.7379
 20
1.0091
 30
0.0
 10
-24.7883
 20
0.978
 30
0.0
 10
-24.8375
 20
0.947
 30
0.0
 10
-24.8375
 20
0.947
 30
0.0
 10
-24.8866
 20
0.9159
 30
0.0
 10
-24.9371
 20
0.8816
 30
0.0
 10
-24.9888
 20
0.8454
 30
0.0
 10
-24.9888
 20
0.8454
 30
0.0
 10
-24.9888
 20
0.8454
 30
0.0
 10
-25.3924
 20
0.5777
 30
0.0
 10
-25.3924
 20
0.5777
 30
0.0
 10
-25.3924
 20
0.5777
 30
0.0
 10
-25.3924
 20
0.5777
 30
0.0
 10
-25.3924
 20
0.1974
 30
0.0
 10
-25.3924
 20
0.1974
 30
0.0
  0
SPLINE
  5
7C
330
1F
100
AcDbEntity
  8
AXIS
 62
   250
100
AcDbSpline
210
0.0
220
0.0
230
1.0
 70
    11
 71
     3
 72
   124
 73
   120
 74
     0
 42
0.0000000001
 43
0.0000000001
 40
0.0
 40
0.0
 40
0.0
 40
0.0
 40
0.032258064516129
 40
0.032258064516129
 40
0.032258064516129
 40
0.032258064516129
 40
0.0645161290322581
 40
0.0645161290322581
 40
0.0645161290322581
 40
0.0645161290322581
 40
0.0967741935483871
 40
0.0967741935483871
 40
0.0967741935483871
 40
0.0967741935483871
 40
0.1290322580645161
 40
0.1290322580645161
 40
0.1290322580645161
 40
0.1290322580645161
 40
0.1612903225806452
 40
0.1612903225806452
 40
0.1612903225806452
 40
0.1612903225806452
 40
0.1935483870967742
 40
0.1935483870967742
 40
0.1935483870967742
 40
0.1935483870967742
 40
0.2258064516129032
 40
0.2258064516129032
 40
0.2258064516129032
 40
0.2258064516129032
 40
0.2580645161290323
 40
0.2580645161290323
 40
0.2580645161290323
 40
0.2580645161290323
 40
0.2903225806451613
 40
0.2903225806451613
 40
0.2903225806451613
 40
0.2903225806451613
 40
0.3225806451612903
 40
0.3225806451612903
 40
0.3225806451612903
 40
0.3225806451612903
 40
0.3548387096774194
 40
0.3548387096774194
 40
0.3548387096774194
 40
0.3548387096774194
 40
0.3870967741935484
 40
0.3870967741935484
 40
0.3870967741935484
 40
0.3870967741935484
 40
0.4193548387096774
 40
0.4193548387096774
 40
0.4193548387096774
 40
0.4193548387096774
 40
0.4516129032258064
 40
0.4516129032258064
 40
0.4516129032258064
 40
0.4516129032258064
 40
0.4838709677419355
 40
0.4838709677419355
 40
0.4838709677419355
 40
0.4838709677419355
 40
0.5161290322580645
 40
0.5161290322580645
 40
0.5161290322580645
 40
0.5161290322580645
 40
0.5483870967741935
 40
0.5483870967741935
 40
0.5483870967741935
 40
0.5483870967741935
 40
0.5806451612903226
 40
0.5806451612903226
 40
0.5806451612903226
 40
0.5806451612903226
 40
0.6129032258064516
 40
0.6129032258064516
 40
0.6129032258064516
 40
0.6129032258064516
 40
0.6451612903225806
 40
0.6451612903225806
 40
0.6451612903225806
 40
0.6451612903225806
 40
0.6774193548387096
 40
0.6774193548387096
 40
0.6774193548387096
 40
0.6774193548387096
 40
0.7096774193548387
 40
0.7096774193548387
 40
0.7096774193548387
 40
0.7096774193548387
 40
0.7419354838709677
 40
0.7419354838709677
 40
0.7419354838709677
 40
0.7419354838709677
 40
0.7741935483870968
 40
0.7741935483870968
 40
0.7741935483870968
 40
0.7741935483870968
 40
0.8064516129032258
 40
0.8064516129032258
 40
0.8064516129032258
 40
0.8064516129032258
 40
0.8387096774193549
 40
0.8387096774193549
 40
0.8387096774193549
 40
0.8387096774193549
 40
0.8709677419354839
 40
0.8709677419354839
 40
0.8709677419354839
 40
0.8709677419354839
 40
0.9032258064516129
 40
0.9032258064516129
 40
0.9032258064516129
 40
0.9032258064516129
 40
0.9354838709677419
 40
0.9354838709677419
 40
0.9354838709677419
 40
0.9354838709677419
 40
1.0
 40
1.0
 40
1.0
 40
1.0
 10
-23.5142
 20
4.5397
 30
0.0
 10
-23.5142
 20
4.5397
 30
0.0
 10
-23.7975
 20
4.5397
 30
0.0
 10
-23.7975
 20
4.5397
 30
0.0
 10
-23.7975
 20
4.5397
 30
0.0
 10
-23.7975
 20
4.5397
 30
0.0
 10
-23.7975
 20
3.4105
 30
0.0
 10
-23.7975
 20
3.4105
 30
0.0
 10
-23.7975
 20
3.4105
 30
0.0
 10
-23.7975
 20
3.4105
 30
0.0
 10
-23.8052
 20
3.4105
 30
0.0
 10
-23.8052
 20
3.4105
 30
0.0
 10
-23.8052
 20
3.4105
 30
0.0
 10
-23.8052
 20
3.4105
 30
0.0
 10
-23.9915
 20
3.6084
 30
0.0
 10
-23.9915
 20
3.6084
 30
0.0
 10
-23.9915
 20
3.6084
 30
0.0
 10
-24.1189
 20
3.7416
 30
0.0
 10
-24.2399
 20
3.8619
 30
0.0
 10
-24.3537
 20
3.9686
 30
0.0
 10
-24.3537
 20
3.9686
 30
0.0
 10
-24.4675
 20
4.0754
 30
0.0
 10
-24.5788
 20
4.1666
 30
0.0
 10
-24.6861
 20
4.2422
 30
0.0
 10
-24.6861
 20
4.2422
 30
0.0
 10
-24.7935
 20
4.3185
 30
0.0
 10
-24.9015
 20
4.3761
 30
0.0
 10
-25.0101
 20
4.4168
 30
0.0
 10
-25.0101
 20
4.4168
 30
0.0
 10
-25.1181
 20
4.4569
 30
0.0
 10
-25.23
 20
4.477
 30
0.0
 10
-25.3458
 20
4.4776
 30
0.0
 10
-25.3458
 20
4.4776
 30
0.0
 10
-25.437
 20
4.4776
 30
0.0
 10
-25.5262
 20
4.4634
 30
0.0
 10
-25.6129
 20
4.4337
 30
0.0
 10
-25.6129
 20
4.4337
 30
0.0
 10
-25.6996
 20
4.4039
 30
0.0
 10
-25.7778
 20
4.3573
 30
0.0
 10
-25.8477
 20
4.2953
 30
0.0
 10
-25.8477
 20
4.2953
 30
0.0
 10
-25.9182
 20
4.2332
 30
0.0
 10
-25.9738
 20
4.153
 30
0.0
 10
-26.0152
 20
4.0553
 30
0.0
 10
-26.0152
 20
4.0553
 30
0.0
 10
-26.0572
 20
3.9577
 30
0.0
 10
-26.0786
 20
3.8412
 30
0.0
 10
-26.0792
 20
3.7054
 30
0.0
 10
-26.0792
 20
3.7054
 30
0.0
 10
-26.0786
 20
3.6097
 30
0.0
 10
-26.0676
 20
3.5185
 30
0.0
 10
-26.0449
 20
3.4318
 30
0.0
 10
-26.0449
 20
3.4318
 30
0.0
 10
-26.0223
 20
3.3452
 30
0.0
 10
-25.9919
 20
3.265
 30
0.0
 10
-25.9531
 20
3.1913
 30
0.0
 10
-25.9531
 20
3.1913
 30
0.0
 10
-25.9149
 20
3.1182
 30
0.0
 10
-25.8716
 20
3.0529
 30
0.0
 10
-25.8231
 20
2.9953
 30
0.0
 10
-25.8231
 20
2.9953
 30
0.0
 10
-25.8231
 20
2.9953
 30
0.0
 10
-25.5825
 20
3.1039
 30
0.0
 10
-25.5825
 20
3.1039
 30
0.0
 10
-25.5825
 20
3.1039
 30
0.0
 10
-25.6155
 20
3.1428
 30
0.0
 10
-25.6485
 20
3.1893
 30
0.0
 10
-25.6808
 20
3.2436
 30
0.0
 10
-25.6808
 20
3.2436
 30
0.0
 10
-25.7138
 20
3.298
 30
0.0
 10
-25.7403
 20
3.3581
 30
0.0
 10
-25.7623
 20
3.4247
 30
0.0
 10
-25.7623
 20
3.4247
 30
0.0
 10
-25.7836
 20
3.4913
 30
0.0
 10
-25.7953
 20
3.5631
 30
0.0
 10
-25.7959
 20
3.6395
 30
0.0
 10
-25.7959
 20
3.6395
 30
0.0
 10
-25.7953
 20
3.7332
 30
0.0
 10
-25.7817
 20
3.8121
 30
0.0
 10
-25.7552
 20
3.8762
 30
0.0
 10
-25.7552
 20
3.8762
 30
0.0
 10
-25.728
 20
3.9395
 30
0.0
 10
-25.6918
 20
3.9906
 30
0.0
 10
-25.6459
 20
4.0288
 30
0.0
 10
-25.6459
 20
4.0288
 30
0.0
 10
-25.5993
 20
4.067
 30
0.0
 10
-25.5469
 20
4.0948
 30
0.0
 10
-25.4881
 20
4.1116
 30
0.0
 10
-25.4881
 20
4.1116
 30
0.0
 10
-25.4292
 20
4.1284
 30
0.0
 10
-25.3678
 20
4.1368
 30
0.0
 10
-25.3031
 20
4.1362
 30
0.0
 10
-25.3031
 20
4.1362
 30
0.0
 10
-25.2087
 20
4.1362
 30
0.0
 10
-25.1156
 20
4.1174
 30
0.0
 10
-25.0231
 20
4.0799
 30
0.0
 10
-25.0231
 20
4.0799
 30
0.0
 10
-24.9299
 20
4.0424
 30
0.0
 10
-24.8329
 20
3.9855
 30
0.0
 10
-24.7307
 20
3.9085
 30
0.0
 10
-24.7307
 20
3.9085
 30
0.0
 10
-24.6286
 20
3.8315
 30
0.0
 10
-24.5167
 20
3.7339
 30
0.0
 10
-24.3951
 20
3.6155
 30
0.0
 10
-24.3951
 20
3.6155
 30
0.0
 10
-24.2735
 20
3.4978
 30
0.0
 10
-24.1364
 20
3.3581
 30
0.0
 10
-23.9837
 20
3.1971
 30
0.0
 10
-23.9837
 20
3.1971
 30
0.0
 10
-23.9837
 20
3.1971
 30
0.0
 10
-23.7237
 20
2.9293
 30
0.0
 10
-23.7237
 20
2.9293
 30
0.0
 10
-23.7237
 20
2.9293
 30
0.0
 10
-23.7237
 20
2.9293
 30
0.0
 10
-23.5142
 20
2.9293
 30
0.0
 10
-23.5142
 20
2.9293
 30
0.0
 10
-23.5142
 20
2.9293
 30
0.0
 10
-23.5142
 20
2.9293
 30
0.0
 10
-23.5142
 20
4.5397
 30
0.0
 10
-23.5142
 20
4.5397
 30
0.0
  0
SPLINE
  5
7D
330
1F
100
AcDbEntity
  8
AXIS
 62
   250
100
AcDbSpline
210
0.0
220
0.0
230
1.0
 70
    11
 71
     3
 72
   124
 73
   120
 74
     0
 42
0.0000000001
 43
0.0000000001
 40
0.0
 40
0.0
 40
0.0
 40
0.0
 40
0.032258064516129
 40
0.032258064516129
 40
0.032258064516129
 40
0.032258064516129
 40
0.0645161290322581
 40
0.0645161290322581
 40
0.0645161290322581
 40
0.0645161290322581
 40
0.0967741935483871
 40
0.0967741935483871
 40
0.0967741935483871
 40
0.0967741935483871
 40
0.1290322580645161
 40
0.1290322580645161
 40
0.1290322580645161
 40
0.1290322580645161
 40
0.1612903225806452
 40
0.1612903225806452
 40
0.1612903225806452
 40
0.1612903225806452
 40
0.1935483870967742
 40
0.1935483870967742
 40
0.1935483870967742
 40
0.1935483870967742
 40
0.2258064516129032
 40
0.2258064516129032
 40
0.2258064516129032
 40
0.2258064516129032
 40
0.2580645161290323
 40
0.2580645161290323
 40
0.2580645161290323
 40
0.2580645161290323
 40
0.2903225806451613
 40
0.2903225806451613
 40
0.2903225806451613
 40
0.2903225806451613
 40
0.3225806451612903
 40
0.3225806451612903
 40
0.3225806451612903
 40
0.3225806451612903
 40
0.3548387096774194
 40
0.3548387096774194
 40
0.3548387096774194
 40
0.3548387096774194
 40
0.3870967741935484
 40
0.3870967741935484
 40
0.3870967741935484
 40
0.3870967741935484
 40
0.4193548387096774
 40
0.4193548387096774
 40
0.4193548387096774
 40
0.4193548387096774
 40
0.4516129032258064
 40
0.4516129032258064
 40
0.4516129032258064
 40
0.4516129032258064
 40
0.4838709677419355
 40
0.4838709677419355
 40
0.4838709677419355
 40
0.4838709677419355
 40
0.5161290322580645
 40
0.5161290322580645
 40
0.5161290322580645
 40
0.5161290322580645
 40
0.5483870967741935
 40
0.5483870967741935
 40
0.5483870967741935
 40
0.5483870967741935
 40
0.5806451612903226
 40
0.5806451612903226
 40
0.5806451612903226
 40
0.5806451612903226
 40
0.6129032258064516
 40
0.6129032258064516
 40
0.6129032258064516
 40
0.6129032258064516
 40
0.6451612903225806
 40
0.6451612903225806
 40
0.6451612903225806
 40
0.6451612903225806
 40
0.6774193548387096
 40
0.6774193548387096
 40
0.6774193548387096
 40
0.6774193548387096
 40
0.7096774193548387
 40
0.7096774193548387
 40
0.7096774193548387
 40
0.7096774193548387
 40
0.7419354838709677
 40
0.7419354838709677
 40
0.7419354838709677
 40
0.7419354838709677
 40
0.7741935483870968
 40
0.7741935483870968
 40
0.7741935483870968
 40
0.7741935483870968
 40
0.8064516129032258
 40
0.8064516129032258
 40
0.8064516129032258
 40
0.8064516129032258
 40
0.8387096774193549
 40
0.8387096774193549
 40
0.8387096774193549
 40
0.8387096774193549
 40
0.8709677419354839
 40
0.8709677419354839
 40
0.8709677419354839
 40
0.8709677419354839
 40
0.9032258064516129
 40
0.9032258064516129
 40
0.9032258064516129
 40
0.9032258064516129
 40
0.9354838709677419
 40
0.9354838709677419
 40
0.9354838709677419
 40
0.9354838709677419
 40
1.0
 40
1.0
 40
1.0
 40
1.0
 10
-23.5142
 20
6.5304
 30
0.0
 10
-23.5142
 20
6.5304
 30
0.0
 10
-23.7975
 20
6.5304
 30
0.0
 10
-23.7975
 20
6.5304
 30
0.0
 10
-23.7975
 20
6.5304
 30
0.0
 10
-23.7975
 20
6.5304
 30
0.0
 10
-23.7975
 20
5.4012
 30
0.0
 10
-23.7975
 20
5.4012
 30
0.0
 10
-23.7975
 20
5.4012
 30
0.0
 10
-23.7975
 20
5.4012
 30
0.0
 10
-23.8052
 20
5.4012
 30
0.0
 10
-23.8052
 20
5.4012
 30
0.0
 10
-23.8052
 20
5.4012
 30
0.0
 10
-23.8052
 20
5.4012
 30
0.0
 10
-23.9915
 20
5.5991
 30
0.0
 10
-23.9915
 20
5.5991
 30
0.0
 10
-23.9915
 20
5.5991
 30
0.0
 10
-24.1189
 20
5.7323
 30
0.0
 10
-24.2399
 20
5.8526
 30
0.0
 10
-24.3537
 20
5.9593
 30
0.0
 10
-24.3537
 20
5.9593
 30
0.0
 10
-24.4675
 20
6.0661
 30
0.0
 10
-24.5788
 20
6.1573
 30
0.0
 10
-24.6861
 20
6.2329
 30
0.0
 10
-24.6861
 20
6.2329
 30
0.0
 10
-24.7935
 20
6.3092
 30
0.0
 10
-24.9015
 20
6.3668
 30
0.0
 10
-25.0101
 20
6.4075
 30
0.0
 10
-25.0101
 20
6.4075
 30
0.0
 10
-25.1181
 20
6.4476
 30
0.0
 10
-25.23
 20
6.4677
 30
0.0
 10
-25.3458
 20
6.4683
 30
0.0
 10
-25.3458
 20
6.4683
 30
0.0
 10
-25.437
 20
6.4683
 30
0.0
 10
-25.5262
 20
6.4541
 30
0.0
 10
-25.6129
 20
6.4244
 30
0.0
 10
-25.6129
 20
6.4244
 30
0.0
 10
-25.6996
 20
6.3946
 30
0.0
 10
-25.7778
 20
6.348
 30
0.0
 10
-25.8477
 20
6.286
 30
0.0
 10
-25.8477
 20
6.286
 30
0.0
 10
-25.9182
 20
6.2239
 30
0.0
 10
-25.9738
 20
6.1437
 30
0.0
 10
-26.0152
 20
6.046
 30
0.0
 10
-26.0152
 20
6.046
 30
0.0
 10
-26.0572
 20
5.9484
 30
0.0
 10
-26.0786
 20
5.8319
 30
0.0
 10
-26.0792
 20
5.6961
 30
0.0
 10
-26.0792
 20
5.6961
 30
0.0
 10
-26.0786
 20
5.6004
 30
0.0
 10
-26.0676
 20
5.5092
 30
0.0
 10
-26.0449
 20
5.4225
 30
0.0
 10
-26.0449
 20
5.4225
 30
0.0
 10
-26.0223
 20
5.3359
 30
0.0
 10
-25.9919
 20
5.2557
 30
0.0
 10
-25.9531
 20
5.182
 30
0.0
 10
-25.9531
 20
5.182
 30
0.0
 10
-25.9149
 20
5.1089
 30
0.0
 10
-25.8716
 20
5.0436
 30
0.0
 10
-25.8231
 20
4.986
 30
0.0
 10
-25.8231
 20
4.986
 30
0.0
 10
-25.8231
 20
4.986
 30
0.0
 10
-25.5825
 20
5.0946
 30
0.0
 10
-25.5825
 20
5.0946
 30
0.0
 10
-25.5825
 20
5.0946
 30
0.0
 10
-25.6155
 20
5.1335
 30
0.0
 10
-25.6485
 20
5.18
 30
0.0
 10
-25.6808
 20
5.2343
 30
0.0
 10
-25.6808
 20
5.2343
 30
0.0
 10
-25.7138
 20
5.2887
 30
0.0
 10
-25.7403
 20
5.3488
 30
0.0
 10
-25.7623
 20
5.4154
 30
0.0
 10
-25.7623
 20
5.4154
 30
0.0
 10
-25.7836
 20
5.482
 30
0.0
 10
-25.7953
 20
5.5538
 30
0.0
 10
-25.7959
 20
5.6302
 30
0.0
 10
-25.7959
 20
5.6302
 30
0.0
 10
-25.7953
 20
5.7239
 30
0.0
 10
-25.7817
 20
5.8028
 30
0.0
 10
-25.7552
 20
5.8669
 30
0.0
 10
-25.7552
 20
5.8669
 30
0.0
 10
-25.728
 20
5.9302
 30
0.0
 10
-25.6918
 20
5.9813
 30
0.0
 10
-25.6459
 20
6.0195
 30
0.0
 10
-25.6459
 20
6.0195
 30
0.0
 10
-25.5993
 20
6.0577
 30
0.0
 10
-25.5469
 20
6.0855
 30
0.0
 10
-25.4881
 20
6.1023
 30
0.0
 10
-25.4881
 20
6.1023
 30
0.0
 10
-25.4292
 20
6.1191
 30
0.0
 10
-25.3678
 20
6.1275
 30
0.0
 10
-25.3031
 20
6.1269
 30
0.0
 10
-25.3031
 20
6.1269
 30
0.0
 10
-25.2087
 20
6.1269
 30
0.0
 10
-25.1156
 20
6.1081
 30
0.0
 10
-25.0231
 20
6.0706
 30
0.0
 10
-25.0231
 20
6.0706
 30
0.0
 10
-24.9299
 20
6.0331
 30
0.0
 10
-24.8329
 20
5.9762
 30
0.0
 10
-24.7307
 20
5.8992
 30
0.0
 10
-24.7307
 20
5.8992
 30
0.0
 10
-24.6286
 20
5.8222
 30
0.0
 10
-24.5167
 20
5.7246
 30
0.0
 10
-24.3951
 20
5.6062
 30
0.0
 10
-24.3951
 20
5.6062
 30
0.0
 10
-24.2735
 20
5.4885
 30
0.0
 10
-24.1364
 20
5.3488
 30
0.0
 10
-23.9837
 20
5.1878
 30
0.0
 10
-23.9837
 20
5.1878
 30
0.0
 10
-23.9837
 20
5.1878
 30
0.0
 10
-23.7237
 20
4.92
 30
0.0
 10
-23.7237
 20
4.92
 30
0.0
 10
-23.7237
 20
4.92
 30
0.0
 10
-23.7237
 20
4.92
 30
0.0
 10
-23.5142
 20
4.92
 30
0.0
 10
-23.5142
 20
4.92
 30
0.0
 10
-23.5142
 20
4.92
 30
0.0
 10
-23.5142
 20
4.92
 30
0.0
 10
-23.5142
 20
6.5304
 30
0.0
 10
-23.5142
 20
6.5304
 30
0.0
  0
SPLINE
  5
7E
330
1F
100
AcDbEntity
  8
AXIS
 62
   250
100
AcDbSpline
210
0.0
220
0.0
230
1.0
 70
    11
 71
     3
 72
   140
 73
   136
 74
     0
 42
0.0000000001
 43
0.0000000001
 40
0.0
 40
0.0
 40
0.0
 40
0.0
 40
0.0285714285714286
 40
0.0285714285714286
 40
0.0285714285714286
 40
0.0285714285714286
 40
0.0571428571428571
 40
0.0571428571428571
 40
0.0571428571428571
 40
0.0571428571428571
 40
0.0857142857142857
 40
0.0857142857142857
 40
0.0857142857142857
 40
0.0857142857142857
 40
0.1142857142857143
 40
0.1142857142857143
 40
0.1142857142857143
 40
0.1142857142857143
 40
0.1428571428571428
 40
0.1428571428571428
 40
0.1428571428571428
 40
0.1428571428571428
 40
0.1714285714285714
 40
0.1714285714285714
 40
0.1714285714285714
 40
0.1714285714285714
 40
0.2
 40
0.2
 40
0.2
 40
0.2
 40
0.2285714285714286
 40
0.2285714285714286
 40
0.2285714285714286
 40
0.2285714285714286
 40
0.2571428571428571
 40
0.2571428571428571
 40
0.2571428571428571
 40
0.2571428571428571
 40
0.2857142857142857
 40
0.2857142857142857
 40
0.2857142857142857
 40
0.2857142857142857
 40
0.3142857142857143
 40
0.3142857142857143
 40
0.3142857142857143
 40
0.3142857142857143
 40
0.3428571428571429
 40
0.3428571428571429
 40
0.3428571428571429
 40
0.3428571428571429
 40
0.3714285714285714
 40
0.3714285714285714
 40
0.3714285714285714
 40
0.3714285714285714
 40
0.4
 40
0.4
 40
0.4
 40
0.4
 40
0.4285714285714285
 40
0.4285714285714285
 40
0.4285714285714285
 40
0.4285714285714285
 40
0.4571428571428571
 40
0.4571428571428571
 40
0.4571428571428571
 40
0.4571428571428571
 40
0.4857142857142857
 40
0.4857142857142857
 40
0.4857142857142857
 40
0.4857142857142857
 40
0.5142857142857142
 40
0.5142857142857142
 40
0.5142857142857142
 40
0.5142857142857142
 40
0.5428571428571428
 40
0.5428571428571428
 40
0.5428571428571428
 40
0.5428571428571428
 40
0.5714285714285714
 40
0.5714285714285714
 40
0.5714285714285714
 40
0.5714285714285714
 40
0.6
 40
0.6
 40
0.6
 40
0.6
 40
0.6285714285714286
 40
0.6285714285714286
 40
0.6285714285714286
 40
0.6285714285714286
 40
0.6571428571428571
 40
0.6571428571428571
 40
0.6571428571428571
 40
0.6571428571428571
 40
0.6857142857142857
 40
0.6857142857142857
 40
0.6857142857142857
 40
0.6857142857142857
 40
0.7142857142857143
 40
0.7142857142857143
 40
0.7142857142857143
 40
0.7142857142857143
 40
0.7428571428571429
 40
0.7428571428571429
 40
0.7428571428571429
 40
0.7428571428571429
 40
0.7714285714285715
 40
0.7714285714285715
 40
0.7714285714285715
 40
0.7714285714285715
 40
0.8
 40
0.8
 40
0.8
 40
0.8
 40
0.8285714285714286
 40
0.8285714285714286
 40
0.8285714285714286
 40
0.8285714285714286
 40
0.8571428571428571
 40
0.8571428571428571
 40
0.8571428571428571
 40
0.8571428571428571
 40
0.8857142857142857
 40
0.8857142857142857
 40
0.8857142857142857
 40
0.8857142857142857
 40
0.9142857142857143
 40
0.9142857142857143
 40
0.9142857142857143
 40
0.9142857142857143
 40
0.9428571428571428
 40
0.9428571428571428
 40
0.9428571428571428
 40
0.9428571428571428
 40
1.0
 40
1.0
 40
1.0
 40
1.0
 10
18.2952
 20
-1.4014
 30
0.0
 10
18.2952
 20
-1.4014
 30
0.0
 10
18.2952
 20
-2.173
 30
0.0
 10
18.2952
 20
-2.173
 30
0.0
 10
18.2952
 20
-2.173
 30
0.0
 10
18.2952
 20
-2.173
 30
0.0
 10
18.5668
 20
-2.173
 30
0.0
 10
18.5668
 20
-2.173
 30
0.0
 10
18.5668
 20
-2.173
 30
0.0
 10
18.5668
 20
-2.173
 30
0.0
 10
18.5668
 20
-1.7003
 30
0.0
 10
18.5668
 20
-1.7003
 30
0.0
 10
18.5668
 20
-1.7003
 30
0.0
 10
18.5668
 20
-1.7003
 30
0.0
 10
19.3468
 20
-1.7003
 30
0.0
 10
19.3468
 20
-1.7003
 30
0.0
 10
19.3468
 20
-1.7003
 30
0.0
 10
19.3669
 20
-1.7351
 30
0.0
 10
19.3831
 20
-1.7861
 30
0.0
 10
19.3966
 20
-1.8539
 30
0.0
 10
19.3966
 20
-1.8539
 30
0.0
 10
19.4095
 20
-1.9211
 30
0.0
 10
19.416
 20
-2.0045
 30
0.0
 10
19.4167
 20
-2.1035
 30
0.0
 10
19.4167
 20
-2.1035
 30
0.0
 10
19.4167
 20
-2.2414
 30
0.0
 10
19.3927
 20
-2.3654
 30
0.0
 10
19.3449
 20
-2.4766
 30
0.0
 10
19.3449
 20
-2.4766
 30
0.0
 10
19.2977
 20
-2.5872
 30
0.0
 10
19.2285
 20
-2.6822
 30
0.0
 10
19.1379
 20
-2.7616
 30
0.0
 10
19.1379
 20
-2.7616
 30
0.0
 10
19.0467
 20
-2.8404
 30
0.0
 10
18.9362
 20
-2.9012
 30
0.0
 10
18.8061
 20
-2.9435
 30
0.0
 10
18.8061
 20
-2.9435
 30
0.0
 10
18.6755
 20
-2.9858
 30
0.0
 10
18.5274
 20
-3.0066
 30
0.0
 10
18.3612
 20
-3.0072
 30
0.0
 10
18.3612
 20
-3.0072
 30
0.0
 10
18.197
 20
-3.0066
 30
0.0
 10
18.0501
 20
-2.9846
 30
0.0
 10
17.9201
 20
-2.94
 30
0.0
 10
17.9201
 20
-2.94
 30
0.0
 10
17.7908
 20
-2.896
 30
0.0
 10
17.6802
 20
-2.8328
 30
0.0
 10
17.5896
 20
-2.75
 30
0.0
 10
17.5896
 20
-2.75
 30
0.0
 10
17.4984
 20
-2.6672
 30
0.0
 10
17.4292
 20
-2.5687
 30
0.0
 10
17.3814
 20
-2.4528
 30
0.0
 10
17.3814
 20
-2.4528
 30
0.0
 10
17.3342
 20
-2.3376
 30
0.0
 10
17.3096
 20
-2.2084
 30
0.0
 10
17.3096
 20
-2.0653
 30
0.0
 10
17.3096
 20
-2.0653
 30
0.0
 10
17.3096
 20
-1.9865
 30
0.0
 10
17.3147
 20
-1.9164
 30
0.0
 10
17.3238
 20
-1.8539
 30
0.0
 10
17.3238
 20
-1.8539
 30
0.0
 10
17.3335
 20
-1.7913
 30
0.0
 10
17.3464
 20
-1.7351
 30
0.0
 10
17.3633
 20
-1.6847
 30
0.0
 10
17.3633
 20
-1.6847
 30
0.0
 10
17.3801
 20
-1.6343
 30
0.0
 10
17.4001
 20
-1.5885
 30
0.0
 10
17.4221
 20
-1.5474
 30
0.0
 10
17.4221
 20
-1.5474
 30
0.0
 10
17.4221
 20
-1.5474
 30
0.0
 10
17.1466
 20
-1.471
 30
0.0
 10
17.1466
 20
-1.471
 30
0.0
 10
17.1466
 20
-1.471
 30
0.0
 10
17.1278
 20
-1.5051
 30
0.0
 10
17.1098
 20
-1.5503
 30
0.0
 10
17.091
 20
-1.6077
 30
0.0
 10
17.091
 20
-1.6077
 30
0.0
 10
17.0729
 20
-1.665
 30
0.0
 10
17.0574
 20
-1.7316
 30
0.0
 10
17.045
 20
-1.8081
 30
0.0
 10
17.045
 20
-1.8081
 30
0.0
 10
17.0334
 20
-1.884
 30
0.0
 10
17.0269
 20
-1.9674
 30
0.0
 10
17.0262
 20
-2.0583
 30
0.0
 10
17.0262
 20
-2.0583
 30
0.0
 10
17.0269
 20
-2.2553
 30
0.0
 10
17.0612
 20
-2.432
 30
0.0
 10
17.1278
 20
-2.5878
 30
0.0
 10
17.1278
 20
-2.5878
 30
0.0
 10
17.1945
 20
-2.7442
 30
0.0
 10
17.2883
 20
-2.8775
 30
0.0
 10
17.4092
 20
-2.9869
 30
0.0
 10
17.4092
 20
-2.9869
 30
0.0
 10
17.5301
 20
-3.097
 30
0.0
 10
17.6725
 20
-3.181
 30
0.0
 10
17.8367
 20
-3.2389
 30
0.0
 10
17.8367
 20
-3.2389
 30
0.0
 10
18.0009
 20
-3.2974
 30
0.0
 10
18.1808
 20
-3.3264
 30
0.0
 10
18.3767
 20
-3.327
 30
0.0
 10
18.3767
 20
-3.327
 30
0.0
 10
18.5131
 20
-3.3264
 30
0.0
 10
18.6412
 20
-3.3131
 30
0.0
 10
18.7621
 20
-3.287
 30
0.0
 10
18.7621
 20
-3.287
 30
0.0
 10
18.8825
 20
-3.2609
 30
0.0
 10
18.9924
 20
-3.2233
 30
0.0
 10
19.092
 20
-3.1746
 30
0.0
 10
19.092
 20
-3.1746
 30
0.0
 10
19.1916
 20
-3.126
 30
0.0
 10
19.2776
 20
-3.068
 30
0.0
 10
19.3507
 20
-3.0003
 30
0.0
 10
19.3507
 20
-3.0003
 30
0.0
 10
19.4723
 20
-2.8856
 30
0.0
 10
19.5603
 20
-2.7552
 30
0.0
 10
19.6152
 20
-2.6092
 30
0.0
 10
19.6152
 20
-2.6092
 30
0.0
 10
19.6702
 20
-2.4633
 30
0.0
 10
19.6967
 20
-2.3016
 30
0.0
 10
19.696
 20
-2.1244
 30
0.0
 10
19.696
 20
-2.1244
 30
0.0
 10
19.6955
 20
-2.0184
 30
0.0
 10
19.687
 20
-1.9193
 30
0.0
 10
19.6715
 20
-1.8266
 30
0.0
 10
19.6715
 20
-1.8266
 30
0.0
 10
19.6559
 20
-1.7339
 30
0.0
 10
19.6372
 20
-1.6511
 30
0.0
 10
19.6159
 20
-1.5787
 30
0.0
 10
19.6159
 20
-1.5787
 30
0.0
 10
19.5939
 20
-1.5063
 30
0.0
 10
19.5725
 20
-1.4472
 30
0.0
 10
19.5525
 20
-1.4014
 30
0.0
 10
19.5525
 20
-1.4014
 30
0.0
 10
19.5525
 20
-1.4014
 30
0.0
 10
18.2952
 20
-1.4014
 30
0.0
 10
18.2952
 20
-1.4014
 30
0.0
  0
SPLINE
  5
7F
330
1F
100
AcDbEntity
  8
AXIS
 62
   250
100
AcDbSpline
210
0.0
220
0.0
230
1.0
 70
    11
 71
     3
 72
    36
 73
    32
 74
     0
 42
0.0000000001
 43
0.0000000001
 40
0.0
 40
0.0
 40
0.0
 40
0.0
 40
0.1111111111111111
 40
0.1111111111111111
 40
0.1111111111111111
 40
0.1111111111111111
 40
0.2222222222222222
 40
0.2222222222222222
 40
0.2222222222222222
 40
0.2222222222222222
 40
0.3333333333333333
 40
0.3333333333333333
 40
0.3333333333333333
 40
0.3333333333333333
 40
0.4444444444444444
 40
0.4444444444444444
 40
0.4444444444444444
 40
0.4444444444444444
 40
0.5555555555555556
 40
0.5555555555555556
 40
0.5555555555555556
 40
0.5555555555555556
 40
0.6666666666666666
 40
0.6666666666666666
 40
0.6666666666666666
 40
0.6666666666666666
 40
0.7777777777777778
 40
0.7777777777777778
 40
0.7777777777777778
 40
0.7777777777777778
 40
1.0
 40
1.0
 40
1.0
 40
1.0
 10
19.6689
 20
0.3503
 30
0.0
 10
19.6689
 20
0.3503
 30
0.0
 10
19.6689
 20
0.6457
 30
0.0
 10
19.6689
 20
0.6457
 30
0.0
 10
19.6689
 20
0.6457
 30
0.0
 10
19.6689
 20
0.6457
 30
0.0
 10
17.1466
 20
0.6457
 30
0.0
 10
17.1466
 20
0.6457
 30
0.0
 10
17.1466
 20
0.6457
 30
0.0
 10
17.1466
 20
0.6457
 30
0.0
 10
17.1466
 20
0.385
 30
0.0
 10
17.1466
 20
0.385
 30
0.0
 10
17.1466
 20
0.385
 30
0.0
 10
17.1466
 20
0.385
 30
0.0
 10
17.4415
 20
-0.1085
 30
0.0
 10
17.4415
 20
-0.1085
 30
0.0
 10
17.4415
 20
-0.1085
 30
0.0
 10
17.4415
 20
-0.1085
 30
0.0
 10
17.7015
 20
-0.0494
 30
0.0
 10
17.7015
 20
-0.0494
 30
0.0
 10
17.7015
 20
-0.0494
 30
0.0
 10
17.7015
 20
-0.0494
 30
0.0
 10
17.4648
 20
0.3433
 30
0.0
 10
17.4648
 20
0.3433
 30
0.0
 10
17.4648
 20
0.3433
 30
0.0
 10
17.4648
 20
0.3433
 30
0.0
 10
17.4648
 20
0.3503
 30
0.0
 10
17.4648
 20
0.3503
 30
0.0
 10
17.4648
 20
0.3503
 30
0.0
 10
17.4648
 20
0.3503
 30
0.0
 10
19.6689
 20
0.3503
 30
0.0
 10
19.6689
 20
0.3503
 30
0.0
  0
SPLINE
  5
80
330
1F
100
AcDbEntity
  8
AXIS
 62
   250
100
AcDbSpline
210
0.0
220
0.0
230
1.0
 70
    11
 71
     3
 72
    20
 73
    16
 74
     0
 42
0.0000000001
 43
0.0000000001
 40
0.0
 40
0.0
 40
0.0
 40
0.0
 40
0.2
 40
0.2
 40
0.2
 40
0.2
 40
0.4
 40
0.4
 40
0.4
 40
0.4
 40
0.6
 40
0.6
 40
0.6
 40
0.6
 40
1.0
 40
1.0
 40
1.0
 40
1.0
 10
19.8203
 20
1.5424
 30
0.0
 10
19.8203
 20
1.5424
 30
0.0
 10
17.0069
 20
2.5156
 30
0.0
 10
17.0069
 20
2.5156
 30
0.0
 10
17.0069
 20
2.5156
 30
0.0
 10
17.0069
 20
2.5156
 30
0.0
 10
17.0069
 20
2.2758
 30
0.0
 10
17.0069
 20
2.2758
 30
0.0
 10
17.0069
 20
2.2758
 30
0.0
 10
17.0069
 20
2.2758
 30
0.0
 10
19.8203
 20
1.3095
 30
0.0
 10
19.8203
 20
1.3095
 30
0.0
 10
19.8203
 20
1.3095
 30
0.0
 10
19.8203
 20
1.3095
 30
0.0
 10
19.8203
 20
1.5424
 30
0.0
 10
19.8203
 20
1.5424
 30
0.0
  0
SPLINE
  5
81
330
1F
100
AcDbEntity
  8
AXIS
 62
   250
100
AcDbSpline
210
0.0
220
0.0
230
1.0
 70
    11
 71
     3
 72
   124
 73
   120
 74
     0
 42
0.0000000001
 43
0.0000000001
 40
0.0
 40
0.0
 40
0.0
 40
0.0
 40
0.032258064516129
 40
0.032258064516129
 40
0.032258064516129
 40
0.032258064516129
 40
0.0645161290322581
 40
0.0645161290322581
 40
0.0645161290322581
 40
0.0645161290322581
 40
0.0967741935483871
 40
0.0967741935483871
 40
0.0967741935483871
 40
0.0967741935483871
 40
0.1290322580645161
 40
0.1290322580645161
 40
0.1290322580645161
 40
0.1290322580645161
 40
0.1612903225806452
 40
0.1612903225806452
 40
0.1612903225806452
 40
0.1612903225806452
 40
0.1935483870967742
 40
0.1935483870967742
 40
0.1935483870967742
 40
0.1935483870967742
 40
0.2258064516129032
 40
0.2258064516129032
 40
0.2258064516129032
 40
0.2258064516129032
 40
0.2580645161290323
 40
0.2580645161290323
 40
0.2580645161290323
 40
0.2580645161290323
 40
0.2903225806451613
 40
0.2903225806451613
 40
0.2903225806451613
 40
0.2903225806451613
 40
0.3225806451612903
 40
0.3225806451612903
 40
0.3225806451612903
 40
0.3225806451612903
 40
0.3548387096774194
 40
0.3548387096774194
 40
0.3548387096774194
 40
0.3548387096774194
 40
0.3870967741935484
 40
0.3870967741935484
 40
0.3870967741935484
 40
0.3870967741935484
 40
0.4193548387096774
 40
0.4193548387096774
 40
0.4193548387096774
 40
0.4193548387096774
 40
0.4516129032258064
 40
0.4516129032258064
 40
0.4516129032258064
 40
0.4516129032258064
 40
0.4838709677419355
 40
0.4838709677419355
 40
0.4838709677419355
 40
0.4838709677419355
 40
0.5161290322580645
 40
0.5161290322580645
 40
0.5161290322580645
 40
0.5161290322580645
 40
0.5483870967741935
 40
0.5483870967741935
 40
0.5483870967741935
 40
0.5483870967741935
 40
0.5806451612903226
 40
0.5806451612903226
 40
0.5806451612903226
 40
0.5806451612903226
 40
0.6129032258064516
 40
0.6129032258064516
 40
0.6129032258064516
 40
0.6129032258064516
 40
0.6451612903225806
 40
0.6451612903225806
 40
0.6451612903225806
 40
0.6451612903225806
 40
0.6774193548387096
 40
0.6774193548387096
 40
0.6774193548387096
 40
0.6774193548387096
 40
0.7096774193548387
 40
0.7096774193548387
 40
0.7096774193548387
 40
0.7096774193548387
 40
0.7419354838709677
 40
0.7419354838709677
 40
0.7419354838709677
 40
0.7419354838709677
 40
0.7741935483870968
 40
0.7741935483870968
 40
0.7741935483870968
 40
0.7741935483870968
 40
0.8064516129032258
 40
0.8064516129032258
 40
0.8064516129032258
 40
0.8064516129032258
 40
0.8387096774193549
 40
0.8387096774193549
 40
0.8387096774193549
 40
0.8387096774193549
 40
0.8709677419354839
 40
0.8709677419354839
 40
0.8709677419354839
 40
0.8709677419354839
 40
0.9032258064516129
 40
0.9032258064516129
 40
0.9032258064516129
 40
0.9032258064516129
 40
0.9354838709677419
 40
0.9354838709677419
 40
0.9354838709677419
 40
0.9354838709677419
 40
1.0
 40
1.0
 40
1.0
 40
1.0
 10
19.6689
 20
4.104
 30
0.0
 10
19.6689
 20
4.104
 30
0.0
 10
19.3857
 20
4.104
 30
0.0
 10
19.3857
 20
4.104
 30
0.0
 10
19.3857
 20
4.104
 30
0.0
 10
19.3857
 20
4.104
 30
0.0
 10
19.3857
 20
3.0926
 30
0.0
 10
19.3857
 20
3.0926
 30
0.0
 10
19.3857
 20
3.0926
 30
0.0
 10
19.3857
 20
3.0926
 30
0.0
 10
19.3778
 20
3.0926
 30
0.0
 10
19.3778
 20
3.0926
 30
0.0
 10
19.3778
 20
3.0926
 30
0.0
 10
19.3778
 20
3.0926
 30
0.0
 10
19.1916
 20
3.2699
 30
0.0
 10
19.1916
 20
3.2699
 30
0.0
 10
19.1916
 20
3.2699
 30
0.0
 10
19.0642
 20
3.3892
 30
0.0
 10
18.9432
 20
3.4969
 30
0.0
 10
18.8294
 20
3.5925
 30
0.0
 10
18.8294
 20
3.5925
 30
0.0
 10
18.7156
 20
3.6881
 30
0.0
 10
18.6044
 20
3.7698
 30
0.0
 10
18.497
 20
3.8376
 30
0.0
 10
18.497
 20
3.8376
 30
0.0
 10
18.3897
 20
3.9059
 30
0.0
 10
18.2816
 20
3.9575
 30
0.0
 10
18.173
 20
3.994
 30
0.0
 10
18.173
 20
3.994
 30
0.0
 10
18.065
 20
4.0299
 30
0.0
 10
17.9531
 20
4.0478
 30
0.0
 10
17.8374
 20
4.0484
 30
0.0
 10
17.8374
 20
4.0484
 30
0.0
 10
17.7461
 20
4.0484
 30
0.0
 10
17.6568
 20
4.0357
 30
0.0
 10
17.5702
 20
4.009
 30
0.0
 10
17.5702
 20
4.009
 30
0.0
 10
17.4835
 20
3.9824
 30
0.0
 10
17.4053
 20
3.9407
 30
0.0
 10
17.3354
 20
3.8851
 30
0.0
 10
17.3354
 20
3.8851
 30
0.0
 10
17.2649
 20
3.8294
 30
0.0
 10
17.2093
 20
3.7576
 30
0.0
 10
17.1679
 20
3.6701
 30
0.0
 10
17.1679
 20
3.6701
 30
0.0
 10
17.1259
 20
3.5827
 30
0.0
 10
17.1045
 20
3.4784
 30
0.0
 10
17.104
 20
3.3567
 30
0.0
 10
17.104
 20
3.3567
 30
0.0
 10
17.1045
 20
3.271
 30
0.0
 10
17.1156
 20
3.1893
 30
0.0
 10
17.1382
 20
3.1117
 30
0.0
 10
17.1382
 20
3.1117
 30
0.0
 10
17.1608
 20
3.0341
 30
0.0
 10
17.1913
 20
2.9623
 30
0.0
 10
17.23
 20
2.8962
 30
0.0
 10
17.23
 20
2.8962
 30
0.0
 10
17.2682
 20
2.8308
 30
0.0
 10
17.3115
 20
2.7722
 30
0.0
 10
17.3601
 20
2.7207
 30
0.0
 10
17.3601
 20
2.7207
 30
0.0
 10
17.3601
 20
2.7207
 30
0.0
 10
17.6007
 20
2.818
 30
0.0
 10
17.6007
 20
2.818
 30
0.0
 10
17.6007
 20
2.818
 30
0.0
 10
17.5676
 20
2.8528
 30
0.0
 10
17.5347
 20
2.8945
 30
0.0
 10
17.5023
 20
2.9431
 30
0.0
 10
17.5023
 20
2.9431
 30
0.0
 10
17.4694
 20
2.9918
 30
0.0
 10
17.4428
 20
3.0457
 30
0.0
 10
17.4208
 20
3.1053
 30
0.0
 10
17.4208
 20
3.1053
 30
0.0
 10
17.3995
 20
3.165
 30
0.0
 10
17.3879
 20
3.2293
 30
0.0
 10
17.3872
 20
3.2977
 30
0.0
 10
17.3872
 20
3.2977
 30
0.0
 10
17.3879
 20
3.3817
 30
0.0
 10
17.4014
 20
3.4523
 30
0.0
 10
17.4279
 20
3.5097
 30
0.0
 10
17.4279
 20
3.5097
 30
0.0
 10
17.4551
 20
3.5664
 30
0.0
 10
17.4914
 20
3.6122
 30
0.0
 10
17.5372
 20
3.6464
 30
0.0
 10
17.5372
 20
3.6464
 30
0.0
 10
17.5838
 20
3.6806
 30
0.0
 10
17.6362
 20
3.7055
 30
0.0
 10
17.695
 20
3.7205
 30
0.0
 10
17.695
 20
3.7205
 30
0.0
 10
17.7538
 20
3.7356
 30
0.0
 10
17.8154
 20
3.7431
 30
0.0
 10
17.88
 20
3.7425
 30
0.0
 10
17.88
 20
3.7425
 30
0.0
 10
17.9745
 20
3.7425
 30
0.0
 10
18.0676
 20
3.7257
 30
0.0
 10
18.16
 20
3.6922
 30
0.0
 10
18.16
 20
3.6922
 30
0.0
 10
18.2531
 20
3.6586
 30
0.0
 10
18.3501
 20
3.6076
 30
0.0
 10
18.4524
 20
3.5386
 30
0.0
 10
18.4524
 20
3.5386
 30
0.0
 10
18.5546
 20
3.4697
 30
0.0
 10
18.6664
 20
3.3822
 30
0.0
 10
18.788
 20
3.2762
 30
0.0
 10
18.788
 20
3.2762
 30
0.0
 10
18.9096
 20
3.1708
 30
0.0
 10
19.0467
 20
3.0457
 30
0.0
 10
19.1993
 20
2.9014
 30
0.0
 10
19.1993
 20
2.9014
 30
0.0
 10
19.1993
 20
2.9014
 30
0.0
 10
19.4593
 20
2.6616
 30
0.0
 10
19.4593
 20
2.6616
 30
0.0
 10
19.4593
 20
2.6616
 30
0.0
 10
19.4593
 20
2.6616
 30
0.0
 10
19.6689
 20
2.6616
 30
0.0
 10
19.6689
 20
2.6616
 30
0.0
 10
19.6689
 20
2.6616
 30
0.0
 10
19.6689
 20
2.6616
 30
0.0
 10
19.6689
 20
4.104
 30
0.0
 10
19.6689
 20
4.104
 30
0.0
  0
SPLINE
  5
82
330
1F
100
AcDbEntity
  8
AXIS
 62
   250
100
AcDbSpline
210
0.0
220
0.0
230
1.0
 70
    11
 71
     3
 72
    20
 73
    16
 74
     0
 42
0.0000000001
 43
0.0000000001
 40
0.0
 40
0.0
 40
0.0
 40
0.0
 40
0.2
 40
0.2
 40
0.2
 40
0.2
 40
0.4
 40
0.4
 40
0.4
 40
0.4
 40
0.6
 40
0.6
 40
0.6
 40
0.6
 40
1.0
 40
1.0
 40
1.0
 40
1.0
 10
16.9836
 20
4.4655
 30
0.0
 10
16.9836
 20
4.4655
 30
0.0
 10
17.9149
 20
4.5211
 30
0.0
 10
17.9149
 20
4.5211
 30
0.0
 10
17.9149
 20
4.5211
 30
0.0
 10
17.9149
 20
4.5211
 30
0.0
 10
17.9149
 20
4.7088
 30
0.0
 10
17.9149
 20
4.7088
 30
0.0
 10
17.9149
 20
4.7088
 30
0.0
 10
17.9149
 20
4.7088
 30
0.0
 10
16.9836
 20
4.7678
 30
0.0
 10
16.9836
 20
4.7678
 30
0.0
 10
16.9836
 20
4.7678
 30
0.0
 10
16.9836
 20
4.7678
 30
0.0
 10
16.9836
 20
4.4655
 30
0.0
 10
16.9836
 20
4.4655
 30
0.0
  0
SPLINE
  5
83
330
1F
100
AcDbEntity
  8
AXIS
 62
   250
100
AcDbSpline
210
0.0
220
0.0
230
1.0
 70
    11
 71
     3
 72
    20
 73
    16
 74
     0
 42
0.0000000001
 43
0.0000000001
 40
0.0
 40
0.0
 40
0.0
 40
0.0
 40
0.2
 40
0.2
 40
0.2
 40
0.2
 40
0.4
 40
0.4
 40
0.4
 40
0.4
 40
0.6
 40
0.6
 40
0.6
 40
0.6
 40
1.0
 40
1.0
 40
1.0
 40
1.0
 10
16.9836
 20
4.9833
 30
0.0
 10
16.9836
 20
4.9833
 30
0.0
 10
17.9149
 20
5.0424
 30
0.0
 10
17.9149
 20
5.0424
 30
0.0
 10
17.9149
 20
5.0424
 30
0.0
 10
17.9149
 20
5.0424
 30
0.0
 10
17.9149
 20
5.2266
 30
0.0
 10
17.9149
 20
5.2266
 30
0.0
 10
17.9149
 20
5.2266
 30
0.0
 10
17.9149
 20
5.2266
 30
0.0
 10
16.9836
 20
5.2857
 30
0.0
 10
16.9836
 20
5.2857
 30
0.0
 10
16.9836
 20
5.2857
 30
0.0
 10
16.9836
 20
5.2857
 30
0.0
 10
16.9836
 20
4.9833
 30
0.0
 10
16.9836
 20
4.9833
 30
0.0
  0
SPLINE
  5
84
330
1F
100
AcDbEntity
  8
AXIS
 62
   250
100
AcDbSpline
210
0.0
220
0.0
230
1.0
 70
    11
 71
     3
 72
   140
 73
   136
 74
     0
 42
0.0000000001
 43
0.0000000001
 40
0.0
 40
0.0
 40
0.0
 40
0.0
 40
0.0285714285714286
 40
0.0285714285714286
 40
0.0285714285714286
 40
0.0285714285714286
 40
0.0571428571428571
 40
0.0571428571428571
 40
0.0571428571428571
 40
0.0571428571428571
 40
0.0857142857142857
 40
0.0857142857142857
 40
0.0857142857142857
 40
0.0857142857142857
 40
0.1142857142857143
 40
0.1142857142857143
 40
0.1142857142857143
 40
0.1142857142857143
 40
0.1428571428571428
 40
0.1428571428571428
 40
0.1428571428571428
 40
0.1428571428571428
 40
0.1714285714285714
 40
0.1714285714285714
 40
0.1714285714285714
 40
0.1714285714285714
 40
0.2
 40
0.2
 40
0.2
 40
0.2
 40
0.2285714285714286
 40
0.2285714285714286
 40
0.2285714285714286
 40
0.2285714285714286
 40
0.2571428571428571
 40
0.2571428571428571
 40
0.2571428571428571
 40
0.2571428571428571
 40
0.2857142857142857
 40
0.2857142857142857
 40
0.2857142857142857
 40
0.2857142857142857
 40
0.3142857142857143
 40
0.3142857142857143
 40
0.3142857142857143
 40
0.3142857142857143
 40
0.3428571428571429
 40
0.3428571428571429
 40
0.3428571428571429
 40
0.3428571428571429
 40
0.3714285714285714
 40
0.3714285714285714
 40
0.3714285714285714
 40
0.3714285714285714
 40
0.4
 40
0.4
 40
0.4
 40
0.4
 40
0.4285714285714285
 40
0.4285714285714285
 40
0.4285714285714285
 40
0.4285714285714285
 40
0.4571428571428571
 40
0.4571428571428571
 40
0.4571428571428571
 40
0.4571428571428571
 40
0.4857142857142857
 40
0.4857142857142857
 40
0.4857142857142857
 40
0.4857142857142857
 40
0.5142857142857142
 40
0.5142857142857142
 40
0.5142857142857142
 40
0.5142857142857142
 40
0.5428571428571428
 40
0.5428571428571428
 40
0.5428571428571428
 40
0.5428571428571428
 40
0.5714285714285714
 40
0.5714285714285714
 40
0.5714285714285714
 40
0.5714285714285714
 40
0.6
 40
0.6
 40
0.6
 40
0.6
 40
0.6285714285714286
 40
0.6285714285714286
 40
0.6285714285714286
 40
0.6285714285714286
 40
0.6571428571428571
 40
0.6571428571428571
 40
0.6571428571428571
 40
0.6571428571428571
 40
0.6857142857142857
 40
0.6857142857142857
 40
0.6857142857142857
 40
0.6857142857142857
 40
0.7142857142857143
 40
0.7142857142857143
 40
0.7142857142857143
 40
0.7142857142857143
 40
0.7428571428571429
 40
0.7428571428571429
 40
0.7428571428571429
 40
0.7428571428571429
 40
0.7714285714285715
 40
0.7714285714285715
 40
0.7714285714285715
 40
0.7714285714285715
 40
0.8
 40
0.8
 40
0.8
 40
0.8
 40
0.8285714285714286
 40
0.8285714285714286
 40
0.8285714285714286
 40
0.8285714285714286
 40
0.8571428571428571
 40
0.8571428571428571
 40
0.8571428571428571
 40
0.8571428571428571
 40
0.8857142857142857
 40
0.8857142857142857
 40
0.8857142857142857
 40
0.8857142857142857
 40
0.9142857142857143
 40
0.9142857142857143
 40
0.9142857142857143
 40
0.9142857142857143
 40
0.9428571428571428
 40
0.9428571428571428
 40
0.9428571428571428
 40
0.9428571428571428
 40
1.0
 40
1.0
 40
1.0
 40
1.0
 10
-4.7617
 20
18.374
 30
0.0
 10
-4.7617
 20
18.374
 30
0.0
 10
-5.6232
 20
18.374
 30
0.0
 10
-5.6232
 20
18.374
 30
0.0
 10
-5.6232
 20
18.374
 30
0.0
 10
-5.6232
 20
18.374
 30
0.0
 10
-5.6232
 20
18.1024
 30
0.0
 10
-5.6232
 20
18.1024
 30
0.0
 10
-5.6232
 20
18.1024
 30
0.0
 10
-5.6232
 20
18.1024
 30
0.0
 10
-5.0954
 20
18.1024
 30
0.0
 10
-5.0954
 20
18.1024
 30
0.0
 10
-5.0954
 20
18.1024
 30
0.0
 10
-5.0954
 20
18.1024
 30
0.0
 10
-5.0954
 20
17.3224
 30
0.0
 10
-5.0954
 20
17.3224
 30
0.0
 10
-5.0954
 20
17.3224
 30
0.0
 10
-5.1342
 20
17.3023
 30
0.0
 10
-5.1911
 20
17.2862
 30
0.0
 10
-5.2668
 20
17.2726
 30
0.0
 10
-5.2668
 20
17.2726
 30
0.0
 10
-5.3418
 20
17.2596
 30
0.0
 10
-5.435
 20
17.2532
 30
0.0
 10
-5.5456
 20
17.2525
 30
0.0
 10
-5.5456
 20
17.2525
 30
0.0
 10
-5.6995
 20
17.2525
 30
0.0
 10
-5.8379
 20
17.2765
 30
0.0
 10
-5.9621
 20
17.3243
 30
0.0
 10
-5.9621
 20
17.3243
 30
0.0
 10
-6.0856
 20
17.3715
 30
0.0
 10
-6.1917
 20
17.4407
 30
0.0
 10
-6.2803
 20
17.5313
 30
0.0
 10
-6.2803
 20
17.5313
 30
0.0
 10
-6.3682
 20
17.6225
 30
0.0
 10
-6.4361
 20
17.7331
 30
0.0
 10
-6.4834
 20
17.8631
 30
0.0
 10
-6.4834
 20
17.8631
 30
0.0
 10
-6.5306
 20
17.9937
 30
0.0
 10
-6.5538
 20
18.1418
 30
0.0
 10
-6.5545
 20
18.308
 30
0.0
 10
-6.5545
 20
18.308
 30
0.0
 10
-6.5538
 20
18.4723
 30
0.0
 10
-6.5293
 20
18.6191
 30
0.0
 10
-6.4795
 20
18.7491
 30
0.0
 10
-6.4795
 20
18.7491
 30
0.0
 10
-6.4303
 20
18.8785
 30
0.0
 10
-6.3598
 20
18.9891
 30
0.0
 10
-6.2673
 20
19.0796
 30
0.0
 10
-6.2673
 20
19.0796
 30
0.0
 10
-6.1749
 20
19.1708
 30
0.0
 10
-6.0649
 20
19.24
 30
0.0
 10
-5.9356
 20
19.2879
 30
0.0
 10
-5.9356
 20
19.2879
 30
0.0
 10
-5.8069
 20
19.3351
 30
0.0
 10
-5.6626
 20
19.3596
 30
0.0
 10
-5.5029
 20
19.3596
 30
0.0
 10
-5.5029
 20
19.3596
 30
0.0
 10
-5.4149
 20
19.3596
 30
0.0
 10
-5.3367
 20
19.3545
 30
0.0
 10
-5.2668
 20
19.3454
 30
0.0
 10
-5.2668
 20
19.3454
 30
0.0
 10
-5.197
 20
19.3357
 30
0.0
 10
-5.1342
 20
19.3228
 30
0.0
 10
-5.078
 20
19.306
 30
0.0
 10
-5.078
 20
19.306
 30
0.0
 10
-5.0217
 20
19.2891
 30
0.0
 10
-4.9706
 20
19.2691
 30
0.0
 10
-4.9247
 20
19.2471
 30
0.0
 10
-4.9247
 20
19.2471
 30
0.0
 10
-4.9247
 20
19.2471
 30
0.0
 10
-4.8393
 20
19.5226
 30
0.0
 10
-4.8393
 20
19.5226
 30
0.0
 10
-4.8393
 20
19.5226
 30
0.0
 10
-4.8775
 20
19.5414
 30
0.0
 10
-4.9279
 20
19.5595
 30
0.0
 10
-4.9919
 20
19.5782
 30
0.0
 10
-4.9919
 20
19.5782
 30
0.0
 10
-5.056
 20
19.5964
 30
0.0
 10
-5.1304
 20
19.6119
 30
0.0
 10
-5.2157
 20
19.6242
 30
0.0
 10
-5.2157
 20
19.6242
 30
0.0
 10
-5.3004
 20
19.6358
 30
0.0
 10
-5.3936
 20
19.6423
 30
0.0
 10
-5.4951
 20
19.6429
 30
0.0
 10
-5.4951
 20
19.6429
 30
0.0
 10
-5.715
 20
19.6423
 30
0.0
 10
-5.9123
 20
19.608
 30
0.0
 10
-6.0862
 20
19.5414
 30
0.0
 10
-6.0862
 20
19.5414
 30
0.0
 10
-6.2609
 20
19.4748
 30
0.0
 10
-6.4096
 20
19.381
 30
0.0
 10
-6.5319
 20
19.26
 30
0.0
 10
-6.5319
 20
19.26
 30
0.0
 10
-6.6547
 20
19.1391
 30
0.0
 10
-6.7485
 20
18.9968
 30
0.0
 10
-6.8132
 20
18.8325
 30
0.0
 10
-6.8132
 20
18.8325
 30
0.0
 10
-6.8785
 20
18.6683
 30
0.0
 10
-6.9109
 20
18.4885
 30
0.0
 10
-6.9115
 20
18.2925
 30
0.0
 10
-6.9115
 20
18.2925
 30
0.0
 10
-6.9109
 20
18.156
 30
0.0
 10
-6.896
 20
18.028
 30
0.0
 10
-6.8669
 20
17.907
 30
0.0
 10
-6.8669
 20
17.907
 30
0.0
 10
-6.8378
 20
17.7867
 30
0.0
 10
-6.7957
 20
17.6768
 30
0.0
 10
-6.7414
 20
17.5772
 30
0.0
 10
-6.7414
 20
17.5772
 30
0.0
 10
-6.6871
 20
17.4776
 30
0.0
 10
-6.6224
 20
17.3916
 30
0.0
 10
-6.5467
 20
17.3185
 30
0.0
 10
-6.5467
 20
17.3185
 30
0.0
 10
-6.4187
 20
17.1969
 30
0.0
 10
-6.2732
 20
17.109
 30
0.0
 10
-6.1102
 20
17.054
 30
0.0
 10
-6.1102
 20
17.054
 30
0.0
 10
-5.9472
 20
16.999
 30
0.0
 10
-5.7668
 20
16.9725
 30
0.0
 10
-5.5688
 20
16.9731
 30
0.0
 10
-5.5688
 20
16.9731
 30
0.0
 10
-5.4505
 20
16.9738
 30
0.0
 10
-5.3399
 20
16.9822
 30
0.0
 10
-5.2364
 20
16.9977
 30
0.0
 10
-5.2364
 20
16.9977
 30
0.0
 10
-5.1329
 20
17.0132
 30
0.0
 10
-5.0405
 20
17.032
 30
0.0
 10
-4.9596
 20
17.0533
 30
0.0
 10
-4.9596
 20
17.0533
 30
0.0
 10
-4.8788
 20
17.0753
 30
0.0
 10
-4.8128
 20
17.0967
 30
0.0
 10
-4.7617
 20
17.1167
 30
0.0
 10
-4.7617
 20
17.1167
 30
0.0
 10
-4.7617
 20
17.1167
 30
0.0
 10
-4.7617
 20
18.374
 30
0.0
 10
-4.7617
 20
18.374
 30
0.0
  0
SPLINE
  5
85
330
1F
100
AcDbEntity
  8
AXIS
 62
   250
100
AcDbSpline
210
0.0
220
0.0
230
1.0
 70
    11
 71
     3
 72
    20
 73
    16
 74
     0
 42
0.0000000001
 43
0.0000000001
 40
0.0
 40
0.0
 40
0.0
 40
0.0
 40
0.2
 40
0.2
 40
0.2
 40
0.2
 40
0.4
 40
0.4
 40
0.4
 40
0.4
 40
0.6
 40
0.6
 40
0.6
 40
0.6
 40
1.0
 40
1.0
 40
1.0
 40
1.0
 10
-1.4749
 20
16.849
 30
0.0
 10
-1.4749
 20
16.849
 30
0.0
 10
-0.3883
 20
19.6623
 30
0.0
 10
-0.3883
 20
19.6623
 30
0.0
 10
-0.3883
 20
19.6623
 30
0.0
 10
-0.3883
 20
19.6623
 30
0.0
 10
-0.6561
 20
19.6623
 30
0.0
 10
-0.6561
 20
19.6623
 30
0.0
 10
-0.6561
 20
19.6623
 30
0.0
 10
-0.6561
 20
19.6623
 30
0.0
 10
-1.7349
 20
16.849
 30
0.0
 10
-1.7349
 20
16.849
 30
0.0
 10
-1.7349
 20
16.849
 30
0.0
 10
-1.7349
 20
16.849
 30
0.0
 10
-1.4749
 20
16.849
 30
0.0
 10
-1.4749
 20
16.849
 30
0.0
  0
SPLINE
  5
86
330
1F
100
AcDbEntity
  8
AXIS
 62
   250
100
AcDbSpline
210
0.0
220
0.0
230
1.0
 70
    11
 71
     3
 72
    20
 73
    16
 74
     0
 42
0.0000000001
 43
0.0000000001
 40
0.0
 40
0.0
 40
0.0
 40
0.0
 40
0.2
 40
0.2
 40
0.2
 40
0.2
 40
0.4
 40
0.4
 40
0.4
 40
0.4
 40
0.6
 40
0.6
 40
0.6
 40
0.6
 40
1.0
 40
1.0
 40
1.0
 40
1.0
 10
1.7886
 20
19.6856
 30
0.0
 10
1.7886
 20
19.6856
 30
0.0
 10
1.8507
 20
18.7543
 30
0.0
 10
1.8507
 20
18.7543
 30
0.0
 10
1.8507
 20
18.7543
 30
0.0
 10
1.8507
 20
18.7543
 30
0.0
 10
2.0602
 20
18.7543
 30
0.0
 10
2.0602
 20
18.7543
 30
0.0
 10
2.0602
 20
18.7543
 30
0.0
 10
2.0602
 20
18.7543
 30
0.0
 10
2.1262
 20
19.6856
 30
0.0
 10
2.1262
 20
19.6856
 30
0.0
 10
2.1262
 20
19.6856
 30
0.0
 10
2.1262
 20
19.6856
 30
0.0
 10
1.7886
 20
19.6856
 30
0.0
 10
1.7886
 20
19.6856
 30
0.0
  0
SPLINE
  5
87
330
1F
100
AcDbEntity
  8
AXIS
 62
   250
100
AcDbSpline
210
0.0
220
0.0
230
1.0
 70
    11
 71
     3
 72
    20
 73
    16
 74
     0
 42
0.0000000001
 43
0.0000000001
 40
0.0
 40
0.0
 40
0.0
 40
0.0
 40
0.2
 40
0.2
 40
0.2
 40
0.2
 40
0.4
 40
0.4
 40
0.4
 40
0.4
 40
0.6
 40
0.6
 40
0.6
 40
0.6
 40
1.0
 40
1.0
 40
1.0
 40
1.0
 10
2.3668
 20
19.6856
 30
0.0
 10
2.3668
 20
19.6856
 30
0.0
 10
2.4328
 20
18.7543
 30
0.0
 10
2.4328
 20
18.7543
 30
0.0
 10
2.4328
 20
18.7543
 30
0.0
 10
2.4328
 20
18.7543
 30
0.0
 10
2.6384
 20
18.7543
 30
0.0
 10
2.6384
 20
18.7543
 30
0.0
 10
2.6384
 20
18.7543
 30
0.0
 10
2.6384
 20
18.7543
 30
0.0
 10
2.7044
 20
19.6856
 30
0.0
 10
2.7044
 20
19.6856
 30
0.0
 10
2.7044
 20
19.6856
 30
0.0
 10
2.7044
 20
19.6856
 30
0.0
 10
2.3668
 20
19.6856
 30
0.0
 10
2.3668
 20
19.6856
 30
0.0
  0
SPLINE
  5
88
330
1F
100
AcDbEntity
  8
AXIS
 62
   250
100
AcDbSpline
210
0.0
220
0.0
230
1.0
 70
    11
 71
     3
 72
    36
 73
    32
 74
     0
 42
0.0000000001
 43
0.0000000001
 40
0.0
 40
0.0
 40
0.0
 40
0.0
 40
0.1111111111111111
 40
0.1111111111111111
 40
0.1111111111111111
 40
0.1111111111111111
 40
0.2222222222222222
 40
0.2222222222222222
 40
0.2222222222222222
 40
0.2222222222222222
 40
0.3333333333333333
 40
0.3333333333333333
 40
0.3333333333333333
 40
0.3333333333333333
 40
0.4444444444444444
 40
0.4444444444444444
 40
0.4444444444444444
 40
0.4444444444444444
 40
0.5555555555555556
 40
0.5555555555555556
 40
0.5555555555555556
 40
0.5555555555555556
 40
0.6666666666666666
 40
0.6666666666666666
 40
0.6666666666666666
 40
0.6666666666666666
 40
0.7777777777777778
 40
0.7777777777777778
 40
0.7777777777777778
 40
0.7777777777777778
 40
1.0
 40
1.0
 40
1.0
 40
1.0
 10
-2.8059
 20
17.0003
 30
0.0
 10
-2.8059
 20
17.0003
 30
0.0
 10
-2.4761
 20
17.0003
 30
0.0
 10
-2.4761
 20
17.0003
 30
0.0
 10
-2.4761
 20
17.0003
 30
0.0
 10
-2.4761
 20
17.0003
 30
0.0
 10
-2.4761
 20
19.5226
 30
0.0
 10
-2.4761
 20
19.5226
 30
0.0
 10
-2.4761
 20
19.5226
 30
0.0
 10
-2.4761
 20
19.5226
 30
0.0
 10
-2.7671
 20
19.5226
 30
0.0
 10
-2.7671
 20
19.5226
 30
0.0
 10
-2.7671
 20
19.5226
 30
0.0
 10
-2.7671
 20
19.5226
 30
0.0
 10
-3.3181
 20
19.2277
 30
0.0
 10
-3.3181
 20
19.2277
 30
0.0
 10
-3.3181
 20
19.2277
 30
0.0
 10
-3.3181
 20
19.2277
 30
0.0
 10
-3.2522
 20
18.9677
 30
0.0
 10
-3.2522
 20
18.9677
 30
0.0
 10
-3.2522
 20
18.9677
 30
0.0
 10
-3.2522
 20
18.9677
 30
0.0
 10
-2.8137
 20
19.2044
 30
0.0
 10
-2.8137
 20
19.2044
 30
0.0
 10
-2.8137
 20
19.2044
 30
0.0
 10
-2.8137
 20
19.2044
 30
0.0
 10
-2.8059
 20
19.2044
 30
0.0
 10
-2.8059
 20
19.2044
 30
0.0
 10
-2.8059
 20
19.2044
 30
0.0
 10
-2.8059
 20
19.2044
 30
0.0
 10
-2.8059
 20
17.0003
 30
0.0
 10
-2.8059
 20
17.0003
 30
0.0
  0
SPLINE
  5
89
330
1F
100
AcDbEntity
  8
AXIS
 62
   250
100
AcDbSpline
210
0.0
220
0.0
230
1.0
 70
    11
 71
     3
 72
   124
 73
   120
 74
     0
 42
0.0000000001
 43
0.0000000001
 40
0.0
 40
0.0
 40
0.0
 40
0.0
 40
0.032258064516129
 40
0.032258064516129
 40
0.032258064516129
 40
0.032258064516129
 40
0.0645161290322581
 40
0.0645161290322581
 40
0.0645161290322581
 40
0.0645161290322581
 40
0.0967741935483871
 40
0.0967741935483871
 40
0.0967741935483871
 40
0.0967741935483871
 40
0.1290322580645161
 40
0.1290322580645161
 40
0.1290322580645161
 40
0.1290322580645161
 40
0.1612903225806452
 40
0.1612903225806452
 40
0.1612903225806452
 40
0.1612903225806452
 40
0.1935483870967742
 40
0.1935483870967742
 40
0.1935483870967742
 40
0.1935483870967742
 40
0.2258064516129032
 40
0.2258064516129032
 40
0.2258064516129032
 40
0.2258064516129032
 40
0.2580645161290323
 40
0.2580645161290323
 40
0.2580645161290323
 40
0.2580645161290323
 40
0.2903225806451613
 40
0.2903225806451613
 40
0.2903225806451613
 40
0.2903225806451613
 40
0.3225806451612903
 40
0.3225806451612903
 40
0.3225806451612903
 40
0.3225806451612903
 40
0.3548387096774194
 40
0.3548387096774194
 40
0.3548387096774194
 40
0.3548387096774194
 40
0.3870967741935484
 40
0.3870967741935484
 40
0.3870967741935484
 40
0.3870967741935484
 40
0.4193548387096774
 40
0.4193548387096774
 40
0.4193548387096774
 40
0.4193548387096774
 40
0.4516129032258064
 40
0.4516129032258064
 40
0.4516129032258064
 40
0.4516129032258064
 40
0.4838709677419355
 40
0.4838709677419355
 40
0.4838709677419355
 40
0.4838709677419355
 40
0.5161290322580645
 40
0.5161290322580645
 40
0.5161290322580645
 40
0.5161290322580645
 40
0.5483870967741935
 40
0.5483870967741935
 40
0.5483870967741935
 40
0.5483870967741935
 40
0.5806451612903226
 40
0.5806451612903226
 40
0.5806451612903226
 40
0.5806451612903226
 40
0.6129032258064516
 40
0.6129032258064516
 40
0.6129032258064516
 40
0.6129032258064516
 40
0.6451612903225806
 40
0.6451612903225806
 40
0.6451612903225806
 40
0.6451612903225806
 40
0.6774193548387096
 40
0.6774193548387096
 40
0.6774193548387096
 40
0.6774193548387096
 40
0.7096774193548387
 40
0.7096774193548387
 40
0.7096774193548387
 40
0.7096774193548387
 40
0.7419354838709677
 40
0.7419354838709677
 40
0.7419354838709677
 40
0.7419354838709677
 40
0.7741935483870968
 40
0.7741935483870968
 40
0.7741935483870968
 40
0.7741935483870968
 40
0.8064516129032258
 40
0.8064516129032258
 40
0.8064516129032258
 40
0.8064516129032258
 40
0.8387096774193549
 40
0.8387096774193549
 40
0.8387096774193549
 40
0.8387096774193549
 40
0.8709677419354839
 40
0.8709677419354839
 40
0.8709677419354839
 40
0.8709677419354839
 40
0.9032258064516129
 40
0.9032258064516129
 40
0.9032258064516129
 40
0.9032258064516129
 40
0.9354838709677419
 40
0.9354838709677419
 40
0.9354838709677419
 40
0.9354838709677419
 40
1.0
 40
1.0
 40
1.0
 40
1.0
 10
1.385
 20
17.0003
 30
0.0
 10
1.385
 20
17.0003
 30
0.0
 10
1.385
 20
17.2836
 30
0.0
 10
1.385
 20
17.2836
 30
0.0
 10
1.385
 20
17.2836
 30
0.0
 10
1.385
 20
17.2836
 30
0.0
 10
0.2558
 20
17.2836
 30
0.0
 10
0.2558
 20
17.2836
 30
0.0
 10
0.2558
 20
17.2836
 30
0.0
 10
0.2558
 20
17.2836
 30
0.0
 10
0.2558
 20
17.2913
 30
0.0
 10
0.2558
 20
17.2913
 30
0.0
 10
0.2558
 20
17.2913
 30
0.0
 10
0.2558
 20
17.2913
 30
0.0
 10
0.4537
 20
17.4776
 30
0.0
 10
0.4537
 20
17.4776
 30
0.0
 10
0.4537
 20
17.4776
 30
0.0
 10
0.5869
 20
17.605
 30
0.0
 10
0.7072
 20
17.726
 30
0.0
 10
0.8139
 20
17.8398
 30
0.0
 10
0.8139
 20
17.8398
 30
0.0
 10
0.9207
 20
17.9536
 30
0.0
 10
1.0119
 20
18.0649
 30
0.0
 10
1.0875
 20
18.1722
 30
0.0
 10
1.0875
 20
18.1722
 30
0.0
 10
1.1638
 20
18.2796
 30
0.0
 10
1.2214
 20
18.3876
 30
0.0
 10
1.2621
 20
18.4962
 30
0.0
 10
1.2621
 20
18.4962
 30
0.0
 10
1.3022
 20
18.6042
 30
0.0
 10
1.3223
 20
18.7161
 30
0.0
 10
1.3229
 20
18.8319
 30
0.0
 10
1.3229
 20
18.8319
 30
0.0
 10
1.3229
 20
18.9231
 30
0.0
 10
1.3087
 20
19.0123
 30
0.0
 10
1.279
 20
19.099
 30
0.0
 10
1.279
 20
19.099
 30
0.0
 10
1.2492
 20
19.1857
 30
0.0
 10
1.2026
 20
19.2639
 30
0.0
 10
1.1406
 20
19.3338
 30
0.0
 10
1.1406
 20
19.3338
 30
0.0
 10
1.0785
 20
19.4043
 30
0.0
 10
0.9983
 20
19.4599
 30
0.0
 10
0.9006
 20
19.5013
 30
0.0
 10
0.9006
 20
19.5013
 30
0.0
 10
0.803
 20
19.5433
 30
0.0
 10
0.6865
 20
19.5647
 30
0.0
 10
0.5507
 20
19.5653
 30
0.0
 10
0.5507
 20
19.5653
 30
0.0
 10
0.455
 20
19.5647
 30
0.0
 10
0.3638
 20
19.5537
 30
0.0
 10
0.2771
 20
19.531
 30
0.0
 10
0.2771
 20
19.531
 30
0.0
 10
0.1905
 20
19.5084
 30
0.0
 10
0.1103
 20
19.478
 30
0.0
 10
0.0366
 20
19.4392
 30
0.0
 10
0.0366
 20
19.4392
 30
0.0
 10
-0.0365
 20
19.401
 30
0.0
 10
-0.1018
 20
19.3577
 30
0.0
 10
-0.1594
 20
19.3092
 30
0.0
 10
-0.1594
 20
19.3092
 30
0.0
 10
-0.1594
 20
19.3092
 30
0.0
 10
-0.0508
 20
19.0686
 30
0.0
 10
-0.0508
 20
19.0686
 30
0.0
 10
-0.0508
 20
19.0686
 30
0.0
 10
-0.0119
 20
19.1016
 30
0.0
 10
0.0346
 20
19.1346
 30
0.0
 10
0.0889
 20
19.1669
 30
0.0
 10
0.0889
 20
19.1669
 30
0.0
 10
0.1433
 20
19.1999
 30
0.0
 10
0.2034
 20
19.2264
 30
0.0
 10
0.27
 20
19.2484
 30
0.0
 10
0.27
 20
19.2484
 30
0.0
 10
0.3366
 20
19.2697
 30
0.0
 10
0.4084
 20
19.2814
 30
0.0
 10
0.4848
 20
19.282
 30
0.0
 10
0.4848
 20
19.282
 30
0.0
 10
0.5785
 20
19.2814
 30
0.0
 10
0.6574
 20
19.2678
 30
0.0
 10
0.7215
 20
19.2413
 30
0.0
 10
0.7215
 20
19.2413
 30
0.0
 10
0.7848
 20
19.2141
 30
0.0
 10
0.8359
 20
19.1779
 30
0.0
 10
0.8741
 20
19.132
 30
0.0
 10
0.8741
 20
19.132
 30
0.0
 10
0.9123
 20
19.0854
 30
0.0
 10
0.9401
 20
19.033
 30
0.0
 10
0.9569
 20
18.9742
 30
0.0
 10
0.9569
 20
18.9742
 30
0.0
 10
0.9737
 20
18.9153
 30
0.0
 10
0.9821
 20
18.8539
 30
0.0
 10
0.9815
 20
18.7892
 30
0.0
 10
0.9815
 20
18.7892
 30
0.0
 10
0.9815
 20
18.6948
 30
0.0
 10
0.9627
 20
18.6017
 30
0.0
 10
0.9252
 20
18.5092
 30
0.0
 10
0.9252
 20
18.5092
 30
0.0
 10
0.8877
 20
18.416
 30
0.0
 10
0.8308
 20
18.319
 30
0.0
 10
0.7538
 20
18.2168
 30
0.0
 10
0.7538
 20
18.2168
 30
0.0
 10
0.6768
 20
18.1147
 30
0.0
 10
0.5792
 20
18.0028
 30
0.0
 10
0.4608
 20
17.8812
 30
0.0
 10
0.4608
 20
17.8812
 30
0.0
 10
0.3431
 20
17.7596
 30
0.0
 10
0.2034
 20
17.6225
 30
0.0
 10
0.0424
 20
17.4698
 30
0.0
 10
0.0424
 20
17.4698
 30
0.0
 10
0.0424
 20
17.4698
 30
0.0
 10
-0.2254
 20
17.2098
 30
0.0
 10
-0.2254
 20
17.2098
 30
0.0
 10
-0.2254
 20
17.2098
 30
0.0
 10
-0.2254
 20
17.2098
 30
0.0
 10
-0.2254
 20
17.0003
 30
0.0
 10
-0.2254
 20
17.0003
 30
0.0
 10
-0.2254
 20
17.0003
 30
0.0
 10
-0.2254
 20
17.0003
 30
0.0
 10
1.385
 20
17.0003
 30
0.0
 10
1.385
 20
17.0003
 30
0.0
  0
SPLINE
  5
8A
330
1F
100
AcDbEntity
  8
AXIS
 62
   250
370
    15
100
AcDbSpline
210
0.0
220
0.0
230
1.0
 70
    24
 71
     3
 72
     8
 73
     4
 74
     0
 42
0.0000000001
 43
0.0000000001
 40
0.0
 40
0.0
 40
0.0
 40
0.0
 40
1.0
 40
1.0
 40
1.0
 40
1.0
 10
2.6277
 20
13.9688
 30
0.0
 10
2.6277
 20
13.9688
 30
0.0
 10
2.6277
 20
16.7029
 30
0.0
 10
2.6277
 20
16.7029
 30
0.0
  0
SPLINE
  5
8B
330
1F
100
AcDbEntity
  8
AXIS
 62
   250
370
    15
100
AcDbSpline
210
0.0
220
0.0
230
1.0
 70
    24
 71
     3
 72
     8
 73
     4
 74
     0
 42
0.0000000001
 43
0.0000000001
 40
0.0
 40
0.0
 40
0.0
 40
0.0
 40
1.0
 40
1.0
 40
1.0
 40
1.0
 10
-7.7401
 20
14.024
 30
0.0
 10
-7.7401
 20
14.024
 30
0.0
 10
-7.7401
 20
16.6809
 30
0.0
 10
-7.7401
 20
16.6809
 30
0.0
  0
SPLINE
  5
8C
330
1F
100
AcDbEntity
  8
AXIS
 62
   250
370
    15
100
AcDbSpline
210
0.0
220
0.0
230
1.0
 70
    24
 71
     3
 72
     8
 73
     4
 74
     0
 42
0.0000000001
 43
0.0000000001
 40
0.0
 40
0.0
 40
0.0
 40
0.0
 40
1.0
 40
1.0
 40
1.0
 40
1.0
 10
-9.8727
 20
16.3551
 30
0.0
 10
-9.8727
 20
16.3551
 30
0.0
 10
4.5032
 20
16.3551
 30
0.0
 10
4.5032
 20
16.3551
 30
0.0
  0
SPLINE
  5
8D
330
1F
100
AcDbEntity
  8
AXIS
 62
   250
370
     9
100
AcDbSpline
210
0.0
220
0.0
230
1.0
 70
    11
 71
     3
 72
    32
 73
    28
 74
     0
 42
0.0000000001
 43
0.0000000001
 40
0.0
 40
0.0
 40
0.0
 40
0.0
 40
0.125
 40
0.125
 40
0.125
 40
0.125
 40
0.25
 40
0.25
 40
0.25
 40
0.25
 40
0.375
 40
0.375
 40
0.375
 40
0.375
 40
0.5
 40
0.5
 40
0.5
 40
0.5
 40
0.625
 40
0.625
 40
0.625
 40
0.625
 40
0.75
 40
0.75
 40
0.75
 40
0.75
 40
1.0
 40
1.0
 40
1.0
 40
1.0
 10
14.205
 20
-19.3506
 30
0.0
 10
14.205
 20
-19.3506
 30
0.0
 10
14.205
 20
-19.3506
 30
0.0
 10
14.205
 20
-19.3506
 30
0.0
 10
14.205
 20
-19.3506
 30
0.0
 10
14.205
 20
-19.3506
 30
0.0
 10
14.205
 20
-19.3506
 30
0.0
 10
14.205
 20
-19.3506
 30
0.0
 10
14.205
 20
-19.3506
 30
0.0
 10
14.205
 20
-19.3506
 30
0.0
 10
15.4778
 20
-18.9072
 30
0.0
 10
15.4778
 20
-18.9072
 30
0.0
 10
15.4778
 20
-18.9072
 30
0.0
 10
15.4778
 20
-18.9072
 30
0.0
 10
14.205
 20
-18.4638
 30
0.0
 10
14.205
 20
-18.4638
 30
0.0
 10
14.205
 20
-18.4638
 30
0.0
 10
14.205
 20
-18.4638
 30
0.0
 10
14.205
 20
-18.4638
 30
0.0
 10
14.205
 20
-18.4638
 30
0.0
 10
14.205
 20
-18.4638
 30
0.0
 10
14.205
 20
-18.4638
 30
0.0
 10
14.205
 20
-18.4638
 30
0.0
 10
14.205
 20
-18.4638
 30
0.0
 10
14.205
 20
-18.4638
 30
0.0
 10
14.205
 20
-18.4638
 30
0.0
 10
14.205
 20
-19.3506
 30
0.0
 10
14.205
 20
-19.3506
 30
0.0
  0
SPLINE
  5
8E
330
1F
100
AcDbEntity
  8
AXIS
 62
   250
370
     9
100
AcDbSpline
210
0.0
220
0.0
230
1.0
 70
    11
 71
     3
 72
    32
 73
    28
 74
     0
 42
0.0000000001
 43
0.0000000001
 40
0.0
 40
0.0
 40
0.0
 40
0.0
 40
0.125
 40
0.125
 40
0.125
 40
0.125
 40
0.25
 40
0.25
 40
0.25
 40
0.25
 40
0.375
 40
0.375
 40
0.375
 40
0.375
 40
0.5
 40
0.5
 40
0.5
 40
0.5
 40
0.625
 40
0.625
 40
0.625
 40
0.625
 40
0.75
 40
0.75
 40
0.75
 40
0.75
 40
1.0
 40
1.0
 40
1.0
 40
1.0
 10
14.2491
 20
-15.426
 30
0.0
 10
14.2491
 20
-15.426
 30
0.0
 10
14.2491
 20
-15.426
 30
0.0
 10
14.2491
 20
-15.426
 30
0.0
 10
14.2491
 20
-15.426
 30
0.0
 10
14.2491
 20
-15.426
 30
0.0
 10
14.2491
 20
-15.426
 30
0.0
 10
14.2491
 20
-15.426
 30
0.0
 10
14.2491
 20
-15.426
 30
0.0
 10
14.2491
 20
-15.426
 30
0.0
 10
15.5219
 20
-14.9826
 30
0.0
 10
15.5219
 20
-14.9826
 30
0.0
 10
15.5219
 20
-14.9826
 30
0.0
 10
15.5219
 20
-14.9826
 30
0.0
 10
14.2491
 20
-14.5392
 30
0.0
 10
14.2491
 20
-14.5392
 30
0.0
 10
14.2491
 20
-14.5392
 30
0.0
 10
14.2491
 20
-14.5392
 30
0.0
 10
14.2491
 20
-14.5392
 30
0.0
 10
14.2491
 20
-14.5392
 30
0.0
 10
14.2491
 20
-14.5392
 30
0.0
 10
14.2491
 20
-14.5392
 30
0.0
 10
14.2491
 20
-14.5392
 30
0.0
 10
14.2491
 20
-14.5392
 30
0.0
 10
14.2491
 20
-14.5392
 30
0.0
 10
14.2491
 20
-14.5392
 30
0.0
 10
14.2491
 20
-15.426
 30
0.0
 10
14.2491
 20
-15.426
 30
0.0
  0
SPLINE
  5
8F
330
1F
100
AcDbEntity
  8
AXIS
 62
   250
370
     9
100
AcDbSpline
210
0.0
220
0.0
230
1.0
 70
    11
 71
     3
 72
    32
 73
    28
 74
     0
 42
0.0000000001
 43
0.0000000001
 40
0.0
 40
0.0
 40
0.0
 40
0.0
 40
0.125
 40
0.125
 40
0.125
 40
0.125
 40
0.25
 40
0.25
 40
0.25
 40
0.25
 40
0.375
 40
0.375
 40
0.375
 40
0.375
 40
0.5
 40
0.5
 40
0.5
 40
0.5
 40
0.625
 40
0.625
 40
0.625
 40
0.625
 40
0.75
 40
0.75
 40
0.75
 40
0.75
 40
1.0
 40
1.0
 40
1.0
 40
1.0
 10
-22.0838
 20
-5.8086
 30
0.0
 10
-22.0838
 20
-5.8086
 30
0.0
 10
-22.0838
 20
-5.8086
 30
0.0
 10
-22.0838
 20
-5.8086
 30
0.0
 10
-22.0838
 20
-5.8086
 30
0.0
 10
-22.0838
 20
-5.8086
 30
0.0
 10
-22.0838
 20
-5.8086
 30
0.0
 10
-22.0838
 20
-5.8086
 30
0.0
 10
-22.0838
 20
-5.8086
 30
0.0
 10
-22.0838
 20
-5.8086
 30
0.0
 10
-22.5272
 20
-4.5358
 30
0.0
 10
-22.5272
 20
-4.5358
 30
0.0
 10
-22.5272
 20
-4.5358
 30
0.0
 10
-22.5272
 20
-4.5358
 30
0.0
 10
-22.9706
 20
-5.8086
 30
0.0
 10
-22.9706
 20
-5.8086
 30
0.0
 10
-22.9706
 20
-5.8086
 30
0.0
 10
-22.9706
 20
-5.8086
 30
0.0
 10
-22.9706
 20
-5.8086
 30
0.0
 10
-22.9706
 20
-5.8086
 30
0.0
 10
-22.9706
 20
-5.8086
 30
0.0
 10
-22.9706
 20
-5.8086
 30
0.0
 10
-22.9706
 20
-5.8086
 30
0.0
 10
-22.9706
 20
-5.8086
 30
0.0
 10
-22.9706
 20
-5.8086
 30
0.0
 10
-22.9706
 20
-5.8086
 30
0.0
 10
-22.0838
 20
-5.8086
 30
0.0
 10
-22.0838
 20
-5.8086
 30
0.0
  0
SPLINE
  5
90
330
1F
100
AcDbEntity
  8
AXIS
 62
   250
370
     9
100
AcDbSpline
210
0.0
220
0.0
230
1.0
 70
    11
 71
     3
 72
    32
 73
    28
 74
     0
 42
0.0000000001
 43
0.0000000001
 40
0.0
 40
0.0
 40
0.0
 40
0.0
 40
0.125
 40
0.125
 40
0.125
 40
0.125
 40
0.25
 40
0.25
 40
0.25
 40
0.25
 40
0.375
 40
0.375
 40
0.375
 40
0.375
 40
0.5
 40
0.5
 40
0.5
 40
0.5
 40
0.625
 40
0.625
 40
0.625
 40
0.625
 40
0.75
 40
0.75
 40
0.75
 40
0.75
 40
1.0
 40
1.0
 40
1.0
 40
1.0
 10
3.9446
 20
16.8153
 30
0.0
 10
3.9446
 20
16.8153
 30
0.0
 10
3.9446
 20
16.8153
 30
0.0
 10
3.9446
 20
16.8153
 30
0.0
 10
3.9446
 20
16.8153
 30
0.0
 10
3.9446
 20
16.8153
 30
0.0
 10
3.9446
 20
16.8153
 30
0.0
 10
3.9446
 20
16.8153
 30
0.0
 10
3.9446
 20
16.8153
 30
0.0
 10
3.9446
 20
16.8153
 30
0.0
 10
2.6718
 20
16.3719
 30
0.0
 10
2.6718
 20
16.3719
 30
0.0
 10
2.6718
 20
16.3719
 30
0.0
 10
2.6718
 20
16.3719
 30
0.0
 10
3.9446
 20
15.9285
 30
0.0
 10
3.9446
 20
15.9285
 30
0.0
 10
3.9446
 20
15.9285
 30
0.0
 10
3.9446
 20
15.9285
 30
0.0
 10
3.9446
 20
15.9285
 30
0.0
 10
3.9446
 20
15.9285
 30
0.0
 10
3.9446
 20
15.9285
 30
0.0
 10
3.9446
 20
15.9285
 30
0.0
 10
3.9446
 20
15.9285
 30
0.0
 10
3.9446
 20
15.9285
 30
0.0
 10
3.9446
 20
15.9285
 30
0.0
 10
3.9446
 20
15.9285
 30
0.0
 10
3.9446
 20
16.8153
 30
0.0
 10
3.9446
 20
16.8153
 30
0.0
  0
SPLINE
  5
91
330
1F
100
AcDbEntity
  8
AXIS
 62
   250
370
     9
100
AcDbSpline
210
0.0
220
0.0
230
1.0
 70
    11
 71
     3
 72
    32
 73
    28
 74
     0
 42
0.0000000001
 43
0.0000000001
 40
0.0
 40
0.0
 40
0.0
 40
0.0
 40
0.125
 40
0.125
 40
0.125
 40
0.125
 40
0.25
 40
0.25
 40
0.25
 40
0.25
 40
0.375
 40
0.375
 40
0.375
 40
0.375
 40
0.5
 40
0.5
 40
0.5
 40
0.5
 40
0.625
 40
0.625
 40
0.625
 40
0.625
 40
0.75
 40
0.75
 40
0.75
 40
0.75
 40
1.0
 40
1.0
 40
1.0
 40
1.0
 10
20.9665
 20
-5.4781
 30
0.0
 10
20.9665
 20
-5.4781
 30
0.0
 10
20.9665
 20
-5.4781
 30
0.0
 10
20.9665
 20
-5.4781
 30
0.0
 10
20.9665
 20
-5.4781
 30
0.0
 10
20.9665
 20
-5.4781
 30
0.0
 10
20.9665
 20
-5.4781
 30
0.0
 10
20.9665
 20
-5.4781
 30
0.0
 10
20.9665
 20
-5.4781
 30
0.0
 10
20.9665
 20
-5.4781
 30
0.0
 10
20.5231
 20
-4.2053
 30
0.0
 10
20.5231
 20
-4.2053
 30
0.0
 10
20.5231
 20
-4.2053
 30
0.0
 10
20.5231
 20
-4.2053
 30
0.0
 10
20.0797
 20
-5.4781
 30
0.0
 10
20.0797
 20
-5.4781
 30
0.0
 10
20.0797
 20
-5.4781
 30
0.0
 10
20.0797
 20
-5.4781
 30
0.0
 10
20.0797
 20
-5.4781
 30
0.0
 10
20.0797
 20
-5.4781
 30
0.0
 10
20.0797
 20
-5.4781
 30
0.0
 10
20.0797
 20
-5.4781
 30
0.0
 10
20.0797
 20
-5.4781
 30
0.0
 10
20.0797
 20
-5.4781
 30
0.0
 10
20.0797
 20
-5.4781
 30
0.0
 10
20.0797
 20
-5.4781
 30
0.0
 10
20.9665
 20
-5.4781
 30
0.0
 10
20.9665
 20
-5.4781
 30
0.0
  0
SPLINE
  5
92
330
1F
100
AcDbEntity
  8
AXIS
 62
   250
370
     9
100
AcDbSpline
210
0.0
220
0.0
230
1.0
 70
    11
 71
     3
 72
    32
 73
    28
 74
     0
 42
0.0000000001
 43
0.0000000001
 40
0.0
 40
0.0
 40
0.0
 40
0.0
 40
0.125
 40
0.125
 40
0.125
 40
0.125
 40
0.25
 40
0.25
 40
0.25
 40
0.25
 40
0.375
 40
0.375
 40
0.375
 40
0.375
 40
0.5
 40
0.5
 40
0.5
 40
0.5
 40
0.625
 40
0.625
 40
0.625
 40
0.625
 40
0.75
 40
0.75
 40
0.75
 40
0.75
 40
1.0
 40
1.0
 40
1.0
 40
1.0
 10
25.729
 20
11.5654
 30
0.0
 10
25.729
 20
11.5654
 30
0.0
 10
25.729
 20
11.5654
 30
0.0
 10
25.729
 20
11.5654
 30
0.0
 10
25.729
 20
11.5654
 30
0.0
 10
25.729
 20
11.5654
 30
0.0
 10
25.729
 20
11.5654
 30
0.0
 10
25.729
 20
11.5654
 30
0.0
 10
25.729
 20
11.5654
 30
0.0
 10
25.729
 20
11.5654
 30
0.0
 10
25.2856
 20
12.8382
 30
0.0
 10
25.2856
 20
12.8382
 30
0.0
 10
25.2856
 20
12.8382
 30
0.0
 10
25.2856
 20
12.8382
 30
0.0
 10
24.8422
 20
11.5654
 30
0.0
 10
24.8422
 20
11.5654
 30
0.0
 10
24.8422
 20
11.5654
 30
0.0
 10
24.8422
 20
11.5654
 30
0.0
 10
24.8422
 20
11.5654
 30
0.0
 10
24.8422
 20
11.5654
 30
0.0
 10
24.8422
 20
11.5654
 30
0.0
 10
24.8422
 20
11.5654
 30
0.0
 10
24.8422
 20
11.5654
 30
0.0
 10
24.8422
 20
11.5654
 30
0.0
 10
24.8422
 20
11.5654
 30
0.0
 10
24.8422
 20
11.5654
 30
0.0
 10
25.729
 20
11.5654
 30
0.0
 10
25.729
 20
11.5654
 30
0.0
  0
SPLINE
  5
93
330
1F
100
AcDbEntity
  8
AXIS
 62
   250
370
     9
100
AcDbSpline
210
0.0
220
0.0
230
1.0
 70
    11
 71
     3
 72
    32
 73
    28
 74
     0
 42
0.0000000001
 43
0.0000000001
 40
0.0
 40
0.0
 40
0.0
 40
0.0
 40
0.125
 40
0.125
 40
0.125
 40
0.125
 40
0.25
 40
0.25
 40
0.25
 40
0.25
 40
0.375
 40
0.375
 40
0.375
 40
0.375
 40
0.5
 40
0.5
 40
0.5
 40
0.5
 40
0.625
 40
0.625
 40
0.625
 40
0.625
 40
0.75
 40
0.75
 40
0.75
 40
0.75
 40
1.0
 40
1.0
 40
1.0
 40
1.0
 10
-22.0672
 20
7.7012
 30
0.0
 10
-22.0672
 20
7.7012
 30
0.0
 10
-22.0672
 20
7.7012
 30
0.0
 10
-22.0672
 20
7.7012
 30
0.0
 10
-22.0672
 20
7.7012
 30
0.0
 10
-22.0672
 20
7.7012
 30
0.0
 10
-22.0672
 20
7.7012
 30
0.0
 10
-22.0672
 20
7.7012
 30
0.0
 10
-22.0672
 20
7.7012
 30
0.0
 10
-22.0672
 20
7.7012
 30
0.0
 10
-22.5106
 20
6.4284
 30
0.0
 10
-22.5106
 20
6.4284
 30
0.0
 10
-22.5106
 20
6.4284
 30
0.0
 10
-22.5106
 20
6.4284
 30
0.0
 10
-22.954
 20
7.7012
 30
0.0
 10
-22.954
 20
7.7012
 30
0.0
 10
-22.954
 20
7.7012
 30
0.0
 10
-22.954
 20
7.7012
 30
0.0
 10
-22.954
 20
7.7012
 30
0.0
 10
-22.954
 20
7.7012
 30
0.0
 10
-22.954
 20
7.7012
 30
0.0
 10
-22.954
 20
7.7012
 30
0.0
 10
-22.954
 20
7.7012
 30
0.0
 10
-22.954
 20
7.7012
 30
0.0
 10
-22.954
 20
7.7012
 30
0.0
 10
-22.954
 20
7.7012
 30
0.0
 10
-22.0672
 20
7.7012
 30
0.0
 10
-22.0672
 20
7.7012
 30
0.0
  0
SPLINE
  5
94
330
1F
100
AcDbEntity
  8
AXIS
 62
   250
370
     9
100
AcDbSpline
210
0.0
220
0.0
230
1.0
 70
    11
 71
     3
 72
    32
 73
    28
 74
     0
 42
0.0000000001
 43
0.0000000001
 40
0.0
 40
0.0
 40
0.0
 40
0.0
 40
0.125
 40
0.125
 40
0.125
 40
0.125
 40
0.25
 40
0.25
 40
0.25
 40
0.25
 40
0.375
 40
0.375
 40
0.375
 40
0.375
 40
0.5
 40
0.5
 40
0.5
 40
0.5
 40
0.625
 40
0.625
 40
0.625
 40
0.625
 40
0.75
 40
0.75
 40
0.75
 40
0.75
 40
1.0
 40
1.0
 40
1.0
 40
1.0
 10
-9.0635
 20
16.8098
 30
0.0
 10
-9.0635
 20
16.8098
 30
0.0
 10
-9.0635
 20
16.8098
 30
0.0
 10
-9.0635
 20
16.8098
 30
0.0
 10
-9.0635
 20
16.8098
 30
0.0
 10
-9.0635
 20
16.8098
 30
0.0
 10
-9.0635
 20
16.8098
 30
0.0
 10
-9.0635
 20
16.8098
 30
0.0
 10
-9.0635
 20
16.8098
 30
0.0
 10
-9.0635
 20
16.8098
 30
0.0
 10
-7.7907
 20
16.3664
 30
0.0
 10
-7.7907
 20
16.3664
 30
0.0
 10
-7.7907
 20
16.3664
 30
0.0
 10
-7.7907
 20
16.3664
 30
0.0
 10
-9.0635
 20
15.923
 30
0.0
 10
-9.0635
 20
15.923
 30
0.0
 10
-9.0635
 20
15.923
 30
0.0
 10
-9.0635
 20
15.923
 30
0.0
 10
-9.0635
 20
15.923
 30
0.0
 10
-9.0635
 20
15.923
 30
0.0
 10
-9.0635
 20
15.923
 30
0.0
 10
-9.0635
 20
15.923
 30
0.0
 10
-9.0635
 20
15.923
 30
0.0
 10
-9.0635
 20
15.923
 30
0.0
 10
-9.0635
 20
15.923
 30
0.0
 10
-9.0635
 20
15.923
 30
0.0
 10
-9.0635
 20
16.8098
 30
0.0
 10
-9.0635
 20
16.8098
 30
0.0
  0
SPLINE
  5
95
330
1F
100
AcDbEntity
  8
AXIS
 62
   250
370
     9
100
AcDbSpline
210
0.0
220
0.0
230
1.0
 70
    11
 71
     3
 72
    32
 73
    28
 74
     0
 42
0.0000000001
 43
0.0000000001
 40
0.0
 40
0.0
 40
0.0
 40
0.0
 40
0.125
 40
0.125
 40
0.125
 40
0.125
 40
0.25
 40
0.25
 40
0.25
 40
0.25
 40
0.375
 40
0.375
 40
0.375
 40
0.375
 40
0.5
 40
0.5
 40
0.5
 40
0.5
 40
0.625
 40
0.625
 40
0.625
 40
0.625
 40
0.75
 40
0.75
 40
0.75
 40
0.75
 40
1.0
 40
1.0
 40
1.0
 40
1.0
 10
20.961
 20
7.3262
 30
0.0
 10
20.961
 20
7.3262
 30
0.0
 10
20.961
 20
7.3262
 30
0.0
 10
20.961
 20
7.3262
 30
0.0
 10
20.961
 20
7.3262
 30
0.0
 10
20.961
 20
7.3262
 30
0.0
 10
20.961
 20
7.3262
 30
0.0
 10
20.961
 20
7.3262
 30
0.0
 10
20.961
 20
7.3262
 30
0.0
 10
20.961
 20
7.3262
 30
0.0
 10
20.5176
 20
6.0534
 30
0.0
 10
20.5176
 20
6.0534
 30
0.0
 10
20.5176
 20
6.0534
 30
0.0
 10
20.5176
 20
6.0534
 30
0.0
 10
20.0742
 20
7.3262
 30
0.0
 10
20.0742
 20
7.3262
 30
0.0
 10
20.0742
 20
7.3262
 30
0.0
 10
20.0742
 20
7.3262
 30
0.0
 10
20.0742
 20
7.3262
 30
0.0
 10
20.0742
 20
7.3262
 30
0.0
 10
20.0742
 20
7.3262
 30
0.0
 10
20.0742
 20
7.3262
 30
0.0
 10
20.0742
 20
7.3262
 30
0.0
 10
20.0742
 20
7.3262
 30
0.0
 10
20.0742
 20
7.3262
 30
0.0
 10
20.0742
 20
7.3262
 30
0.0
 10
20.961
 20
7.3262
 30
0.0
 10
20.961
 20
7.3262
 30
0.0
  0
SPLINE
  5
96
330
1F
100
AcDbEntity
  8
AXIS
 62
   250
370
     9
100
AcDbSpline
210
0.0
220
0.0
230
1.0
 70
    11
 71
     3
 72
    32
 73
    28
 74
     0
 42
0.0000000001
 43
0.0000000001
 40
0.0
 40
0.0
 40
0.0
 40
0.0
 40
0.125
 40
0.125
 40
0.125
 40
0.125
 40
0.25
 40
0.25
 40
0.25
 40
0.25
 40
0.375
 40
0.375
 40
0.375
 40
0.375
 40
0.5
 40
0.5
 40
0.5
 40
0.5
 40
0.625
 40
0.625
 40
0.625
 40
0.625
 40
0.75
 40
0.75
 40
0.75
 40
0.75
 40
1.0
 40
1.0
 40
1.0
 40
1.0
 10
25.7345
 20
-9.6183
 30
0.0
 10
25.7345
 20
-9.6183
 30
0.0
 10
25.7345
 20
-9.6183
 30
0.0
 10
25.7345
 20
-9.6183
 30
0.0
 10
25.7345
 20
-9.6183
 30
0.0
 10
25.7345
 20
-9.6183
 30
0.0
 10
25.7345
 20
-9.6183
 30
0.0
 10
25.7345
 20
-9.6183
 30
0.0
 10
25.7345
 20
-9.6183
 30
0.0
 10
25.7345
 20
-9.6183
 30
0.0
 10
25.2911
 20
-10.8911
 30
0.0
 10
25.2911
 20
-10.8911
 30
0.0
 10
25.2911
 20
-10.8911
 30
0.0
 10
25.2911
 20
-10.8911
 30
0.0
 10
24.8477
 20
-9.6183
 30
0.0
 10
24.8477
 20
-9.6183
 30
0.0
 10
24.8477
 20
-9.6183
 30
0.0
 10
24.8477
 20
-9.6183
 30
0.0
 10
24.8477
 20
-9.6183
 30
0.0
 10
24.8477
 20
-9.6183
 30
0.0
 10
24.8477
 20
-9.6183
 30
0.0
 10
24.8477
 20
-9.6183
 30
0.0
 10
24.8477
 20
-9.6183
 30
0.0
 10
24.8477
 20
-9.6183
 30
0.0
 10
24.8477
 20
-9.6183
 30
0.0
 10
24.8477
 20
-9.6183
 30
0.0
 10
25.7345
 20
-9.6183
 30
0.0
 10
25.7345
 20
-9.6183
 30
0.0
  0
SPLINE
  5
97
330
1F
100
AcDbEntity
  8
AXIS
 62
   250
370
     9
100
AcDbSpline
210
0.0
220
0.0
230
1.0
 70
    11
 71
     3
 72
    32
 73
    28
 74
     0
 42
0.0000000001
 43
0.0000000001
 40
0.0
 40
0.0
 40
0.0
 40
0.0
 40
0.125
 40
0.125
 40
0.125
 40
0.125
 40
0.25
 40
0.25
 40
0.25
 40
0.25
 40
0.375
 40
0.375
 40
0.375
 40
0.375
 40
0.5
 40
0.5
 40
0.5
 40
0.5
 40
0.625
 40
0.625
 40
0.625
 40
0.625
 40
0.75
 40
0.75
 40
0.75
 40
0.75
 40
1.0
 40
1.0
 40
1.0
 40
1.0
 10
-18.2129
 20
-19.3509
 30
0.0
 10
-18.2129
 20
-19.3509
 30
0.0
 10
-18.2129
 20
-19.3509
 30
0.0
 10
-18.2129
 20
-19.3509
 30
0.0
 10
-18.2129
 20
-19.3509
 30
0.0
 10
-18.2129
 20
-19.3509
 30
0.0
 10
-18.2129
 20
-19.3509
 30
0.0
 10
-18.2129
 20
-19.3509
 30
0.0
 10
-18.2129
 20
-19.3509
 30
0.0
 10
-18.2129
 20
-19.3509
 30
0.0
 10
-19.4857
 20
-18.9075
 30
0.0
 10
-19.4857
 20
-18.9075
 30
0.0
 10
-19.4857
 20
-18.9075
 30
0.0
 10
-19.4857
 20
-18.9075
 30
0.0
 10
-18.2129
 20
-18.4641
 30
0.0
 10
-18.2129
 20
-18.4641
 30
0.0
 10
-18.2129
 20
-18.4641
 30
0.0
 10
-18.2129
 20
-18.4641
 30
0.0
 10
-18.2129
 20
-18.4641
 30
0.0
 10
-18.2129
 20
-18.4641
 30
0.0
 10
-18.2129
 20
-18.4641
 30
0.0
 10
-18.2129
 20
-18.4641
 30
0.0
 10
-18.2129
 20
-18.4641
 30
0.0
 10
-18.2129
 20
-18.4641
 30
0.0
 10
-18.2129
 20
-18.4641
 30
0.0
 10
-18.2129
 20
-18.4641
 30
0.0
 10
-18.2129
 20
-19.3509
 30
0.0
 10
-18.2129
 20
-19.3509
 30
0.0
  0
SPLINE
  5
98
330
1F
100
AcDbEntity
  8
AXIS
 62
   250
370
     9
100
AcDbSpline
210
0.0
220
0.0
230
1.0
 70
    11
 71
     3
 72
    32
 73
    28
 74
     0
 42
0.0000000001
 43
0.0000000001
 40
0.0
 40
0.0
 40
0.0
 40
0.0
 40
0.125
 40
0.125
 40
0.125
 40
0.125
 40
0.25
 40
0.25
 40
0.25
 40
0.25
 40
0.375
 40
0.375
 40
0.375
 40
0.375
 40
0.5
 40
0.5
 40
0.5
 40
0.5
 40
0.625
 40
0.625
 40
0.625
 40
0.625
 40
0.75
 40
0.75
 40
0.75
 40
0.75
 40
1.0
 40
1.0
 40
1.0
 40
1.0
 10
6.0847
 20
-15.4924
 30
0.0
 10
6.0847
 20
-15.4924
 30
0.0
 10
6.0847
 20
-15.4924
 30
0.0
 10
6.0847
 20
-15.4924
 30
0.0
 10
6.0847
 20
-15.4924
 30
0.0
 10
6.0847
 20
-15.4924
 30
0.0
 10
6.0847
 20
-15.4924
 30
0.0
 10
6.0847
 20
-15.4924
 30
0.0
 10
6.0847
 20
-15.4924
 30
0.0
 10
6.0847
 20
-15.4924
 30
0.0
 10
4.8119
 20
-15.049
 30
0.0
 10
4.8119
 20
-15.049
 30
0.0
 10
4.8119
 20
-15.049
 30
0.0
 10
4.8119
 20
-15.049
 30
0.0
 10
6.0847
 20
-14.6056
 30
0.0
 10
6.0847
 20
-14.6056
 30
0.0
 10
6.0847
 20
-14.6056
 30
0.0
 10
6.0847
 20
-14.6056
 30
0.0
 10
6.0847
 20
-14.6056
 30
0.0
 10
6.0847
 20
-14.6056
 30
0.0
 10
6.0847
 20
-14.6056
 30
0.0
 10
6.0847
 20
-14.6056
 30
0.0
 10
6.0847
 20
-14.6056
 30
0.0
 10
6.0847
 20
-14.6056
 30
0.0
 10
6.0847
 20
-14.6056
 30
0.0
 10
6.0847
 20
-14.6056
 30
0.0
 10
6.0847
 20
-15.4924
 30
0.0
 10
6.0847
 20
-15.4924
 30
0.0
  0
SPLINE
  5
99
330
1F
100
AcDbEntity
  8
AXIS
 62
   250
370
     9
100
AcDbSpline
210
0.0
220
0.0
230
1.0
 70
    11
 71
     3
 72
    32
 73
    28
 74
     0
 42
0.0000000001
 43
0.0000000001
 40
0.0
 40
0.0
 40
0.0
 40
0.0
 40
0.125
 40
0.125
 40
0.125
 40
0.125
 40
0.25
 40
0.25
 40
0.25
 40
0.25
 40
0.375
 40
0.375
 40
0.375
 40
0.375
 40
0.5
 40
0.5
 40
0.5
 40
0.5
 40
0.625
 40
0.625
 40
0.625
 40
0.625
 40
0.75
 40
0.75
 40
0.75
 40
0.75
 40
1.0
 40
1.0
 40
1.0
 40
1.0
 10
-3.8533
 20
-15.4704
 30
0.0
 10
-3.8533
 20
-15.4704
 30
0.0
 10
-3.8533
 20
-15.4704
 30
0.0
 10
-3.8533
 20
-15.4704
 30
0.0
 10
-3.8533
 20
-15.4704
 30
0.0
 10
-3.8533
 20
-15.4704
 30
0.0
 10
-3.8533
 20
-15.4704
 30
0.0
 10
-3.8533
 20
-15.4704
 30
0.0
 10
-3.8533
 20
-15.4704
 30
0.0
 10
-3.8533
 20
-15.4704
 30
0.0
 10
-2.5805
 20
-15.027
 30
0.0
 10
-2.5805
 20
-15.027
 30
0.0
 10
-2.5805
 20
-15.027
 30
0.0
 10
-2.5805
 20
-15.027
 30
0.0
 10
-3.8533
 20
-14.5836
 30
0.0
 10
-3.8533
 20
-14.5836
 30
0.0
 10
-3.8533
 20
-14.5836
 30
0.0
 10
-3.8533
 20
-14.5836
 30
0.0
 10
-3.8533
 20
-14.5836
 30
0.0
 10
-3.8533
 20
-14.5836
 30
0.0
 10
-3.8533
 20
-14.5836
 30
0.0
 10
-3.8533
 20
-14.5836
 30
0.0
 10
-3.8533
 20
-14.5836
 30
0.0
 10
-3.8533
 20
-14.5836
 30
0.0
 10
-3.8533
 20
-14.5836
 30
0.0
 10
-3.8533
 20
-14.5836
 30
0.0
 10
-3.8533
 20
-15.4704
 30
0.0
 10
-3.8533
 20
-15.4704
 30
0.0
  0
ENDSEC
  0
SECTION
  2
OBJECTS
  0
DICTIONARY
  5
C
330
0
100
AcDbDictionary
281
     1
  3
ACAD_GROUP
350
D
  3
ACAD_LAYOUT
350
1A
  3
ACAD_MATERIAL
350
3B
  3
ACAD_MLEADERSTYLE
350
9C
  3
ACAD_MLINESTYLE
350
17
  3
ACAD_PLOTSETTINGS
350
19
  3
ACAD_PLOTSTYLENAME
350
E
  3
ACAD_VISUALSTYLE
350
2A
  3
AcDbVariableDictionary
350
9A
  0
DICTIONARY
  5
D
102
{ACAD_REACTORS
330
C
102
}
330
C
100
AcDbDictionary
281
     1
  0
DICTIONARY
  5
1A
102
{ACAD_REACTORS
330
C
102
}
330
C
100
AcDbDictionary
281
     1
  3
Layout1
350
1E
  3
Layout2
350
26
  3
Model
350
22
  0
DICTIONARY
  5
3B
102
{ACAD_REACTORS
330
C
102
}
330
C
100
AcDbDictionary
281
     1
  3
ByBlock
350
3D
  3
ByLayer
350
3C
  3
Global
350
3E
  0
DICTIONARY
  5
9C
102
{ACAD_REACTORS
330
C
102
}
330
C
100
AcDbDictionary
281
     1
  0
DICTIONARY
  5
17
102
{ACAD_REACTORS
330
C
102
}
330
C
100
AcDbDictionary
281
     1
  3
Standard
350
18
  0
DICTIONARY
  5
19
102
{ACAD_REACTORS
330
C
102
}
330
C
100
AcDbDictionary
281
     1
  0
ACDBDICTIONARYWDFLT
  5
E
102
{ACAD_REACTORS
330
C
102
}
330
C
100
AcDbDictionary
281
     1
  3
Normal
350
F
100
AcDbDictionaryWithDefault
340
F
  0
DICTIONARY
  5
2A
102
{ACAD_REACTORS
330
C
102
}
330
C
100
AcDbDictionary
281
     1
  3
2dWireframe
350
2F
  3
3D Hidden
350
31
  3
3dWireframe
350
30
  3
Basic
350
32
  3
Brighten
350
36
  3
ColorChange
350
3A
  3
Conceptual
350
34
  3
Dim
350
35
  3
Facepattern
350
39
  3
Flat
350
2B
  3
FlatWithEdges
350
2C
  3
Gouraud
350
2D
  3
GouraudWithEdges
350
2E
  3
Linepattern
350
38
  3
Realistic
350
33
  3
Thicken
350
37
  0
DICTIONARY
  5
9A
102
{ACAD_REACTORS
330
C
102
}
330
C
100
AcDbDictionary
281
     1
  3
DIMASSOC
350
9D
  3
HIDETEXT
350
9E
  0
LAYOUT
  5
1E
102
{ACAD_REACTORS
330
1A
102
}
330
1A
100
AcDbPlotSettings
  1

  2
none_device
  4

  6

 40
0.0
 41
0.0
 42
0.0
 43
0.0
 44
0.0
 45
0.0
 46
0.0
 47
0.0
 48
0.0
 49
0.0
140
0.0
141
0.0
142
1.0
143
1.0
 70
   688
 72
     0
 73
     0
 74
     5
  7

 75
    16
147
1.0
148
0.0
149
0.0
100
AcDbLayout
  1
Layout1
 70
     1
 71
     1
 10
0.0
 20
0.0
 11
12.0
 21
9.0
 12
0.0
 22
0.0
 32
0.0
 14
1.000000000000000E+20
 24
1.000000000000000E+20
 34
1.000000000000000E+20
 15
-1.000000000000000E+20
 25
-1.000000000000000E+20
 35
-1.000000000000000E+20
146
0.0
 13
0.0
 23
0.0
 33
0.0
 16
1.0
 26
0.0
 36
0.0
 17
0.0
 27
1.0
 37
0.0
 76
     0
330
1B
  0
LAYOUT
  5
26
102
{ACAD_REACTORS
330
1A
102
}
330
1A
100
AcDbPlotSettings
  1

  2
none_device
  4

  6

 40
0.0
 41
0.0
 42
0.0
 43
0.0
 44
0.0
 45
0.0
 46
0.0
 47
0.0
 48
0.0
 49
0.0
140
0.0
141
0.0
142
1.0
143
1.0
 70
   688
 72
     0
 73
     0
 74
     5
  7

 75
    16
147
1.0
148
0.0
149
0.0
100
AcDbLayout
  1
Layout2
 70
     1
 71
     2
 10
0.0
 20
0.0
 11
0.0
 21
0.0
 12
0.0
 22
0.0
 32
0.0
 14
0.0
 24
0.0
 34
0.0
 15
0.0
 25
0.0
 35
0.0
146
0.0
 13
0.0
 23
0.0
 33
0.0
 16
1.0
 26
0.0
 36
0.0
 17
0.0
 27
1.0
 37
0.0
 76
     0
330
23
  0
LAYOUT
  5
22
102
{ACAD_REACTORS
330
1A
102
}
330
1A
100
AcDbPlotSettings
  1

  2
none_device
  4

  6

 40
0.0
 41
0.0
 42
0.0
 43
0.0
 44
0.0
 45
0.0
 46
0.0
 47
0.0
 48
0.0
 49
0.0
140
0.0
141
0.0
142
1.0
143
1.0
 70
  1712
 72
     0
 73
     0
 74
     0
  7

 75
     0
147
1.0
148
0.0
149
0.0
100
AcDbLayout
  1
Model
 70
     1
 71
     0
 10
0.0
 20
0.0
 11
12.0
 21
9.0
 12
0.0
 22
0.0
 32
0.0
 14
-26.0792
 24
-19.6856
 34
0.0
 15
26.0791
 25
19.6856
 35
0.0
146
0.0
 13
0.0
 23
0.0
 33
0.0
 16
1.0
 26
0.0
 36
0.0
 17
0.0
 27
1.0
 37
0.0
 76
     0
330
1F
331
29
  0
MATERIAL
  5
3D
102
{ACAD_REACTORS
330
3B
102
}
102
{ACAD_XDICTIONARY
360
C1
102
}
330
3B
100
AcDbMaterial
  1
ByBlock
  0
MATERIAL
  5
3C
102
{ACAD_REACTORS
330
3B
102
}
102
{ACAD_XDICTIONARY
360
BF
102
}
330
3B
100
AcDbMaterial
  1
ByLayer
  0
MATERIAL
  5
3E
102
{ACAD_REACTORS
330
3B
102
}
102
{ACAD_XDICTIONARY
360
C3
102
}
330
3B
100
AcDbMaterial
  1
Global
  0
MLINESTYLE
  5
18
102
{ACAD_REACTORS
330
17
102
}
330
17
100
AcDbMlineStyle
  2
Standard
 70
     0
  3

 62
   256
 51
90.0
 52
90.0
 71
     2
 49
0.5
 62
   256
  6
BYLAYER
 49
-0.5
 62
   256
  6
BYLAYER
  0
ACDBPLACEHOLDER
  5
F
102
{ACAD_REACTORS
330
E
102
}
330
E
  0
VISUALSTYLE
  5
2F
102
{ACAD_REACTORS
330
2A
102
}
102
{ACAD_XDICTIONARY
360
A7
102
}
330
2A
100
AcDbVisualStyle
  2
2dWireframe
 70
     4
 71
     0
 72
     2
 73
     0
 90
        0
 40
-0.6
 41
-30.0
 62
     5
 63
     7
 74
     1
 91
        4
 64
     7
 65
   257
 75
     1
175
     1
 42
1.0
 92
        0
 66
   257
 43
1.0
 76
     1
 77
     6
 78
     2
 67
     7
 79
     5
170
     0
171
     0
290
     0
174
     0
 93
        1
 44
0.0
173
     0
291
     0
 45
0.0
1001
ACAD
1000
AcDbSavedByObjectVersion
1070
     0
  0
VISUALSTYLE
  5
31
102
{ACAD_REACTORS
330
2A
102
}
102
{ACAD_XDICTIONARY
360
AB
102
}
330
2A
100
AcDbVisualStyle
  2
3D Hidden
 70
     6
 71
     1
 72
     2
 73
     2
 90
        0
 40
-0.6
 41
-30.0
 62
     5
 63
     7
 74
     2
 91
        2
 64
     7
 65
   257
 75
     2
175
     1
 42
40.0
 92
        0
 66
   257
 43
1.0
 76
     1
 77
     6
 78
     2
 67
     7
 79
     3
170
     0
171
     0
290
     0
174
     0
 93
        1
 44
0.0
173
     0
291
     0
 45
0.0
1001
ACAD
1000
AcDbSavedByObjectVersion
1070
     0
  0
VISUALSTYLE
  5
30
102
{ACAD_REACTORS
330
2A
102
}
102
{ACAD_XDICTIONARY
360
A9
102
}
330
2A
100
AcDbVisualStyle
  2
3dWireframe
 70
     5
 71
     0
 72
     2
 73
     0
 90
        0
 40
-0.6
 41
-30.0
 62
     5
 63
     7
 74
     1
 91
        4
 64
     7
 65
   257
 75
     1
175
     1
 42
1.0
 92
        0
 66
   257
 43
1.0
 76
     1
 77
     6
 78
     2
 67
     7
 79
     5
170
     0
171
     0
290
     0
174
     0
 93
        1
 44
0.0
173
     0
291
     0
 45
0.0
1001
ACAD
1000
AcDbSavedByObjectVersion
1070
     0
  0
VISUALSTYLE
  5
32
102
{ACAD_REACTORS
330
2A
102
}
102
{ACAD_XDICTIONARY
360
AD
102
}
330
2A
100
AcDbVisualStyle
  2
Basic
 70
     7
 71
     1
 72
     0
 73
     1
 90
        0
 40
-0.6
 41
-30.0
 62
     5
 63
     7
 74
     0
 91
        4
 64
     7
 65
   257
 75
     1
175
     1
 42
1.0
 92
        8
 66
     7
 43
1.0
 76
     1
 77
     6
 78
     2
 67
     7
 79
     5
170
     0
171
     0
290
     0
174
     0
 93
        1
 44
0.0
173
     0
291
     1
 45
0.0
1001
ACAD
1000
AcDbSavedByObjectVersion
1070
     0
  0
VISUALSTYLE
  5
36
102
{ACAD_REACTORS
330
2A
102
}
102
{ACAD_XDICTIONARY
360
B5
102
}
330
2A
100
AcDbVisualStyle
  2
Brighten
 70
    12
 71
     2
 72
     2
 73
     0
 90
        0
 40
-0.6
 41
-30.0
 62
     5
 63
     7
 74
     1
 91
        4
 64
     7
 65
   257
 75
     1
175
     1
 42
1.0
 92
        8
 66
     7
 43
1.0
 76
     1
 77
     6
 78
     2
 67
     7
 79
     5
170
     0
171
     0
290
     0
174
     0
 93
        1
 44
50.0
173
     0
291
     1
 45
0.0
1001
ACAD
1000
AcDbSavedByObjectVersion
1070
     0
  0
VISUALSTYLE
  5
3A
102
{ACAD_REACTORS
330
2A
102
}
102
{ACAD_XDICTIONARY
360
BD
102
}
330
2A
100
AcDbVisualStyle
  2
ColorChange
 70
    16
 71
     2
 72
     2
 73
     3
 90
        0
 40
-0.6
 41
-30.0
 62
     5
 63
     8
 74
     1
 91
        4
 64
     7
 65
   257
 75
     1
175
     1
 42
1.0
 92
        8
 66
     8
 43
1.0
 76
     1
 77
     6
 78
     2
 67
     7
 79
     5
170
     0
171
     0
290
     0
174
     0
 93
        1
 44
0.0
173
     0
291
     1
 45
0.0
1001
ACAD
1000
AcDbSavedByObjectVersion
1070
     0
  0
VISUALSTYLE
  5
34
102
{ACAD_REACTORS
330
2A
102
}
102
{ACAD_XDICTIONARY
360
B1
102
}
330
2A
100
AcDbVisualStyle
  2
Conceptual
 70
     9
 71
     3
 72
     2
 73
     0
 90
        0
 40
-0.6
 41
-30.0
 62
     5
 63
     7
 74
     2
 91
        2
 64
     7
 65
   257
 75
     1
175
     1
 42
40.0
 92
        8
 66
     7
 43
1.0
 76
     1
 77
     6
 78
     2
 67
     7
 79
     3
170
     0
171
     0
290
     0
174
     0
 93
        1
 44
0.0
173
     0
291
     0
 45
0.0
1001
ACAD
1000
AcDbSavedByObjectVersion
1070
     0
  0
VISUALSTYLE
  5
35
102
{ACAD_REACTORS
330
2A
102
}
102
{ACAD_XDICTIONARY
360
B3
102
}
330
2A
100
AcDbVisualStyle
  2
Dim
 70
    11
 71
     2
 72
     2
 73
     0
 90
        0
 40
-0.6
 41
-30.0
 62
     5
 63
     7
 74
     1
 91
        4
 64
     7
 65
   257
 75
     1
175
     1
 42
1.0
 92
        8
 66
     7
 43
1.0
 76
     1
 77
     6
 78
     2
 67
     7
 79
     5
170
     0
171
     0
290
     0
174
     0
 93
        1
 44
-50.0
173
     0
291
     1
 45
0.0
1001
ACAD
1000
AcDbSavedByObjectVersion
1070
     0
  0
VISUALSTYLE
  5
39
102
{ACAD_REACTORS
330
2A
102
}
102
{ACAD_XDICTIONARY
360
BB
102
}
330
2A
100
AcDbVisualStyle
  2
Facepattern
 70
    15
 71
     2
 72
     2
 73
     0
 90
        0
 40
-0.6
 41
-30.0
 62
     5
 63
     7
 74
     1
 91
        4
 64
     7
 65
   257
 75
     1
175
     1
 42
1.0
 92
        8
 66
     7
 43
1.0
 76
     1
 77
     6
 78
     2
 67
     7
 79
     5
170
     0
171
     0
290
     0
174
     0
 93
        1
 44
0.0
173
     0
291
     1
 45
0.0
1001
ACAD
1000
AcDbSavedByObjectVersion
1070
     0
  0
VISUALSTYLE
  5
2B
102
{ACAD_REACTORS
330
2A
102
}
102
{ACAD_XDICTIONARY
360
9F
102
}
330
2A
100
AcDbVisualStyle
  2
Flat
 70
     0
 71
     2
 72
     1
 73
     1
 90
        2
 40
-0.6
 41
30.0
 62
     5
 63
     7
 74
     0
 91
        4
 64
     7
 65
   257
 75
     1
175
     1
 42
1.0
 92
        8
 66
     7
 43
1.0
 76
     1
 77
     6
 78
     2
 67
     7
 79
     5
170
     0
171
     0
290
     0
174
     0
 93
       13
 44
0.0
173
     0
291
     1
 45
0.0
1001
ACAD
1000
AcDbSavedByObjectVersion
1070
     0
  0
VISUALSTYLE
  5
2C
102
{ACAD_REACTORS
330
2A
102
}
102
{ACAD_XDICTIONARY
360
A1
102
}
330
2A
100
AcDbVisualStyle
  2
FlatWithEdges
 70
     1
 71
     2
 72
     1
 73
     1
 90
        2
 40
-0.6
 41
30.0
 62
     5
 63
     7
 74
     1
 91
        4
 64
     7
 65
   257
 75
     1
175
     1
 42
1.0
 92
        0
 66
   257
 43
1.0
 76
     1
 77
     6
 78
     2
 67
     7
 79
     5
170
     0
171
     0
290
     0
174
     0
 93
       13
 44
0.0
173
     0
291
     1
 45
0.0
1001
ACAD
1000
AcDbSavedByObjectVersion
1070
     0
  0
VISUALSTYLE
  5
2D
102
{ACAD_REACTORS
330
2A
102
}
102
{ACAD_XDICTIONARY
360
A3
102
}
330
2A
100
AcDbVisualStyle
  2
Gouraud
 70
     2
 71
     2
 72
     2
 73
     1
 90
        2
 40
-0.6
 41
30.0
 62
     5
 63
     7
 74
     0
 91
        4
 64
     7
 65
   257
 75
     1
175
     1
 42
1.0
 92
        0
 66
     7
 43
1.0
 76
     1
 77
     6
 78
     2
 67
     7
 79
     5
170
     0
171
     0
290
     0
174
     0
 93
       13
 44
0.0
173
     0
291
     1
 45
0.0
1001
ACAD
1000
AcDbSavedByObjectVersion
1070
     0
  0
VISUALSTYLE
  5
2E
102
{ACAD_REACTORS
330
2A
102
}
102
{ACAD_XDICTIONARY
360
A5
102
}
330
2A
100
AcDbVisualStyle
  2
GouraudWithEdges
 70
     3
 71
     2
 72
     2
 73
     1
 90
        2
 40
-0.6
 41
30.0
 62
     5
 63
     7
 74
     1
 91
        4
 64
     7
 65
   257
 75
     1
175
     1
 42
1.0
 92
        0
 66
   257
 43
1.0
 76
     1
 77
     6
 78
     2
 67
     7
 79
     5
170
     0
171
     0
290
     0
174
     0
 93
       13
 44
0.0
173
     0
291
     1
 45
0.0
1001
ACAD
1000
AcDbSavedByObjectVersion
1070
     0
  0
VISUALSTYLE
  5
38
102
{ACAD_REACTORS
330
2A
102
}
102
{ACAD_XDICTIONARY
360
B9
102
}
330
2A
100
AcDbVisualStyle
  2
Linepattern
 70
    14
 71
     2
 72
     2
 73
     0
 90
        0
 40
-0.6
 41
-30.0
 62
     5
 63
     7
 74
     1
 91
        4
 64
     7
 65
   257
 75
     7
175
     7
 42
1.0
 92
        8
 66
     7
 43
1.0
 76
     1
 77
     6
 78
     2
 67
     7
 79
     5
170
     0
171
     0
290
     0
174
     0
 93
        1
 44
0.0
173
     0
291
     1
 45
0.0
1001
ACAD
1000
AcDbSavedByObjectVersion
1070
     0
  0
VISUALSTYLE
  5
33
102
{ACAD_REACTORS
330
2A
102
}
102
{ACAD_XDICTIONARY
360
AF
102
}
330
2A
100
AcDbVisualStyle
  2
Realistic
 70
     8
 71
     2
 72
     2
 73
     0
 90
        0
 40
-0.6
 41
-30.0
 62
     5
 63
     7
 74
     1
 91
        0
 64
     7
 65
   257
 75
     1
175
     1
 42
1.0
 92
        8
 66
     8
 43
1.0
 76
     1
 77
     6
 78
     2
 67
     7
 79
     5
170
     0
171
     0
290
     0
174
     0
 93
       13
 44
0.0
173
     0
291
     0
 45
0.0
1001
ACAD
1000
AcDbSavedByObjectVersion
1070
     0
  0
VISUALSTYLE
  5
37
102
{ACAD_REACTORS
330
2A
102
}
102
{ACAD_XDICTIONARY
360
B7
102
}
330
2A
100
AcDbVisualStyle
  2
Thicken
 70
    13
 71
     2
 72
     2
 73
     0
 90
        0
 40
-0.6
 41
-30.0
 62
     5
 63
     7
 74
     1
 91
        4
 64
     7
 65
   257
 75
     1
175
     1
 42
1.0
 92
       12
 66
     7
 43
1.0
 76
     1
 77
     6
 78
     2
 67
     7
 79
     5
170
     0
171
     0
290
     0
174
     0
 93
        1
 44
0.0
173
     0
291
     1
 45
0.0
1001
ACAD
1000
AcDbSavedByObjectVersion
1070
     0
  0
DICTIONARYVAR
  5
9D
102
{ACAD_REACTORS
330
9A
102
}
330
9A
100
DictionaryVariables
280
     0
  1
2
  0
DICTIONARYVAR
  5
9E
102
{ACAD_REACTORS
330
9A
102
}
330
9A
100
DictionaryVariables
280
     0
  1
1
  0
DICTIONARY
  5
C1
330
3D
100
AcDbDictionary
280
     1
281
     1
  3
ACAD_XREC_ROUNDTRIP
360
C2
  0
DICTIONARY
  5
BF
330
3C
100
AcDbDictionary
280
     1
281
     1
  3
ACAD_XREC_ROUNDTRIP
360
C0
  0
DICTIONARY
  5
C3
330
3E
100
AcDbDictionary
280
     1
281
     1
  3
ACAD_XREC_ROUNDTRIP
360
C4
  0
DICTIONARY
  5
A7
330
2F
100
AcDbDictionary
280
     1
281
     1
  3
ACAD_XREC_ROUNDTRIP
360
A8
  0
DICTIONARY
  5
AB
330
31
100
AcDbDictionary
280
     1
281
     1
  3
ACAD_XREC_ROUNDTRIP
360
AC
  0
DICTIONARY
  5
A9
330
30
100
AcDbDictionary
280
     1
281
     1
  3
ACAD_XREC_ROUNDTRIP
360
AA
  0
DICTIONARY
  5
AD
330
32
100
AcDbDictionary
280
     1
281
     1
  3
ACAD_XREC_ROUNDTRIP
360
AE
  0
DICTIONARY
  5
B5
330
36
100
AcDbDictionary
280
     1
281
     1
  3
ACAD_XREC_ROUNDTRIP
360
B6
  0
DICTIONARY
  5
BD
330
3A
100
AcDbDictionary
280
     1
281
     1
  3
ACAD_XREC_ROUNDTRIP
360
BE
  0
DICTIONARY
  5
B1
330
34
100
AcDbDictionary
280
     1
281
     1
  3
ACAD_XREC_ROUNDTRIP
360
B2
  0
DICTIONARY
  5
B3
330
35
100
AcDbDictionary
280
     1
281
     1
  3
ACAD_XREC_ROUNDTRIP
360
B4
  0
DICTIONARY
  5
BB
330
39
100
AcDbDictionary
280
     1
281
     1
  3
ACAD_XREC_ROUNDTRIP
360
BC
  0
DICTIONARY
  5
9F
330
2B
100
AcDbDictionary
280
     1
281
     1
  3
ACAD_XREC_ROUNDTRIP
360
A0
  0
DICTIONARY
  5
A1
330
2C
100
AcDbDictionary
280
     1
281
     1
  3
ACAD_XREC_ROUNDTRIP
360
A2
  0
DICTIONARY
  5
A3
330
2D
100
AcDbDictionary
280
     1
281
     1
  3
ACAD_XREC_ROUNDTRIP
360
A4
  0
DICTIONARY
  5
A5
330
2E
100
AcDbDictionary
280
     1
281
     1
  3
ACAD_XREC_ROUNDTRIP
360
A6
  0
DICTIONARY
  5
B9
330
38
100
AcDbDictionary
280
     1
281
     1
  3
ACAD_XREC_ROUNDTRIP
360
BA
  0
DICTIONARY
  5
AF
330
33
100
AcDbDictionary
280
     1
281
     1
  3
ACAD_XREC_ROUNDTRIP
360
B0
  0
DICTIONARY
  5
B7
330
37
100
AcDbDictionary
280
     1
281
     1
  3
ACAD_XREC_ROUNDTRIP
360
B8
  0
XRECORD
  5
C2
102
{ACAD_REACTORS
330
C1
102
}
330
C1
100
AcDbXrecord
280
     1
102
MATERIAL
148
0.0
149
0.0
149
0.0
 93
        0
 94
      127
282
     0
 72
     1
 77
     1
171
     1
175
     1
179
     1
273
     0
  0
XRECORD
  5
C0
102
{ACAD_REACTORS
330
BF
102
}
330
BF
100
AcDbXrecord
280
     1
102
MATERIAL
148
0.0
149
0.0
149
0.0
 93
        0
 94
      127
282
     0
 72
     1
 77
     1
171
     1
175
     1
179
     1
273
     0
  0
XRECORD
  5
C4
102
{ACAD_REACTORS
330
C3
102
}
330
C3
100
AcDbXrecord
280
     1
102
MATERIAL
148
0.0
149
0.0
149
0.0
 93
        0
 94
      127
282
     0
 72
     1
 77
     1
171
     1
175
     1
179
     1
273
     0
  0
XRECORD
  5
A8
102
{ACAD_REACTORS
330
A7
102
}
330
A7
100
AcDbXrecord
280
     1
102
RTVSPropertyOp0
 70
     1
102
RTVSPropertyOp1
 70
     1
102
RTVSPropertyOp2
 70
     1
102
RTVSPropertyOp3
 70
     1
102
RTVSPropertyOp4
 70
     1
102
RTVSPropertyOp5
 70
     1
102
RTVSPropertyOp6
 70
     1
102
RTVSPropertyOp7
 70
     1
102
RTVSPropertyOp8
 70
     1
102
RTVSPropertyOp9
 70
     1
102
RTVSPropertyOp10
 70
     1
102
RTVSPropertyOp11
 70
     1
102
RTVSPropertyOp12
 70
     1
102
RTVSPropertyOp13
 70
     1
102
RTVSPropertyOp14
 70
     1
102
RTVSPropertyOp15
 70
     1
102
RTVSPropertyOp16
 70
     1
102
RTVSPropertyOp17
 70
     1
102
RTVSPropertyOp18
 70
     1
102
RTVSPropertyOp19
 70
     1
102
RTVSPropertyOp20
 70
     1
102
RTVSPropertyOp21
 70
     1
102
RTVSPropertyOp22
 70
     1
102
RTVSPropertyOp23
 70
     1
102
RTVSPropertyOp24
 70
     1
102
RTVSPropertyOp25
 70
     1
102
RTVSPropertyOp26
 70
     1
102
RTVSPropertyOp27
 70
     1
  0
XRECORD
  5
AC
102
{ACAD_REACTORS
330
AB
102
}
330
AB
100
AcDbXrecord
280
     1
102
RTVSPropertyOp0
 70
     1
102
RTVSPropertyOp1
 70
     1
102
RTVSPropertyOp2
 70
     1
102
RTVSPropertyOp3
 70
     1
102
RTVSPropertyOp4
 70
     1
102
RTVSPropertyOp5
 70
     1
102
RTVSPropertyOp6
 70
     1
102
RTVSPropertyOp7
 70
     1
102
RTVSPropertyOp8
 70
     1
102
RTVSPropertyOp9
 70
     1
102
RTVSPropertyOp10
 70
     1
102
RTVSPropertyOp11
 70
     1
102
RTVSPropertyOp12
 70
     1
102
RTVSPropertyOp13
 70
     1
102
RTVSPropertyOp14
 70
     1
102
RTVSPropertyOp15
 70
     1
102
RTVSPropertyOp16
 70
     1
102
RTVSPropertyOp17
 70
     1
102
RTVSPropertyOp18
 70
     1
102
RTVSPropertyOp19
 70
     1
102
RTVSPropertyOp20
 70
     1
102
RTVSPropertyOp21
 70
     1
102
RTVSPropertyOp22
 70
     1
102
RTVSPropertyOp23
 70
     1
102
RTVSPropertyOp24
 70
     1
102
RTVSPropertyOp25
 70
     1
102
RTVSPropertyOp26
 70
     1
102
RTVSPropertyOp27
 70
     1
  0
XRECORD
  5
AA
102
{ACAD_REACTORS
330
A9
102
}
330
A9
100
AcDbXrecord
280
     1
102
RTVSPropertyOp0
 70
     1
102
RTVSPropertyOp1
 70
     1
102
RTVSPropertyOp2
 70
     1
102
RTVSPropertyOp3
 70
     1
102
RTVSPropertyOp4
 70
     1
102
RTVSPropertyOp5
 70
     1
102
RTVSPropertyOp6
 70
     1
102
RTVSPropertyOp7
 70
     1
102
RTVSPropertyOp8
 70
     1
102
RTVSPropertyOp9
 70
     1
102
RTVSPropertyOp10
 70
     1
102
RTVSPropertyOp11
 70
     1
102
RTVSPropertyOp12
 70
     1
102
RTVSPropertyOp13
 70
     1
102
RTVSPropertyOp14
 70
     1
102
RTVSPropertyOp15
 70
     1
102
RTVSPropertyOp16
 70
     1
102
RTVSPropertyOp17
 70
     1
102
RTVSPropertyOp18
 70
     1
102
RTVSPropertyOp19
 70
     1
102
RTVSPropertyOp20
 70
     1
102
RTVSPropertyOp21
 70
     1
102
RTVSPropertyOp22
 70
     1
102
RTVSPropertyOp23
 70
     1
102
RTVSPropertyOp24
 70
     1
102
RTVSPropertyOp25
 70
     1
102
RTVSPropertyOp26
 70
     1
102
RTVSPropertyOp27
 70
     1
  0
XRECORD
  5
AE
102
{ACAD_REACTORS
330
AD
102
}
330
AD
100
AcDbXrecord
280
     1
102
RTVSPropertyOp0
 70
     1
102
RTVSPropertyOp1
 70
     1
102
RTVSPropertyOp2
 70
     1
102
RTVSPropertyOp3
 70
     1
102
RTVSPropertyOp4
 70
     1
102
RTVSPropertyOp5
 70
     1
102
RTVSPropertyOp6
 70
     1
102
RTVSPropertyOp7
 70
     1
102
RTVSPropertyOp8
 70
     1
102
RTVSPropertyOp9
 70
     1
102
RTVSPropertyOp10
 70
     1
102
RTVSPropertyOp11
 70
     1
102
RTVSPropertyOp12
 70
     1
102
RTVSPropertyOp13
 70
     1
102
RTVSPropertyOp14
 70
     1
102
RTVSPropertyOp15
 70
     1
102
RTVSPropertyOp16
 70
     1
102
RTVSPropertyOp17
 70
     1
102
RTVSPropertyOp18
 70
     1
102
RTVSPropertyOp19
 70
     1
102
RTVSPropertyOp20
 70
     1
102
RTVSPropertyOp21
 70
     1
102
RTVSPropertyOp22
 70
     1
102
RTVSPropertyOp23
 70
     1
102
RTVSPropertyOp24
 70
     1
102
RTVSPropertyOp25
 70
     1
102
RTVSPropertyOp26
 70
     1
102
RTVSPropertyOp27
 70
     1
  0
XRECORD
  5
B6
102
{ACAD_REACTORS
330
B5
102
}
330
B5
100
AcDbXrecord
280
     1
102
RTVSPropertyOp0
 70
     1
102
RTVSPropertyOp1
 70
     1
102
RTVSPropertyOp2
 70
     1
102
RTVSPropertyOp3
 70
     1
102
RTVSPropertyOp4
 70
     1
102
RTVSPropertyOp5
 70
     1
102
RTVSPropertyOp6
 70
     1
102
RTVSPropertyOp7
 70
     1
102
RTVSPropertyOp8
 70
     1
102
RTVSPropertyOp9
 70
     1
102
RTVSPropertyOp10
 70
     1
102
RTVSPropertyOp11
 70
     1
102
RTVSPropertyOp12
 70
     1
102
RTVSPropertyOp13
 70
     1
102
RTVSPropertyOp14
 70
     1
102
RTVSPropertyOp15
 70
     1
102
RTVSPropertyOp16
 70
     1
102
RTVSPropertyOp17
 70
     1
102
RTVSPropertyOp18
 70
     1
102
RTVSPropertyOp19
 70
     1
102
RTVSPropertyOp20
 70
     1
102
RTVSPropertyOp21
 70
     1
102
RTVSPropertyOp22
 70
     1
102
RTVSPropertyOp23
 70
     1
102
RTVSPropertyOp24
 70
     1
102
RTVSPropertyOp25
 70
     1
102
RTVSPropertyOp26
 70
     1
102
RTVSPropertyOp27
 70
     1
  0
XRECORD
  5
BE
102
{ACAD_REACTORS
330
BD
102
}
330
BD
100
AcDbXrecord
280
     1
102
RTVSPropertyOp0
 70
     1
102
RTVSPropertyOp1
 70
     1
102
RTVSPropertyOp2
 70
     1
102
RTVSPropertyOp3
 70
     1
102
RTVSPropertyOp4
 70
     1
102
RTVSPropertyOp5
 70
     1
102
RTVSPropertyOp6
 70
     1
102
RTVSPropertyOp7
 70
     1
102
RTVSPropertyOp8
 70
     1
102
RTVSPropertyOp9
 70
     1
102
RTVSPropertyOp10
 70
     1
102
RTVSPropertyOp11
 70
     1
102
RTVSPropertyOp12
 70
     1
102
RTVSPropertyOp13
 70
     1
102
RTVSPropertyOp14
 70
     1
102
RTVSPropertyOp15
 70
     1
102
RTVSPropertyOp16
 70
     1
102
RTVSPropertyOp17
 70
     1
102
RTVSPropertyOp18
 70
     1
102
RTVSPropertyOp19
 70
     1
102
RTVSPropertyOp20
 70
     1
102
RTVSPropertyOp21
 70
     1
102
RTVSPropertyOp22
 70
     1
102
RTVSPropertyOp23
 70
     1
102
RTVSPropertyOp24
 70
     1
102
RTVSPropertyOp25
 70
     1
102
RTVSPropertyOp26
 70
     1
102
RTVSPropertyOp27
 70
     1
  0
XRECORD
  5
B2
102
{ACAD_REACTORS
330
B1
102
}
330
B1
100
AcDbXrecord
280
     1
102
RTVSPropertyOp0
 70
     1
102
RTVSPropertyOp1
 70
     1
102
RTVSPropertyOp2
 70
     1
102
RTVSPropertyOp3
 70
     1
102
RTVSPropertyOp4
 70
     1
102
RTVSPropertyOp5
 70
     1
102
RTVSPropertyOp6
 70
     1
102
RTVSPropertyOp7
 70
     1
102
RTVSPropertyOp8
 70
     1
102
RTVSPropertyOp9
 70
     1
102
RTVSPropertyOp10
 70
     1
102
RTVSPropertyOp11
 70
     1
102
RTVSPropertyOp12
 70
     1
102
RTVSPropertyOp13
 70
     1
102
RTVSPropertyOp14
 70
     1
102
RTVSPropertyOp15
 70
     1
102
RTVSPropertyOp16
 70
     1
102
RTVSPropertyOp17
 70
     1
102
RTVSPropertyOp18
 70
     1
102
RTVSPropertyOp19
 70
     1
102
RTVSPropertyOp20
 70
     1
102
RTVSPropertyOp21
 70
     1
102
RTVSPropertyOp22
 70
     1
102
RTVSPropertyOp23
 70
     1
102
RTVSPropertyOp24
 70
     1
102
RTVSPropertyOp25
 70
     1
102
RTVSPropertyOp26
 70
     1
102
RTVSPropertyOp27
 70
     1
  0
XRECORD
  5
B4
102
{ACAD_REACTORS
330
B3
102
}
330
B3
100
AcDbXrecord
280
     1
102
RTVSPropertyOp0
 70
     1
102
RTVSPropertyOp1
 70
     1
102
RTVSPropertyOp2
 70
     1
102
RTVSPropertyOp3
 70
     1
102
RTVSPropertyOp4
 70
     1
102
RTVSPropertyOp5
 70
     1
102
RTVSPropertyOp6
 70
     1
102
RTVSPropertyOp7
 70
     1
102
RTVSPropertyOp8
 70
     1
102
RTVSPropertyOp9
 70
     1
102
RTVSPropertyOp10
 70
     1
102
RTVSPropertyOp11
 70
     1
102
RTVSPropertyOp12
 70
     1
102
RTVSPropertyOp13
 70
     1
102
RTVSPropertyOp14
 70
     1
102
RTVSPropertyOp15
 70
     1
102
RTVSPropertyOp16
 70
     1
102
RTVSPropertyOp17
 70
     1
102
RTVSPropertyOp18
 70
     1
102
RTVSPropertyOp19
 70
     1
102
RTVSPropertyOp20
 70
     1
102
RTVSPropertyOp21
 70
     1
102
RTVSPropertyOp22
 70
     1
102
RTVSPropertyOp23
 70
     1
102
RTVSPropertyOp24
 70
     1
102
RTVSPropertyOp25
 70
     1
102
RTVSPropertyOp26
 70
     1
102
RTVSPropertyOp27
 70
     1
  0
XRECORD
  5
BC
102
{ACAD_REACTORS
330
BB
102
}
330
BB
100
AcDbXrecord
280
     1
102
RTVSPropertyOp0
 70
     1
102
RTVSPropertyOp1
 70
     1
102
RTVSPropertyOp2
 70
     1
102
RTVSPropertyOp3
 70
     1
102
RTVSPropertyOp4
 70
     1
102
RTVSPropertyOp5
 70
     1
102
RTVSPropertyOp6
 70
     1
102
RTVSPropertyOp7
 70
     1
102
RTVSPropertyOp8
 70
     1
102
RTVSPropertyOp9
 70
     1
102
RTVSPropertyOp10
 70
     1
102
RTVSPropertyOp11
 70
     1
102
RTVSPropertyOp12
 70
     1
102
RTVSPropertyOp13
 70
     1
102
RTVSPropertyOp14
 70
     1
102
RTVSPropertyOp15
 70
     1
102
RTVSPropertyOp16
 70
     1
102
RTVSPropertyOp17
 70
     1
102
RTVSPropertyOp18
 70
     1
102
RTVSPropertyOp19
 70
     1
102
RTVSPropertyOp20
 70
     1
102
RTVSPropertyOp21
 70
     1
102
RTVSPropertyOp22
 70
     1
102
RTVSPropertyOp23
 70
     1
102
RTVSPropertyOp24
 70
     1
102
RTVSPropertyOp25
 70
     1
102
RTVSPropertyOp26
 70
     1
102
RTVSPropertyOp27
 70
     1
  0
XRECORD
  5
A0
102
{ACAD_REACTORS
330
9F
102
}
330
9F
100
AcDbXrecord
280
     1
102
RTVSPropertyOp0
 70
     1
102
RTVSPropertyOp1
 70
     1
102
RTVSPropertyOp2
 70
     1
102
RTVSPropertyOp3
 70
     1
102
RTVSPropertyOp4
 70
     1
102
RTVSPropertyOp5
 70
     1
102
RTVSPropertyOp6
 70
     1
102
RTVSPropertyOp7
 70
     1
102
RTVSPropertyOp8
 70
     1
102
RTVSPropertyOp9
 70
     1
102
RTVSPropertyOp10
 70
     1
102
RTVSPropertyOp11
 70
     1
102
RTVSPropertyOp12
 70
     1
102
RTVSPropertyOp13
 70
     1
102
RTVSPropertyOp14
 70
     1
102
RTVSPropertyOp15
 70
     1
102
RTVSPropertyOp16
 70
     1
102
RTVSPropertyOp17
 70
     1
102
RTVSPropertyOp18
 70
     1
102
RTVSPropertyOp19
 70
     1
102
RTVSPropertyOp20
 70
     1
102
RTVSPropertyOp21
 70
     1
102
RTVSPropertyOp22
 70
     1
102
RTVSPropertyOp23
 70
     1
102
RTVSPropertyOp24
 70
     1
102
RTVSPropertyOp25
 70
     1
102
RTVSPropertyOp26
 70
     1
102
RTVSPropertyOp27
 70
     1
  0
XRECORD
  5
A2
102
{ACAD_REACTORS
330
A1
102
}
330
A1
100
AcDbXrecord
280
     1
102
RTVSPropertyOp0
 70
     1
102
RTVSPropertyOp1
 70
     1
102
RTVSPropertyOp2
 70
     1
102
RTVSPropertyOp3
 70
     1
102
RTVSPropertyOp4
 70
     1
102
RTVSPropertyOp5
 70
     1
102
RTVSPropertyOp6
 70
     1
102
RTVSPropertyOp7
 70
     1
102
RTVSPropertyOp8
 70
     1
102
RTVSPropertyOp9
 70
     1
102
RTVSPropertyOp10
 70
     1
102
RTVSPropertyOp11
 70
     1
102
RTVSPropertyOp12
 70
     1
102
RTVSPropertyOp13
 70
     1
102
RTVSPropertyOp14
 70
     1
102
RTVSPropertyOp15
 70
     1
102
RTVSPropertyOp16
 70
     1
102
RTVSPropertyOp17
 70
     1
102
RTVSPropertyOp18
 70
     1
102
RTVSPropertyOp19
 70
     1
102
RTVSPropertyOp20
 70
     1
102
RTVSPropertyOp21
 70
     1
102
RTVSPropertyOp22
 70
     1
102
RTVSPropertyOp23
 70
     1
102
RTVSPropertyOp24
 70
     1
102
RTVSPropertyOp25
 70
     1
102
RTVSPropertyOp26
 70
     1
102
RTVSPropertyOp27
 70
     1
  0
XRECORD
  5
A4
102
{ACAD_REACTORS
330
A3
102
}
330
A3
100
AcDbXrecord
280
     1
102
RTVSPropertyOp0
 70
     1
102
RTVSPropertyOp1
 70
     1
102
RTVSPropertyOp2
 70
     1
102
RTVSPropertyOp3
 70
     1
102
RTVSPropertyOp4
 70
     1
102
RTVSPropertyOp5
 70
     1
102
RTVSPropertyOp6
 70
     1
102
RTVSPropertyOp7
 70
     1
102
RTVSPropertyOp8
 70
     1
102
RTVSPropertyOp9
 70
     1
102
RTVSPropertyOp10
 70
     1
102
RTVSPropertyOp11
 70
     1
102
RTVSPropertyOp12
 70
     1
102
RTVSPropertyOp13
 70
     1
102
RTVSPropertyOp14
 70
     1
102
RTVSPropertyOp15
 70
     1
102
RTVSPropertyOp16
 70
     1
102
RTVSPropertyOp17
 70
     1
102
RTVSPropertyOp18
 70
     1
102
RTVSPropertyOp19
 70
     1
102
RTVSPropertyOp20
 70
     1
102
RTVSPropertyOp21
 70
     1
102
RTVSPropertyOp22
 70
     1
102
RTVSPropertyOp23
 70
     1
102
RTVSPropertyOp24
 70
     1
102
RTVSPropertyOp25
 70
     1
102
RTVSPropertyOp26
 70
     1
102
RTVSPropertyOp27
 70
     1
  0
XRECORD
  5
A6
102
{ACAD_REACTORS
330
A5
102
}
330
A5
100
AcDbXrecord
280
     1
102
RTVSPropertyOp0
 70
     1
102
RTVSPropertyOp1
 70
     1
102
RTVSPropertyOp2
 70
     1
102
RTVSPropertyOp3
 70
     1
102
RTVSPropertyOp4
 70
     1
102
RTVSPropertyOp5
 70
     1
102
RTVSPropertyOp6
 70
     1
102
RTVSPropertyOp7
 70
     1
102
RTVSPropertyOp8
 70
     1
102
RTVSPropertyOp9
 70
     1
102
RTVSPropertyOp10
 70
     1
102
RTVSPropertyOp11
 70
     1
102
RTVSPropertyOp12
 70
     1
102
RTVSPropertyOp13
 70
     1
102
RTVSPropertyOp14
 70
     1
102
RTVSPropertyOp15
 70
     1
102
RTVSPropertyOp16
 70
     1
102
RTVSPropertyOp17
 70
     1
102
RTVSPropertyOp18
 70
     1
102
RTVSPropertyOp19
 70
     1
102
RTVSPropertyOp20
 70
     1
102
RTVSPropertyOp21
 70
     1
102
RTVSPropertyOp22
 70
     1
102
RTVSPropertyOp23
 70
     1
102
RTVSPropertyOp24
 70
     1
102
RTVSPropertyOp25
 70
     1
102
RTVSPropertyOp26
 70
     1
102
RTVSPropertyOp27
 70
     1
  0
XRECORD
  5
BA
102
{ACAD_REACTORS
330
B9
102
}
330
B9
100
AcDbXrecord
280
     1
102
RTVSPropertyOp0
 70
     1
102
RTVSPropertyOp1
 70
     1
102
RTVSPropertyOp2
 70
     1
102
RTVSPropertyOp3
 70
     1
102
RTVSPropertyOp4
 70
     1
102
RTVSPropertyOp5
 70
     1
102
RTVSPropertyOp6
 70
     1
102
RTVSPropertyOp7
 70
     1
102
RTVSPropertyOp8
 70
     1
102
RTVSPropertyOp9
 70
     1
102
RTVSPropertyOp10
 70
     1
102
RTVSPropertyOp11
 70
     1
102
RTVSPropertyOp12
 70
     1
102
RTVSPropertyOp13
 70
     1
102
RTVSPropertyOp14
 70
     1
102
RTVSPropertyOp15
 70
     1
102
RTVSPropertyOp16
 70
     1
102
RTVSPropertyOp17
 70
     1
102
RTVSPropertyOp18
 70
     1
102
RTVSPropertyOp19
 70
     1
102
RTVSPropertyOp20
 70
     1
102
RTVSPropertyOp21
 70
     1
102
RTVSPropertyOp22
 70
     1
102
RTVSPropertyOp23
 70
     1
102
RTVSPropertyOp24
 70
     1
102
RTVSPropertyOp25
 70
     1
102
RTVSPropertyOp26
 70
     1
102
RTVSPropertyOp27
 70
     1
  0
XRECORD
  5
B0
102
{ACAD_REACTORS
330
AF
102
}
330
AF
100
AcDbXrecord
280
     1
102
RTVSPropertyOp0
 70
     1
102
RTVSPropertyOp1
 70
     1
102
RTVSPropertyOp2
 70
     1
102
RTVSPropertyOp3
 70
     1
102
RTVSPropertyOp4
 70
     1
102
RTVSPropertyOp5
 70
     1
102
RTVSPropertyOp6
 70
     1
102
RTVSPropertyOp7
 70
     1
102
RTVSPropertyOp8
 70
     1
102
RTVSPropertyOp9
 70
     1
102
RTVSPropertyOp10
 70
     1
102
RTVSPropertyOp11
 70
     1
102
RTVSPropertyOp12
 70
     1
102
RTVSPropertyOp13
 70
     1
102
RTVSPropertyOp14
 70
     1
102
RTVSPropertyOp15
 70
     1
102
RTVSPropertyOp16
 70
     1
102
RTVSPropertyOp17
 70
     1
102
RTVSPropertyOp18
 70
     1
102
RTVSPropertyOp19
 70
     1
102
RTVSPropertyOp20
 70
     1
102
RTVSPropertyOp21
 70
     1
102
RTVSPropertyOp22
 70
     1
102
RTVSPropertyOp23
 70
     1
102
RTVSPropertyOp24
 70
     1
102
RTVSPropertyOp25
 70
     1
102
RTVSPropertyOp26
 70
     1
102
RTVSPropertyOp27
 70
     1
  0
XRECORD
  5
B8
102
{ACAD_REACTORS
330
B7
102
}
330
B7
100
AcDbXrecord
280
     1
102
RTVSPropertyOp0
 70
     1
102
RTVSPropertyOp1
 70
     1
102
RTVSPropertyOp2
 70
     1
102
RTVSPropertyOp3
 70
     1
102
RTVSPropertyOp4
 70
     1
102
RTVSPropertyOp5
 70
     1
102
RTVSPropertyOp6
 70
     1
102
RTVSPropertyOp7
 70
     1
102
RTVSPropertyOp8
 70
     1
102
RTVSPropertyOp9
 70
     1
102
RTVSPropertyOp10
 70
     1
102
RTVSPropertyOp11
 70
     1
102
RTVSPropertyOp12
 70
     1
102
RTVSPropertyOp13
 70
     1
102
RTVSPropertyOp14
 70
     1
102
RTVSPropertyOp15
 70
     1
102
RTVSPropertyOp16
 70
     1
102
RTVSPropertyOp17
 70
     1
102
RTVSPropertyOp18
 70
     1
102
RTVSPropertyOp19
 70
     1
102
RTVSPropertyOp20
 70
     1
102
RTVSPropertyOp21
 70
     1
102
RTVSPropertyOp22
 70
     1
102
RTVSPropertyOp23
 70
     1
102
RTVSPropertyOp24
 70
     1
102
RTVSPropertyOp25
 70
     1
102
RTVSPropertyOp26
 70
     1
102
RTVSPropertyOp27
 70
     1
  0
ENDSEC
  0
EOF
