  0
SECTION
  2
HEADER
  9
$ACADVER
  1
AC1014
  9
$ACADMAINTVER
 70
     9
  9
$DWGCODEPAGE
  3
ANSI_1250
  9
$INSBASE
 10
0.0
 20
0.0
 30
0.0
  9
$EXTMIN
 10
-16.2463
 20
-17.6524
 30
0.0
  9
$EXTMAX
 10
16.3565
 20
17.6147
 30
0.0
  9
$LIMMIN
 10
0.0
 20
0.0
  9
$LIMMAX
 10
12.0
 20
9.0
  9
$ORTHOMODE
 70
     0
  9
$REGENMODE
 70
     1
  9
$FILLMODE
 70
     1
  9
$QTEXTMODE
 70
     0
  9
$MIRRTEXT
 70
     1
  9
$DRAGMODE
 70
     2
  9
$LTSCALE
 40
1.0
  9
$OSMODE
 70
    37
  9
$ATTMODE
 70
     1
  9
$TEXTSIZE
 40
0.2
  9
$TRACEWID
 40
0.05
  9
$TEXTSTYLE
  7
STANDARD
  9
$CLAYER
  8
0
  9
$CELTYPE
  6
BYLAYER
  9
$CECOLOR
 62
   256
  9
$CELTSCALE
 40
1.0
  9
$DELOBJ
 70
     1
  9
$DISPSILH
 70
     0
  9
$DIMSCALE
 40
1.0
  9
$DIMASZ
 40
0.18
  9
$DIMEXO
 40
0.0625
  9
$DIMDLI
 40
0.38
  9
$DIMRND
 40
0.0
  9
$DIMDLE
 40
0.0
  9
$DIMEXE
 40
0.18
  9
$DIMTP
 40
0.0
  9
$DIMTM
 40
0.0
  9
$DIMTXT
 40
0.18
  9
$DIMCEN
 40
0.09
  9
$DIMTSZ
 40
0.0
  9
$DIMTOL
 70
     0
  9
$DIMLIM
 70
     0
  9
$DIMTIH
 70
     1
  9
$DIMTOH
 70
     1
  9
$DIMSE1
 70
     0
  9
$DIMSE2
 70
     0
  9
$DIMTAD
 70
     0
  9
$DIMZIN
 70
     0
  9
$DIMBLK
  1

  9
$DIMASO
 70
     1
  9
$DIMSHO
 70
     1
  9
$DIMPOST
  1

  9
$DIMAPOST
  1

  9
$DIMALT
 70
     0
  9
$DIMALTD
 70
     2
  9
$DIMALTF
 40
25.4
  9
$DIMLFAC
 40
1.0
  9
$DIMTOFL
 70
     0
  9
$DIMTVP
 40
0.0
  9
$DIMTIX
 70
     0
  9
$DIMSOXD
 70
     0
  9
$DIMSAH
 70
     0
  9
$DIMBLK1
  1

  9
$DIMBLK2
  1

  9
$DIMSTYLE
  2
STANDARD
  9
$DIMCLRD
 70
     0
  9
$DIMCLRE
 70
     0
  9
$DIMCLRT
 70
     0
  9
$DIMTFAC
 40
1.0
  9
$DIMGAP
 40
0.09
  9
$DIMJUST
 70
     0
  9
$DIMSD1
 70
     0
  9
$DIMSD2
 70
     0
  9
$DIMTOLJ
 70
     1
  9
$DIMTZIN
 70
     0
  9
$DIMALTZ
 70
     0
  9
$DIMALTTZ
 70
     0
  9
$DIMFIT
 70
     3
  9
$DIMUPT
 70
     0
  9
$DIMUNIT
 70
     2
  9
$DIMDEC
 70
     4
  9
$DIMTDEC
 70
     4
  9
$DIMALTU
 70
     2
  9
$DIMALTTD
 70
     2
  9
$DIMTXSTY
  7
STANDARD
  9
$DIMAUNIT
 70
     0
  9
$LUNITS
 70
     2
  9
$LUPREC
 70
     4
  9
$SKETCHINC
 40
0.1
  9
$FILLETRAD
 40
0.5
  9
$AUNITS
 70
     0
  9
$AUPREC
 70
     0
  9
$MENU
  1
.
  9
$ELEVATION
 40
0.0
  9
$PELEVATION
 40
0.0
  9
$THICKNESS
 40
0.0
  9
$LIMCHECK
 70
     0
  9
$CHAMFERA
 40
0.5
  9
$CHAMFERB
 40
0.5
  9
$CHAMFERC
 40
1.0
  9
$CHAMFERD
 40
0.0
  9
$SKPOLY
 70
     0
  9
$TDCREATE
 40
2456268.579763009
  9
$TDUPDATE
 40
2456268.579763021
  9
$TDINDWG
 40
0.0000000116
  9
$TDUSRTIMER
 40
0.0000000116
  9
$USRTIMER
 70
     1
  9
$ANGBASE
 50
0.0
  9
$ANGDIR
 70
     0
  9
$PDMODE
 70
     0
  9
$PDSIZE
 40
0.0
  9
$PLINEWID
 40
0.0
  9
$COORDS
 70
     1
  9
$SPLFRAME
 70
     0
  9
$SPLINETYPE
 70
     6
  9
$SPLINESEGS
 70
     8
  9
$ATTDIA
 70
     0
  9
$ATTREQ
 70
     1
  9
$HANDLING
 70
     1
  9
$HANDSEED
  5
98
  9
$SURFTAB1
 70
     6
  9
$SURFTAB2
 70
     6
  9
$SURFTYPE
 70
     6
  9
$SURFU
 70
     6
  9
$SURFV
 70
     6
  9
$UCSNAME
  2

  9
$UCSORG
 10
0.0
 20
0.0
 30
0.0
  9
$UCSXDIR
 10
1.0
 20
0.0
 30
0.0
  9
$UCSYDIR
 10
0.0
 20
1.0
 30
0.0
  9
$PUCSNAME
  2

  9
$PUCSORG
 10
0.0
 20
0.0
 30
0.0
  9
$PUCSXDIR
 10
1.0
 20
0.0
 30
0.0
  9
$PUCSYDIR
 10
0.0
 20
1.0
 30
0.0
  9
$USERI1
 70
     0
  9
$USERI2
 70
     0
  9
$USERI3
 70
     0
  9
$USERI4
 70
     0
  9
$USERI5
 70
     0
  9
$USERR1
 40
0.0
  9
$USERR2
 40
0.0
  9
$USERR3
 40
0.0
  9
$USERR4
 40
0.0
  9
$USERR5
 40
0.0
  9
$WORLDVIEW
 70
     1
  9
$SHADEDGE
 70
     3
  9
$SHADEDIF
 70
    70
  9
$TILEMODE
 70
     1
  9
$MAXACTVP
 70
    64
  9
$PINSBASE
 10
0.0
 20
0.0
 30
0.0
  9
$PLIMCHECK
 70
     0
  9
$PEXTMIN
 10
1.000000000000000E+20
 20
1.000000000000000E+20
 30
1.000000000000000E+20
  9
$PEXTMAX
 10
-1.000000000000000E+20
 20
-1.000000000000000E+20
 30
-1.000000000000000E+20
  9
$PLIMMIN
 10
0.0
 20
0.0
  9
$PLIMMAX
 10
12.0
 20
9.0
  9
$UNITMODE
 70
     0
  9
$VISRETAIN
 70
     1
  9
$PLINEGEN
 70
     0
  9
$PSLTSCALE
 70
     1
  9
$TREEDEPTH
 70
  3020
  9
$PICKSTYLE
 70
     1
  9
$CMLSTYLE
  2
STANDARD
  9
$CMLJUST
 70
     0
  9
$CMLSCALE
 40
1.0
  9
$PROXYGRAPHICS
 70
     1
  9
$MEASUREMENT
 70
     0
  0
ENDSEC
  0
SECTION
  2
CLASSES
  0
CLASS
  1
ACDBDICTIONARYWDFLT
  2
AcDbDictionaryWithDefault
  3
ObjectDBX Classes
 90
        0
280
     0
281
     0
  0
CLASS
  1
VISUALSTYLE
  2
AcDbVisualStyle
  3
ObjectDBX Classes
 90
     4095
280
     0
281
     0
  0
CLASS
  1
MATERIAL
  2
AcDbMaterial
  3
ObjectDBX Classes
 90
     1153
280
     0
281
     0
  0
CLASS
  1
DICTIONARYVAR
  2
AcDbDictionaryVar
  3
ObjectDBX Classes
 90
        0
280
     0
281
     0
  0
CLASS
  1
XRECORD
  2
AcDbXrecord
  3
AutoCAD 2000
 90
        0
280
     0
281
     0
  0
CLASS
  1
LWPOLYLINE
  2
AcDbPolyline
  3
AutoCAD 2000
 90
        0
280
     0
281
     1
  0
CLASS
  1
HATCH
  2
AcDbHatch
  3
AutoCAD 2000
 90
        0
280
     0
281
     1
  0
CLASS
  1
ACDBPLACEHOLDER
  2
AcDbPlaceHolder
  3
ObjectDBX Classes
 90
        0
280
     0
281
     0
  0
CLASS
  1
LAYOUT
  2
AcDbLayout
  3
ObjectDBX Classes
 90
        0
280
     0
281
     0
  0
ENDSEC
  0
SECTION
  2
TABLES
  0
TABLE
  2
VPORT
  5
8
330
0
100
AcDbSymbolTable
 70
     1
  0
VPORT
  5
29
330
8
100
AcDbSymbolTableRecord
100
AcDbViewportTableRecord
  2
*ACTIVE
 70
     0
 10
0.0
 20
0.0
 11
1.0
 21
1.0
 12
10.42990654205607
 22
4.5
 13
0.0
 23
0.0
 14
0.5
 24
0.5
 15
0.5
 25
0.5
 16
0.0
 26
0.0
 36
1.0
 17
0.0
 27
0.0
 37
0.0
 40
9.0
 41
1.972972972850329
 42
50.0
 43
0.0
 44
0.0
 50
0.0
 51
0.0
 71
     0
 72
   100
 73
     1
 74
     3
 75
     0
 76
     0
 77
     0
 78
     0
  0
ENDTAB
  0
TABLE
  2
LTYPE
  5
5
330
0
100
AcDbSymbolTable
 70
     2
  0
LTYPE
  5
14
330
5
100
AcDbSymbolTableRecord
100
AcDbLinetypeTableRecord
  2
BYBLOCK
 70
     0
  3

 72
    65
 73
     0
 40
0.0
  0
LTYPE
  5
15
330
5
100
AcDbSymbolTableRecord
100
AcDbLinetypeTableRecord
  2
BYLAYER
 70
     0
  3

 72
    65
 73
     0
 40
0.0
  0
LTYPE
  5
16
330
5
100
AcDbSymbolTableRecord
100
AcDbLinetypeTableRecord
  2
CONTINUOUS
 70
     0
  3
Solid line
 72
    65
 73
     0
 40
0.0
  0
LTYPE
  5
4B
330
5
100
AcDbSymbolTableRecord
100
AcDbLinetypeTableRecord
  2
NEW_LINE1
 70
     0
  3

 72
    65
 73
     4
 40
1.2
 49
0.5
 74
     4
 75
     0
340
0
 46
1.0
 50
0.0
 44
0.0
 45
0.0
 49
-0.3
 74
     4
 75
     0
340
0
 46
1.0
 50
0.0
 44
0.0
 45
0.0
 49
0.1
 74
     4
 75
     0
340
0
 46
1.0
 50
0.0
 44
0.0
 45
0.0
 49
-0.3
 74
     4
 75
     0
340
0
 46
1.0
 50
0.0
 44
0.0
 45
0.0
  0
ENDTAB
  0
TABLE
  2
LAYER
  5
2
330
0
100
AcDbSymbolTable
 70
     2
  0
LAYER
  5
10
330
2
100
AcDbSymbolTableRecord
100
AcDbLayerTableRecord
  2
0
 70
     0
 62
     7
  6
CONTINUOUS
  0
LAYER
  5
40
330
2
100
AcDbSymbolTableRecord
100
AcDbLayerTableRecord
  2
DEFAULT_1
 70
     0
 62
     7
  6
CONTINUOUS
  0
ENDTAB
  0
TABLE
  2
STYLE
  5
3
330
0
100
AcDbSymbolTable
 70
     1
  0
STYLE
  5
11
330
3
100
AcDbSymbolTableRecord
100
AcDbTextStyleTableRecord
  2
STANDARD
 70
     0
 40
0.0
 41
1.0
 50
0.0
 71
     0
 42
0.2
  3
txt
  4

  0
ENDTAB
  0
TABLE
  2
VIEW
  5
6
330
0
100
AcDbSymbolTable
 70
     0
  0
ENDTAB
  0
TABLE
  2
UCS
  5
7
330
0
100
AcDbSymbolTable
 70
     0
  0
ENDTAB
  0
TABLE
  2
APPID
  5
9
330
0
100
AcDbSymbolTable
 70
     2
  0
APPID
  5
12
330
9
100
AcDbSymbolTableRecord
100
AcDbRegAppTableRecord
  2
ACAD
 70
     0
  0
APPID
  5
3F
330
9
100
AcDbSymbolTableRecord
100
AcDbRegAppTableRecord
  2
ODA
 70
     0
  0
ENDTAB
  0
TABLE
  2
DIMSTYLE
  5
A
330
0
100
AcDbSymbolTable
 70
     1
  0
DIMSTYLE
105
27
330
A
100
AcDbSymbolTableRecord
100
AcDbDimStyleTableRecord
  2
STANDARD
 70
     0
  3

  4

  5

  6

  7

 40
1.0
 41
0.18
 42
0.0625
 43
0.38
 44
0.18
 45
0.0
 46
0.0
 47
0.0
 48
0.0
140
0.18
141
0.09
142
0.0
143
25.4
144
1.0
145
0.0
146
1.0
147
0.09
 71
     0
 72
     0
 73
     1
 74
     1
 75
     0
 76
     0
 77
     0
 78
     0
170
     0
171
     2
172
     0
173
     0
174
     0
175
     0
176
     0
177
     0
178
     0
270
     2
271
     4
272
     4
273
     2
274
     2
340
11
275
     0
280
     0
281
     0
282
     0
283
     1
284
     0
285
     0
286
     0
287
     3
288
     0
  0
ENDTAB
  0
TABLE
  2
BLOCK_RECORD
  5
1
330
0
100
AcDbSymbolTable
 70
     1
  0
BLOCK_RECORD
  5
1F
330
1
100
AcDbSymbolTableRecord
100
AcDbBlockTableRecord
  2
*MODEL_SPACE
  0
BLOCK_RECORD
  5
1B
330
1
100
AcDbSymbolTableRecord
100
AcDbBlockTableRecord
  2
*PAPER_SPACE
  0
ENDTAB
  0
ENDSEC
  0
SECTION
  2
BLOCKS
  0
BLOCK
  5
20
330
1F
100
AcDbEntity
  8
0
100
AcDbBlockBegin
  2
*MODEL_SPACE
 70
     0
 10
0.0
 20
0.0
 30
0.0
  3
*MODEL_SPACE
  1

  0
ENDBLK
  5
21
330
1F
100
AcDbEntity
  8
0
100
AcDbBlockEnd
  0
BLOCK
  5
1C
330
1B
100
AcDbEntity
 67
     1
  8
0
100
AcDbBlockBegin
  2
*PAPER_SPACE
 70
     0
 10
0.0
 20
0.0
 30
0.0
  3
*PAPER_SPACE
  1

  0
ENDBLK
  5
1D
330
1B
100
AcDbEntity
 67
     1
  8
0
100
AcDbBlockEnd
  0
ENDSEC
  0
SECTION
  2
ENTITIES
  0
SPLINE
  5
41
330
1F
100
AcDbEntity
  8
DEFAULT_1
 62
   250
100
AcDbSpline
210
0.0
220
0.0
230
1.0
 70
    24
 71
     3
 72
     8
 73
     4
 74
     0
 42
0.0000000001
 43
0.0000000001
 40
0.0
 40
0.0
 40
0.0
 40
0.0
 40
1.0
 40
1.0
 40
1.0
 40
1.0
 10
-4.5464
 20
-4.4232
 30
0.0
 10
-4.5464
 20
-4.4232
 30
0.0
 10
-14.1805
 20
-4.4232
 30
0.0
 10
-14.1805
 20
-4.4232
 30
0.0
  0
SPLINE
  5
42
330
1F
100
AcDbEntity
  8
DEFAULT_1
 62
   250
100
AcDbSpline
210
0.0
220
0.0
230
1.0
 70
    24
 71
     3
 72
     8
 73
     4
 74
     0
 42
0.0000000001
 43
0.0000000001
 40
0.0
 40
0.0
 40
0.0
 40
0.0
 40
1.0
 40
1.0
 40
1.0
 40
1.0
 10
-13.4999
 20
9.048
 30
0.0
 10
-13.4999
 20
9.048
 30
0.0
 10
-13.4999
 20
-16.2611
 30
0.0
 10
-13.4999
 20
-16.2611
 30
0.0
  0
SPLINE
  5
43
330
1F
100
AcDbEntity
  8
DEFAULT_1
 62
   250
100
AcDbSpline
210
0.0
220
0.0
230
1.0
 70
    24
 71
     3
 72
     8
 73
     4
 74
     0
 42
0.0000000001
 43
0.0000000001
 40
0.0
 40
0.0
 40
0.0
 40
0.0
 40
1.0
 40
1.0
 40
1.0
 40
1.0
 10
-11.0376
 20
7.0594
 30
0.0
 10
-11.0376
 20
7.0594
 30
0.0
 10
-11.0376
 20
16.0607
 30
0.0
 10
-11.0376
 20
16.0607
 30
0.0
  0
SPLINE
  5
44
330
1F
100
AcDbEntity
  8
DEFAULT_1
 62
   250
100
AcDbSpline
210
0.0
220
0.0
230
1.0
 70
    24
 71
     3
 72
     8
 73
     4
 74
     0
 42
0.0000000001
 43
0.0000000001
 40
0.0
 40
0.0
 40
0.0
 40
0.0
 40
1.0
 40
1.0
 40
1.0
 40
1.0
 10
16.246
 20
7.0926
 30
0.0
 10
16.246
 20
7.0926
 30
0.0
 10
16.246
 20
16.0607
 30
0.0
 10
16.246
 20
16.0607
 30
0.0
  0
SPLINE
  5
45
330
1F
100
AcDbEntity
  8
DEFAULT_1
 62
   250
100
AcDbSpline
210
0.0
220
0.0
230
1.0
 70
    24
 71
     3
 72
     8
 73
     4
 74
     0
 42
0.0000000001
 43
0.0000000001
 40
0.0
 40
0.0
 40
0.0
 40
0.0
 40
1.0
 40
1.0
 40
1.0
 40
1.0
 10
15.7997
 20
14.9011
 30
0.0
 10
15.7997
 20
14.9011
 30
0.0
 10
-10.4018
 20
14.9011
 30
0.0
 10
-10.4018
 20
14.9011
 30
0.0
  0
SPLINE
  5
46
330
1F
100
AcDbEntity
  8
DEFAULT_1
 62
   250
100
AcDbSpline
210
0.0
220
0.0
230
1.0
 70
    24
 71
     3
 72
     8
 73
     4
 74
     0
 42
0.0000000001
 43
0.0000000001
 40
0.0
 40
0.0
 40
0.0
 40
0.0
 40
1.0
 40
1.0
 40
1.0
 40
1.0
 10
-6.7746
 20
9.0481
 30
0.0
 10
-6.7746
 20
9.0481
 30
0.0
 10
-14.2124
 20
9.0481
 30
0.0
 10
-14.2124
 20
9.0481
 30
0.0
  0
SPLINE
  5
47
330
1F
100
AcDbEntity
  8
DEFAULT_1
 62
   250
100
AcDbSpline
210
0.0
220
0.0
230
1.0
 70
    11
 71
     3
 72
    36
 73
    32
 74
     0
 42
0.0000000001
 43
0.0000000001
 40
0.0
 40
0.0
 40
0.0
 40
0.0
 40
0.1111111111111111
 40
0.1111111111111111
 40
0.1111111111111111
 40
0.1111111111111111
 40
0.2222222222222222
 40
0.2222222222222222
 40
0.2222222222222222
 40
0.2222222222222222
 40
0.3333333333333333
 40
0.3333333333333333
 40
0.3333333333333333
 40
0.3333333333333333
 40
0.4444444444444444
 40
0.4444444444444444
 40
0.4444444444444444
 40
0.4444444444444444
 40
0.5555555555555556
 40
0.5555555555555556
 40
0.5555555555555556
 40
0.5555555555555556
 40
0.6666666666666666
 40
0.6666666666666666
 40
0.6666666666666666
 40
0.6666666666666666
 40
0.7777777777777778
 40
0.7777777777777778
 40
0.7777777777777778
 40
0.7777777777777778
 40
1.0
 40
1.0
 40
1.0
 40
1.0
 10
16.2154
 20
6.1321
 30
0.0
 10
16.2154
 20
6.1321
 30
0.0
 10
16.2154
 20
6.4093
 30
0.0
 10
16.2154
 20
6.4093
 30
0.0
 10
16.2154
 20
6.4093
 30
0.0
 10
16.2154
 20
6.4093
 30
0.0
 10
11.983
 20
6.4664
 30
0.0
 10
11.983
 20
6.4664
 30
0.0
 10
11.983
 20
6.4664
 30
0.0
 10
11.983
 20
6.4664
 30
0.0
 10
-6.7746
 20
6.4664
 30
0.0
 10
-6.7746
 20
6.4664
 30
0.0
 10
-6.7746
 20
6.4664
 30
0.0
 10
-6.7746
 20
6.4664
 30
0.0
 10
-11.0888
 20
6.34
 30
0.0
 10
-11.0888
 20
6.34
 30
0.0
 10
-11.0888
 20
6.34
 30
0.0
 10
-11.0888
 20
6.34
 30
0.0
 10
-11.0888
 20
6.0859
 30
0.0
 10
-11.0888
 20
6.0859
 30
0.0
 10
-11.0888
 20
6.0859
 30
0.0
 10
-11.0888
 20
6.0859
 30
0.0
 10
-6.2609
 20
5.9242
 30
0.0
 10
-6.2609
 20
5.9242
 30
0.0
 10
-6.2609
 20
5.9242
 30
0.0
 10
-6.2609
 20
5.9242
 30
0.0
 10
11.2027
 20
5.9704
 30
0.0
 10
11.2027
 20
5.9704
 30
0.0
 10
11.2027
 20
5.9704
 30
0.0
 10
11.2027
 20
5.9704
 30
0.0
 10
16.2154
 20
6.1321
 30
0.0
 10
16.2154
 20
6.1321
 30
0.0
  0
SPLINE
  5
48
330
1F
100
AcDbEntity
  8
DEFAULT_1
 62
   250
100
AcDbSpline
210
0.0
220
0.0
230
1.0
 70
     8
 71
     3
 72
    16
 73
    12
 74
     0
 42
0.0000000001
 43
0.0000000001
 40
0.0
 40
0.0
 40
0.0
 40
0.0
 40
0.25
 40
0.25
 40
0.25
 40
0.25
 40
0.5
 40
0.5
 40
0.5
 40
0.5
 40
1.0
 40
1.0
 40
1.0
 40
1.0
 10
-6.2048
 20
5.9733
 30
0.0
 10
-6.2048
 20
5.9733
 30
0.0
 10
-6.2083
 20
5.2966
 30
0.0
 10
-6.2083
 20
5.2966
 30
0.0
 10
-6.2083
 20
5.2966
 30
0.0
 10
-6.2083
 20
5.2966
 30
0.0
 10
11.4167
 20
5.2966
 30
0.0
 10
11.4167
 20
5.2966
 30
0.0
 10
11.4167
 20
5.2966
 30
0.0
 10
11.4167
 20
5.2966
 30
0.0
 10
11.4419
 20
6.0461
 30
0.0
 10
11.4419
 20
6.0461
 30
0.0
  0
SPLINE
  5
49
330
1F
100
AcDbEntity
  8
DEFAULT_1
 62
   250
100
AcDbSpline
210
0.0
220
0.0
230
1.0
 70
     8
 71
     3
 72
    16
 73
    12
 74
     0
 42
0.0000000001
 43
0.0000000001
 40
0.0
 40
0.0
 40
0.0
 40
0.0
 40
0.25
 40
0.25
 40
0.25
 40
0.25
 40
0.5
 40
0.5
 40
0.5
 40
0.5
 40
1.0
 40
1.0
 40
1.0
 40
1.0
 10
-6.768
 20
6.4841
 30
0.0
 10
-6.768
 20
6.4841
 30
0.0
 10
-6.7746
 20
9.0481
 30
0.0
 10
-6.7746
 20
9.0481
 30
0.0
 10
-6.7746
 20
9.0481
 30
0.0
 10
-6.7746
 20
9.0481
 30
0.0
 10
11.983
 20
9.0481
 30
0.0
 10
11.983
 20
9.0481
 30
0.0
 10
11.983
 20
9.0481
 30
0.0
 10
11.983
 20
9.0481
 30
0.0
 10
11.9793
 20
6.4588
 30
0.0
 10
11.9793
 20
6.4588
 30
0.0
  0
SPLINE
  5
4A
330
1F
100
AcDbEntity
  8
DEFAULT_1
  6
NEW_LINE1
 62
   250
100
AcDbSpline
210
0.0
220
0.0
230
1.0
 70
    24
 71
     3
 72
     8
 73
     4
 74
     0
 42
0.0000000001
 43
0.0000000001
 40
0.0
 40
0.0
 40
0.0
 40
0.0
 40
1.0
 40
1.0
 40
1.0
 40
1.0
 10
2.6042
 20
-13.5841
 30
0.0
 10
2.6042
 20
-13.5841
 30
0.0
 10
2.6042
 20
10.5706
 30
0.0
 10
2.6042
 20
10.5706
 30
0.0
  0
SPLINE
  5
4C
330
1F
100
AcDbEntity
  8
DEFAULT_1
 62
   250
100
AcDbSpline
210
0.0
220
0.0
230
1.0
 70
    11
 71
     3
 72
    92
 73
    88
 74
     0
 42
0.0000000001
 43
0.0000000001
 40
0.0
 40
0.0
 40
0.0
 40
0.0
 40
0.0434782608695652
 40
0.0434782608695652
 40
0.0434782608695652
 40
0.0434782608695652
 40
0.0869565217391304
 40
0.0869565217391304
 40
0.0869565217391304
 40
0.0869565217391304
 40
0.1304347826086956
 40
0.1304347826086956
 40
0.1304347826086956
 40
0.1304347826086956
 40
0.1739130434782609
 40
0.1739130434782609
 40
0.1739130434782609
 40
0.1739130434782609
 40
0.2173913043478261
 40
0.2173913043478261
 40
0.2173913043478261
 40
0.2173913043478261
 40
0.2608695652173913
 40
0.2608695652173913
 40
0.2608695652173913
 40
0.2608695652173913
 40
0.3043478260869565
 40
0.3043478260869565
 40
0.3043478260869565
 40
0.3043478260869565
 40
0.3478260869565217
 40
0.3478260869565217
 40
0.3478260869565217
 40
0.3478260869565217
 40
0.391304347826087
 40
0.391304347826087
 40
0.391304347826087
 40
0.391304347826087
 40
0.4347826086956522
 40
0.4347826086956522
 40
0.4347826086956522
 40
0.4347826086956522
 40
0.4782608695652174
 40
0.4782608695652174
 40
0.4782608695652174
 40
0.4782608695652174
 40
0.5217391304347826
 40
0.5217391304347826
 40
0.5217391304347826
 40
0.5217391304347826
 40
0.5652173913043478
 40
0.5652173913043478
 40
0.5652173913043478
 40
0.5652173913043478
 40
0.6086956521739131
 40
0.6086956521739131
 40
0.6086956521739131
 40
0.6086956521739131
 40
0.6521739130434783
 40
0.6521739130434783
 40
0.6521739130434783
 40
0.6521739130434783
 40
0.6956521739130435
 40
0.6956521739130435
 40
0.6956521739130435
 40
0.6956521739130435
 40
0.7391304347826086
 40
0.7391304347826086
 40
0.7391304347826086
 40
0.7391304347826086
 40
0.782608695652174
 40
0.782608695652174
 40
0.782608695652174
 40
0.782608695652174
 40
0.8260869565217391
 40
0.8260869565217391
 40
0.8260869565217391
 40
0.8260869565217391
 40
0.8695652173913043
 40
0.8695652173913043
 40
0.8695652173913043
 40
0.8695652173913043
 40
0.9130434782608695
 40
0.9130434782608695
 40
0.9130434782608695
 40
0.9130434782608695
 40
1.0
 40
1.0
 40
1.0
 40
1.0
 10
-14.7468
 20
-10.219
 30
0.0
 10
-14.7468
 20
-10.219
 30
0.0
 10
-14.7689
 20
-9.9584
 30
0.0
 10
-14.7689
 20
-9.9584
 30
0.0
 10
-14.7689
 20
-9.9584
 30
0.0
 10
-14.6419
 20
-9.9391
 30
0.0
 10
-14.5469
 20
-9.8944
 30
0.0
 10
-14.4829
 20
-9.8243
 30
0.0
 10
-14.4829
 20
-9.8243
 30
0.0
 10
-14.4189
 20
-9.7538
 30
0.0
 10
-14.3869
 20
-9.6691
 30
0.0
 10
-14.3869
 20
-9.5699
 30
0.0
 10
-14.3869
 20
-9.5699
 30
0.0
 10
-14.3869
 20
-9.4504
 30
0.0
 10
-14.4321
 20
-9.3493
 30
0.0
 10
-14.5219
 20
-9.267
 30
0.0
 10
-14.5219
 20
-9.267
 30
0.0
 10
-14.6122
 20
-9.1842
 30
0.0
 10
-14.7317
 20
-9.1428
 30
0.0
 10
-14.8803
 20
-9.1428
 30
0.0
 10
-14.8803
 20
-9.1428
 30
0.0
 10
-15.0219
 20
-9.1428
 30
0.0
 10
-15.1334
 20
-9.1823
 30
0.0
 10
-15.2152
 20
-9.2618
 30
0.0
 10
-15.2152
 20
-9.2618
 30
0.0
 10
-15.2971
 20
-9.3413
 30
0.0
 10
-15.338
 20
-9.4452
 30
0.0
 10
-15.338
 20
-9.5741
 30
0.0
 10
-15.338
 20
-9.5741
 30
0.0
 10
-15.338
 20
-9.6541
 30
0.0
 10
-15.3197
 20
-9.726
 30
0.0
 10
-15.2835
 20
-9.7905
 30
0.0
 10
-15.2835
 20
-9.7905
 30
0.0
 10
-15.2472
 20
-9.8549
 30
0.0
 10
-15.2002
 20
-9.9052
 30
0.0
 10
-15.1423
 20
-9.9419
 30
0.0
 10
-15.1423
 20
-9.9419
 30
0.0
 10
-15.1423
 20
-9.9419
 30
0.0
 10
-15.1724
 20
-10.1748
 30
0.0
 10
-15.1724
 20
-10.1748
 30
0.0
 10
-15.1724
 20
-10.1748
 30
0.0
 10
-15.1724
 20
-10.1748
 30
0.0
 10
-16.2101
 20
-9.9791
 30
0.0
 10
-16.2101
 20
-9.9791
 30
0.0
 10
-16.2101
 20
-9.9791
 30
0.0
 10
-16.2101
 20
-9.9791
 30
0.0
 10
-16.2101
 20
-8.9744
 30
0.0
 10
-16.2101
 20
-8.9744
 30
0.0
 10
-16.2101
 20
-8.9744
 30
0.0
 10
-16.2101
 20
-8.9744
 30
0.0
 10
-15.973
 20
-8.9744
 30
0.0
 10
-15.973
 20
-8.9744
 30
0.0
 10
-15.973
 20
-8.9744
 30
0.0
 10
-15.973
 20
-8.9744
 30
0.0
 10
-15.973
 20
-9.7806
 30
0.0
 10
-15.973
 20
-9.7806
 30
0.0
 10
-15.973
 20
-9.7806
 30
0.0
 10
-15.973
 20
-9.7806
 30
0.0
 10
-15.4302
 20
-9.8897
 30
0.0
 10
-15.4302
 20
-9.8897
 30
0.0
 10
-15.4302
 20
-9.8897
 30
0.0
 10
-15.5149
 20
-9.7684
 30
0.0
 10
-15.5572
 20
-9.6409
 30
0.0
 10
-15.5572
 20
-9.5078
 30
0.0
 10
-15.5572
 20
-9.5078
 30
0.0
 10
-15.5572
 20
-9.3314
 30
0.0
 10
-15.4961
 20
-9.1828
 30
0.0
 10
-15.3738
 20
-9.0614
 30
0.0
 10
-15.3738
 20
-9.0614
 30
0.0
 10
-15.2515
 20
-8.9401
 30
0.0
 10
-15.0944
 20
-8.8794
 30
0.0
 10
-14.9025
 20
-8.8794
 30
0.0
 10
-14.9025
 20
-8.8794
 30
0.0
 10
-14.7195
 20
-8.8794
 30
0.0
 10
-14.5614
 20
-8.933
 30
0.0
 10
-14.4283
 20
-9.0393
 30
0.0
 10
-14.4283
 20
-9.0393
 30
0.0
 10
-14.2651
 20
-9.1691
 30
0.0
 10
-14.1833
 20
-9.346
 30
0.0
 10
-14.1833
 20
-9.5699
 30
0.0
 10
-14.1833
 20
-9.5699
 30
0.0
 10
-14.1833
 20
-9.7538
 30
0.0
 10
-14.2345
 20
-9.9038
 30
0.0
 10
-14.3375
 20
-10.02
 30
0.0
 10
-14.3375
 20
-10.02
 30
0.0
 10
-14.4406
 20
-10.1362
 30
0.0
 10
-14.577
 20
-10.2025
 30
0.0
 10
-14.7468
 20
-10.219
 30
0.0
  0
SPLINE
  5
4D
330
1F
100
AcDbEntity
  8
DEFAULT_1
 62
   250
100
AcDbSpline
210
0.0
220
0.0
230
1.0
 70
    11
 71
     3
 72
    52
 73
    48
 74
     0
 42
0.0000000001
 43
0.0000000001
 40
0.0
 40
0.0
 40
0.0
 40
0.0
 40
0.0769230769230769
 40
0.0769230769230769
 40
0.0769230769230769
 40
0.0769230769230769
 40
0.1538461538461539
 40
0.1538461538461539
 40
0.1538461538461539
 40
0.1538461538461539
 40
0.2307692307692308
 40
0.2307692307692308
 40
0.2307692307692308
 40
0.2307692307692308
 40
0.3076923076923077
 40
0.3076923076923077
 40
0.3076923076923077
 40
0.3076923076923077
 40
0.3846153846153846
 40
0.3846153846153846
 40
0.3846153846153846
 40
0.3846153846153846
 40
0.4615384615384616
 40
0.4615384615384616
 40
0.4615384615384616
 40
0.4615384615384616
 40
0.5384615384615384
 40
0.5384615384615384
 40
0.5384615384615384
 40
0.5384615384615384
 40
0.6153846153846154
 40
0.6153846153846154
 40
0.6153846153846154
 40
0.6153846153846154
 40
0.6923076923076923
 40
0.6923076923076923
 40
0.6923076923076923
 40
0.6923076923076923
 40
0.7692307692307693
 40
0.7692307692307693
 40
0.7692307692307693
 40
0.7692307692307693
 40
0.8461538461538461
 40
0.8461538461538461
 40
0.8461538461538461
 40
0.8461538461538461
 40
1.0
 40
1.0
 40
1.0
 40
1.0
 10
-15.2138
 20
-8.6494
 30
0.0
 10
-15.4528
 20
-8.6494
 30
0.0
 10
-15.6452
 20
-8.6249
 30
0.0
 10
-15.7905
 20
-8.5755
 30
0.0
 10
-15.7905
 20
-8.5755
 30
0.0
 10
-15.9363
 20
-8.5266
 30
0.0
 10
-16.0487
 20
-8.4532
 30
0.0
 10
-16.1278
 20
-8.3563
 30
0.0
 10
-16.1278
 20
-8.3563
 30
0.0
 10
-16.2068
 20
-8.2594
 30
0.0
 10
-16.2463
 20
-8.1376
 30
0.0
 10
-16.2463
 20
-7.9909
 30
0.0
 10
-16.2463
 20
-7.9909
 30
0.0
 10
-16.2463
 20
-7.8822
 30
0.0
 10
-16.2242
 20
-7.7872
 30
0.0
 10
-16.1804
 20
-7.7054
 30
0.0
 10
-16.1804
 20
-7.7054
 30
0.0
 10
-16.1372
 20
-7.6235
 30
0.0
 10
-16.0741
 20
-7.5562
 30
0.0
 10
-15.9918
 20
-7.5026
 30
0.0
 10
-15.9918
 20
-7.5026
 30
0.0
 10
-15.9095
 20
-7.4495
 30
0.0
 10
-15.8093
 20
-7.4076
 30
0.0
 10
-15.6913
 20
-7.3775
 30
0.0
 10
-15.6913
 20
-7.3775
 30
0.0
 10
-15.5732
 20
-7.3469
 30
0.0
 10
-15.4142
 20
-7.3319
 30
0.0
 10
-15.2138
 20
-7.3319
 30
0.0
 10
-15.2138
 20
-7.3319
 30
0.0
 10
-14.9768
 20
-7.3319
 30
0.0
 10
-14.7858
 20
-7.3563
 30
0.0
 10
-14.64
 20
-7.4048
 30
0.0
 10
-14.64
 20
-7.4048
 30
0.0
 10
-14.4942
 20
-7.4537
 30
0.0
 10
-14.3818
 20
-7.5266
 30
0.0
 10
-14.3023
 20
-7.6235
 30
0.0
 10
-14.3023
 20
-7.6235
 30
0.0
 10
-14.2228
 20
-7.7204
 30
0.0
 10
-14.1833
 20
-7.8427
 30
0.0
 10
-14.1833
 20
-7.9909
 30
0.0
 10
-14.1833
 20
-7.9909
 30
0.0
 10
-14.1833
 20
-8.1856
 30
0.0
 10
-14.2529
 20
-8.3385
 30
0.0
 10
-14.3926
 20
-8.4495
 30
0.0
 10
-14.3926
 20
-8.4495
 30
0.0
 10
-14.5605
 20
-8.5826
 30
0.0
 10
-14.8347
 20
-8.6494
 30
0.0
 10
-15.2138
 20
-8.6494
 30
0.0
  0
SPLINE
  5
4E
330
1F
100
AcDbEntity
  8
DEFAULT_1
 62
   250
100
AcDbSpline
210
0.0
220
0.0
230
1.0
 70
    11
 71
     3
 72
    36
 73
    32
 74
     0
 42
0.0000000001
 43
0.0000000001
 40
0.0
 40
0.0
 40
0.0
 40
0.0
 40
0.1111111111111111
 40
0.1111111111111111
 40
0.1111111111111111
 40
0.1111111111111111
 40
0.2222222222222222
 40
0.2222222222222222
 40
0.2222222222222222
 40
0.2222222222222222
 40
0.3333333333333333
 40
0.3333333333333333
 40
0.3333333333333333
 40
0.3333333333333333
 40
0.4444444444444444
 40
0.4444444444444444
 40
0.4444444444444444
 40
0.4444444444444444
 40
0.5555555555555556
 40
0.5555555555555556
 40
0.5555555555555556
 40
0.5555555555555556
 40
0.6666666666666666
 40
0.6666666666666666
 40
0.6666666666666666
 40
0.6666666666666666
 40
0.7777777777777778
 40
0.7777777777777778
 40
0.7777777777777778
 40
0.7777777777777778
 40
1.0
 40
1.0
 40
1.0
 40
1.0
 10
-15.2138
 20
-8.3944
 30
0.0
 10
-14.8822
 20
-8.3944
 30
0.0
 10
-14.6616
 20
-8.3554
 30
0.0
 10
-14.5516
 20
-8.2778
 30
0.0
 10
-14.5516
 20
-8.2778
 30
0.0
 10
-14.442
 20
-8.2002
 30
0.0
 10
-14.3869
 20
-8.1047
 30
0.0
 10
-14.3869
 20
-7.9909
 30
0.0
 10
-14.3869
 20
-7.9909
 30
0.0
 10
-14.3869
 20
-7.8766
 30
0.0
 10
-14.4424
 20
-7.7811
 30
0.0
 10
-14.5525
 20
-7.7035
 30
0.0
 10
-14.5525
 20
-7.7035
 30
0.0
 10
-14.6626
 20
-7.6259
 30
0.0
 10
-14.8832
 20
-7.5868
 30
0.0
 10
-15.2138
 20
-7.5868
 30
0.0
 10
-15.2138
 20
-7.5868
 30
0.0
 10
-15.5464
 20
-7.5868
 30
0.0
 10
-15.7675
 20
-7.6259
 30
0.0
 10
-15.8766
 20
-7.7035
 30
0.0
 10
-15.8766
 20
-7.7035
 30
0.0
 10
-15.9862
 20
-7.7811
 30
0.0
 10
-16.0407
 20
-7.8775
 30
0.0
 10
-16.0407
 20
-7.9932
 30
0.0
 10
-16.0407
 20
-7.9932
 30
0.0
 10
-16.0407
 20
-8.1075
 30
0.0
 10
-15.9923
 20
-8.1983
 30
0.0
 10
-15.8959
 20
-8.2665
 30
0.0
 10
-15.8959
 20
-8.2665
 30
0.0
 10
-15.7731
 20
-8.3516
 30
0.0
 10
-15.5454
 20
-8.3944
 30
0.0
 10
-15.2138
 20
-8.3944
 30
0.0
  0
SPLINE
  5
4F
330
1F
100
AcDbEntity
  8
DEFAULT_1
 62
   250
100
AcDbSpline
210
0.0
220
0.0
230
1.0
 70
    11
 71
     3
 72
    20
 73
    16
 74
     0
 42
0.0000000001
 43
0.0000000001
 40
0.0
 40
0.0
 40
0.0
 40
0.0
 40
0.2
 40
0.2
 40
0.2
 40
0.2
 40
0.4
 40
0.4
 40
0.4
 40
0.4
 40
0.6
 40
0.6
 40
0.6
 40
0.6
 40
1.0
 40
1.0
 40
1.0
 40
1.0
 10
-13.8736
 20
6.472
 30
0.0
 10
-13.8736
 20
6.472
 30
0.0
 10
-13.5207
 20
8.972
 30
0.0
 10
-13.5207
 20
8.972
 30
0.0
 10
-13.5207
 20
8.972
 30
0.0
 10
-13.5207
 20
8.972
 30
0.0
 10
-13.4424
 20
8.972
 30
0.0
 10
-13.4424
 20
8.972
 30
0.0
 10
-13.4424
 20
8.972
 30
0.0
 10
-13.4424
 20
8.972
 30
0.0
 10
-13.0661
 20
6.472
 30
0.0
 10
-13.0661
 20
6.472
 30
0.0
 10
-13.0661
 20
6.472
 30
0.0
 10
-13.0661
 20
6.472
 30
0.0
 10
-13.8736
 20
6.472
 30
0.0
 10
-13.8736
 20
6.472
 30
0.0
  0
SPLINE
  5
50
330
1F
100
AcDbEntity
  8
DEFAULT_1
 62
   250
100
AcDbSpline
210
0.0
220
0.0
230
1.0
 70
    11
 71
     3
 72
    20
 73
    16
 74
     0
 42
0.0000000001
 43
0.0000000001
 40
0.0
 40
0.0
 40
0.0
 40
0.0
 40
0.2
 40
0.2
 40
0.2
 40
0.2
 40
0.4
 40
0.4
 40
0.4
 40
0.4
 40
0.6
 40
0.6
 40
0.6
 40
0.6
 40
1.0
 40
1.0
 40
1.0
 40
1.0
 10
-13.0936
 20
-1.7822
 30
0.0
 10
-13.0936
 20
-1.7822
 30
0.0
 10
-13.4465
 20
-4.2822
 30
0.0
 10
-13.4465
 20
-4.2822
 30
0.0
 10
-13.4465
 20
-4.2822
 30
0.0
 10
-13.4465
 20
-4.2822
 30
0.0
 10
-13.5248
 20
-4.2822
 30
0.0
 10
-13.5248
 20
-4.2822
 30
0.0
 10
-13.5248
 20
-4.2822
 30
0.0
 10
-13.5248
 20
-4.2822
 30
0.0
 10
-13.9011
 20
-1.7822
 30
0.0
 10
-13.9011
 20
-1.7822
 30
0.0
 10
-13.9011
 20
-1.7822
 30
0.0
 10
-13.9011
 20
-1.7822
 30
0.0
 10
-13.0936
 20
-1.7822
 30
0.0
 10
-13.0936
 20
-1.7822
 30
0.0
  0
SPLINE
  5
51
330
1F
100
AcDbEntity
  8
DEFAULT_1
 62
   250
100
AcDbSpline
210
0.0
220
0.0
230
1.0
 70
    11
 71
     3
 72
    84
 73
    80
 74
     0
 42
0.0000000001
 43
0.0000000001
 40
0.0
 40
0.0
 40
0.0
 40
0.0
 40
0.0476190476190476
 40
0.0476190476190476
 40
0.0476190476190476
 40
0.0476190476190476
 40
0.0952380952380952
 40
0.0952380952380952
 40
0.0952380952380952
 40
0.0952380952380952
 40
0.1428571428571428
 40
0.1428571428571428
 40
0.1428571428571428
 40
0.1428571428571428
 40
0.1904761904761905
 40
0.1904761904761905
 40
0.1904761904761905
 40
0.1904761904761905
 40
0.2380952380952381
 40
0.2380952380952381
 40
0.2380952380952381
 40
0.2380952380952381
 40
0.2857142857142857
 40
0.2857142857142857
 40
0.2857142857142857
 40
0.2857142857142857
 40
0.3333333333333333
 40
0.3333333333333333
 40
0.3333333333333333
 40
0.3333333333333333
 40
0.3809523809523809
 40
0.3809523809523809
 40
0.3809523809523809
 40
0.3809523809523809
 40
0.4285714285714285
 40
0.4285714285714285
 40
0.4285714285714285
 40
0.4285714285714285
 40
0.4761904761904762
 40
0.4761904761904762
 40
0.4761904761904762
 40
0.4761904761904762
 40
0.5238095238095238
 40
0.5238095238095238
 40
0.5238095238095238
 40
0.5238095238095238
 40
0.5714285714285714
 40
0.5714285714285714
 40
0.5714285714285714
 40
0.5714285714285714
 40
0.6190476190476191
 40
0.6190476190476191
 40
0.6190476190476191
 40
0.6190476190476191
 40
0.6666666666666666
 40
0.6666666666666666
 40
0.6666666666666666
 40
0.6666666666666666
 40
0.7142857142857143
 40
0.7142857142857143
 40
0.7142857142857143
 40
0.7142857142857143
 40
0.7619047619047619
 40
0.7619047619047619
 40
0.7619047619047619
 40
0.7619047619047619
 40
0.8095238095238095
 40
0.8095238095238095
 40
0.8095238095238095
 40
0.8095238095238095
 40
0.8571428571428571
 40
0.8571428571428571
 40
0.8571428571428571
 40
0.8571428571428571
 40
0.9047619047619048
 40
0.9047619047619048
 40
0.9047619047619048
 40
0.9047619047619048
 40
1.0
 40
1.0
 40
1.0
 40
1.0
 10
0.9413
 20
17.3556
 30
0.0
 10
0.9413
 20
17.3556
 30
0.0
 10
1.1727
 20
17.6147
 30
0.0
 10
1.1727
 20
17.6147
 30
0.0
 10
1.1727
 20
17.6147
 30
0.0
 10
1.1727
 20
17.6147
 30
0.0
 10
1.3091
 20
17.499
 30
0.0
 10
1.3091
 20
17.499
 30
0.0
 10
1.3091
 20
17.499
 30
0.0
 10
1.3091
 20
17.499
 30
0.0
 10
1.0669
 20
17.2262
 30
0.0
 10
1.0669
 20
17.2262
 30
0.0
 10
1.0669
 20
17.2262
 30
0.0
 10
1.1459
 20
17.1086
 30
0.0
 10
1.199
 20
17.0056
 30
0.0
 10
1.2268
 20
16.9177
 30
0.0
 10
1.2268
 20
16.9177
 30
0.0
 10
1.2635
 20
16.8019
 30
0.0
 10
1.2818
 20
16.6721
 30
0.0
 10
1.2818
 20
16.5291
 30
0.0
 10
1.2818
 20
16.5291
 30
0.0
 10
1.2818
 20
16.3222
 30
0.0
 10
1.24
 20
16.1378
 30
0.0
 10
1.1562
 20
15.9765
 30
0.0
 10
1.1562
 20
15.9765
 30
0.0
 10
1.0725
 20
15.8146
 30
0.0
 10
0.9554
 20
15.6924
 30
0.0
 10
0.8044
 20
15.6096
 30
0.0
 10
0.8044
 20
15.6096
 30
0.0
 10
0.6529
 20
15.5273
 30
0.0
 10
0.4926
 20
15.4859
 30
0.0
 10
0.3228
 20
15.4859
 30
0.0
 10
0.3228
 20
15.4859
 30
0.0
 10
0.1958
 20
15.4859
 30
0.0
 10
0.081
 20
15.5037
 30
0.0
 10
-0.022
 20
15.5395
 30
0.0
 10
-0.022
 20
15.5395
 30
0.0
 10
-0.101
 20
15.5672
 30
0.0
 10
-0.1932
 20
15.6199
 30
0.0
 10
-0.2991
 20
15.698
 30
0.0
 10
-0.2991
 20
15.698
 30
0.0
 10
-0.2991
 20
15.698
 30
0.0
 10
-0.5305
 20
15.4388
 30
0.0
 10
-0.5305
 20
15.4388
 30
0.0
 10
-0.5305
 20
15.4388
 30
0.0
 10
-0.5305
 20
15.4388
 30
0.0
 10
-0.6669
 20
15.5545
 30
0.0
 10
-0.6669
 20
15.5545
 30
0.0
 10
-0.6669
 20
15.5545
 30
0.0
 10
-0.6669
 20
15.5545
 30
0.0
 10
-0.4242
 20
15.8259
 30
0.0
 10
-0.4242
 20
15.8259
 30
0.0
 10
-0.4242
 20
15.8259
 30
0.0
 10
-0.5145
 20
15.9628
 30
0.0
 10
-0.5747
 20
16.0799
 30
0.0
 10
-0.6048
 20
16.1768
 30
0.0
 10
-0.6048
 20
16.1768
 30
0.0
 10
-0.6349
 20
16.2737
 30
0.0
 10
-0.6504
 20
16.3904
 30
0.0
 10
-0.6504
 20
16.5263
 30
0.0
 10
-0.6504
 20
16.5263
 30
0.0
 10
-0.6504
 20
16.7337
 30
0.0
 10
-0.609
 20
16.9186
 30
0.0
 10
-0.5263
 20
17.0809
 30
0.0
 10
-0.5263
 20
17.0809
 30
0.0
 10
-0.4435
 20
17.2432
 30
0.0
 10
-0.3278
 20
17.3659
 30
0.0
 10
-0.1782
 20
17.4496
 30
0.0
 10
-0.1782
 20
17.4496
 30
0.0
 10
-0.0291
 20
17.5329
 30
0.0
 10
0.137
 20
17.5748
 30
0.0
 10
0.3199
 20
17.5748
 30
0.0
 10
0.3199
 20
17.5748
 30
0.0
 10
0.4432
 20
17.5748
 30
0.0
 10
0.5509
 20
17.5588
 30
0.0
 10
0.6431
 20
17.5258
 30
0.0
 10
0.6431
 20
17.5258
 30
0.0
 10
0.7353
 20
17.4934
 30
0.0
 10
0.835
 20
17.4365
 30
0.0
 10
0.9413
 20
17.3556
 30
0.0
  0
SPLINE
  5
52
330
1F
100
AcDbEntity
  8
DEFAULT_1
 62
   250
100
AcDbSpline
210
0.0
220
0.0
230
1.0
 70
    11
 71
     3
 72
    32
 73
    28
 74
     0
 42
0.0000000001
 43
0.0000000001
 40
0.0
 40
0.0
 40
0.0
 40
0.0
 40
0.125
 40
0.125
 40
0.125
 40
0.125
 40
0.25
 40
0.25
 40
0.25
 40
0.25
 40
0.375
 40
0.375
 40
0.375
 40
0.375
 40
0.5
 40
0.5
 40
0.5
 40
0.5
 40
0.625
 40
0.625
 40
0.625
 40
0.625
 40
0.75
 40
0.75
 40
0.75
 40
0.75
 40
1.0
 40
1.0
 40
1.0
 40
1.0
 10
0.7762
 20
17.1698
 30
0.0
 10
0.6896
 20
17.2375
 30
0.0
 10
0.6139
 20
17.2841
 30
0.0
 10
0.5495
 20
17.309
 30
0.0
 10
0.5495
 20
17.309
 30
0.0
 10
0.4846
 20
17.3335
 30
0.0
 10
0.4084
 20
17.3462
 30
0.0
 10
0.3213
 20
17.3462
 30
0.0
 10
0.3213
 20
17.3462
 30
0.0
 10
0.12
 20
17.3462
 30
0.0
 10
-0.046
 20
17.278
 30
0.0
 10
-0.1777
 20
17.1416
 30
0.0
 10
-0.1777
 20
17.1416
 30
0.0
 10
-0.309
 20
17.0051
 30
0.0
 10
-0.3748
 20
16.8015
 30
0.0
 10
-0.3748
 20
16.5301
 30
0.0
 10
-0.3748
 20
16.5301
 30
0.0
 10
-0.3748
 20
16.4238
 30
0.0
 10
-0.3645
 20
16.3292
 30
0.0
 10
-0.3442
 20
16.2464
 30
0.0
 10
-0.3442
 20
16.2464
 30
0.0
 10
-0.3296
 20
16.1848
 30
0.0
 10
-0.2991
 20
16.1091
 30
0.0
 10
-0.252
 20
16.0193
 30
0.0
 10
-0.252
 20
16.0193
 30
0.0
 10
-0.252
 20
16.0193
 30
0.0
 10
0.7762
 20
17.1698
 30
0.0
 10
0.7762
 20
17.1698
 30
0.0
  0
SPLINE
  5
53
330
1F
100
AcDbEntity
  8
DEFAULT_1
 62
   250
100
AcDbSpline
210
0.0
220
0.0
230
1.0
 70
    11
 71
     3
 72
    28
 73
    24
 74
     0
 42
0.0000000001
 43
0.0000000001
 40
0.0
 40
0.0
 40
0.0
 40
0.0
 40
0.1428571428571428
 40
0.1428571428571428
 40
0.1428571428571428
 40
0.1428571428571428
 40
0.2857142857142857
 40
0.2857142857142857
 40
0.2857142857142857
 40
0.2857142857142857
 40
0.4285714285714285
 40
0.4285714285714285
 40
0.4285714285714285
 40
0.4285714285714285
 40
0.5714285714285714
 40
0.5714285714285714
 40
0.5714285714285714
 40
0.5714285714285714
 40
0.7142857142857143
 40
0.7142857142857143
 40
0.7142857142857143
 40
0.7142857142857143
 40
1.0
 40
1.0
 40
1.0
 40
1.0
 10
0.8891
 20
17.0277
 30
0.0
 10
0.8891
 20
17.0277
 30
0.0
 10
-0.1349
 20
15.8814
 30
0.0
 10
-0.1349
 20
15.8814
 30
0.0
 10
-0.1349
 20
15.8814
 30
0.0
 10
-0.0644
 20
15.8236
 30
0.0
 10
0.001
 20
15.7831
 30
0.0
 10
0.0608
 20
15.7601
 30
0.0
 10
0.0608
 20
15.7601
 30
0.0
 10
0.1388
 20
15.7295
 30
0.0
 10
0.2235
 20
15.7145
 30
0.0
 10
0.3143
 20
15.7145
 30
0.0
 10
0.3143
 20
15.7145
 30
0.0
 10
0.5147
 20
15.7145
 30
0.0
 10
0.6798
 20
15.785
 30
0.0
 10
0.8105
 20
15.9266
 30
0.0
 10
0.8105
 20
15.9266
 30
0.0
 10
0.9408
 20
16.0682
 30
0.0
 10
1.0062
 20
16.2667
 30
0.0
 10
1.0062
 20
16.5221
 30
0.0
 10
1.0062
 20
16.5221
 30
0.0
 10
1.0062
 20
16.713
 30
0.0
 10
0.9672
 20
16.8819
 30
0.0
 10
0.8891
 20
17.0277
 30
0.0
  0
SPLINE
  5
54
330
1F
100
AcDbEntity
  8
DEFAULT_1
 62
   250
100
AcDbSpline
210
0.0
220
0.0
230
1.0
 70
    11
 71
     3
 72
    40
 73
    36
 74
     0
 42
0.0000000001
 43
0.0000000001
 40
0.0
 40
0.0
 40
0.0
 40
0.0
 40
0.1
 40
0.1
 40
0.1
 40
0.1
 40
0.2
 40
0.2
 40
0.2
 40
0.2
 40
0.3
 40
0.3
 40
0.3
 40
0.3
 40
0.4
 40
0.4
 40
0.4
 40
0.4
 40
0.5
 40
0.5
 40
0.5
 40
0.5
 40
0.6
 40
0.6
 40
0.6
 40
0.6
 40
0.7
 40
0.7
 40
0.7
 40
0.7
 40
0.8
 40
0.8
 40
0.8
 40
0.8
 40
1.0
 40
1.0
 40
1.0
 40
1.0
 10
2.4653
 20
15.5202
 30
0.0
 10
2.4653
 20
15.5202
 30
0.0
 10
2.2174
 20
15.5202
 30
0.0
 10
2.2174
 20
15.5202
 30
0.0
 10
2.2174
 20
15.5202
 30
0.0
 10
2.2174
 20
15.5202
 30
0.0
 10
2.2174
 20
17.1006
 30
0.0
 10
2.2174
 20
17.1006
 30
0.0
 10
2.2174
 20
17.1006
 30
0.0
 10
2.1576
 20
17.0437
 30
0.0
 10
2.0796
 20
16.9868
 30
0.0
 10
1.9827
 20
16.9299
 30
0.0
 10
1.9827
 20
16.9299
 30
0.0
 10
1.8853
 20
16.873
 30
0.0
 10
1.7983
 20
16.8302
 30
0.0
 10
1.7211
 20
16.8019
 30
0.0
 10
1.7211
 20
16.8019
 30
0.0
 10
1.7211
 20
16.8019
 30
0.0
 10
1.7211
 20
17.0414
 30
0.0
 10
1.7211
 20
17.0414
 30
0.0
 10
1.7211
 20
17.0414
 30
0.0
 10
1.8599
 20
17.1067
 30
0.0
 10
1.9813
 20
17.1858
 30
0.0
 10
2.0852
 20
17.2784
 30
0.0
 10
2.0852
 20
17.2784
 30
0.0
 10
2.1887
 20
17.3716
 30
0.0
 10
2.2625
 20
17.4614
 30
0.0
 10
2.3058
 20
17.5489
 30
0.0
 10
2.3058
 20
17.5489
 30
0.0
 10
2.3058
 20
17.5489
 30
0.0
 10
2.4653
 20
17.5489
 30
0.0
 10
2.4653
 20
17.5489
 30
0.0
 10
2.4653
 20
17.5489
 30
0.0
 10
2.4653
 20
17.5489
 30
0.0
 10
2.4653
 20
15.5202
 30
0.0
 10
2.4653
 20
15.5202
 30
0.0
  0
SPLINE
  5
55
330
1F
100
AcDbEntity
  8
DEFAULT_1
 62
   250
100
AcDbSpline
210
0.0
220
0.0
230
1.0
 70
    11
 71
     3
 72
    80
 73
    76
 74
     0
 42
0.0000000001
 43
0.0000000001
 40
0.0
 40
0.0
 40
0.0
 40
0.0
 40
0.05
 40
0.05
 40
0.05
 40
0.05
 40
0.1
 40
0.1
 40
0.1
 40
0.1
 40
0.15
 40
0.15
 40
0.15
 40
0.15
 40
0.2
 40
0.2
 40
0.2
 40
0.2
 40
0.25
 40
0.25
 40
0.25
 40
0.25
 40
0.3
 40
0.3
 40
0.3
 40
0.3
 40
0.35
 40
0.35
 40
0.35
 40
0.35
 40
0.4
 40
0.4
 40
0.4
 40
0.4
 40
0.45
 40
0.45
 40
0.45
 40
0.45
 40
0.5
 40
0.5
 40
0.5
 40
0.5
 40
0.55
 40
0.55
 40
0.55
 40
0.55
 40
0.6
 40
0.6
 40
0.6
 40
0.6
 40
0.65
 40
0.65
 40
0.65
 40
0.65
 40
0.7
 40
0.7
 40
0.7
 40
0.7
 40
0.75
 40
0.75
 40
0.75
 40
0.75
 40
0.8
 40
0.8
 40
0.8
 40
0.8
 40
0.85
 40
0.85
 40
0.85
 40
0.85
 40
0.9
 40
0.9
 40
0.9
 40
0.9
 40
1.0
 40
1.0
 40
1.0
 40
1.0
 10
4.3876
 20
17.0456
 30
0.0
 10
4.3876
 20
17.0456
 30
0.0
 10
4.1412
 20
17.0263
 30
0.0
 10
4.1412
 20
17.0263
 30
0.0
 10
4.1412
 20
17.0263
 30
0.0
 10
4.1191
 20
17.1237
 30
0.0
 10
4.088
 20
17.1947
 30
0.0
 10
4.0476
 20
17.2384
 30
0.0
 10
4.0476
 20
17.2384
 30
0.0
 10
3.9803
 20
17.3095
 30
0.0
 10
3.8975
 20
17.3448
 30
0.0
 10
3.7992
 20
17.3448
 30
0.0
 10
3.7992
 20
17.3448
 30
0.0
 10
3.7202
 20
17.3448
 30
0.0
 10
3.6511
 20
17.3226
 30
0.0
 10
3.5913
 20
17.2784
 30
0.0
 10
3.5913
 20
17.2784
 30
0.0
 10
3.5132
 20
17.2215
 30
0.0
 10
3.4516
 20
17.1383
 30
0.0
 10
3.4065
 20
17.0291
 30
0.0
 10
3.4065
 20
17.0291
 30
0.0
 10
3.3618
 20
16.92
 30
0.0
 10
3.3383
 20
16.7643
 30
0.0
 10
3.3364
 20
16.5621
 30
0.0
 10
3.3364
 20
16.5621
 30
0.0
 10
3.3961
 20
16.6528
 30
0.0
 10
3.469
 20
16.7206
 30
0.0
 10
3.5556
 20
16.7648
 30
0.0
 10
3.5556
 20
16.7648
 30
0.0
 10
3.6416
 20
16.8085
 30
0.0
 10
3.7324
 20
16.8306
 30
0.0
 10
3.827
 20
16.8306
 30
0.0
 10
3.827
 20
16.8306
 30
0.0
 10
3.9925
 20
16.8306
 30
0.0
 10
4.1332
 20
16.77
 30
0.0
 10
4.2494
 20
16.6481
 30
0.0
 10
4.2494
 20
16.6481
 30
0.0
 10
4.3655
 20
16.5263
 30
0.0
 10
4.4239
 20
16.3692
 30
0.0
 10
4.4239
 20
16.1764
 30
0.0
 10
4.4239
 20
16.1764
 30
0.0
 10
4.4239
 20
16.0494
 30
0.0
 10
4.3961
 20
15.9318
 30
0.0
 10
4.3415
 20
15.8226
 30
0.0
 10
4.3415
 20
15.8226
 30
0.0
 10
4.287
 20
15.714
 30
0.0
 10
4.2117
 20
15.6303
 30
0.0
 10
4.1162
 20
15.5724
 30
0.0
 10
4.1162
 20
15.5724
 30
0.0
 10
4.0208
 20
15.5146
 30
0.0
 10
3.9126
 20
15.4859
 30
0.0
 10
3.7912
 20
15.4859
 30
0.0
 10
3.7912
 20
15.4859
 30
0.0
 10
3.5843
 20
15.4859
 30
0.0
 10
3.4159
 20
15.5616
 30
0.0
 10
3.2856
 20
15.714
 30
0.0
 10
3.2856
 20
15.714
 30
0.0
 10
3.1548
 20
15.8659
 30
0.0
 10
3.0899
 20
16.1166
 30
0.0
 10
3.0899
 20
16.4656
 30
0.0
 10
3.0899
 20
16.4656
 30
0.0
 10
3.0899
 20
16.856
 30
0.0
 10
3.1619
 20
17.1397
 30
0.0
 10
3.3063
 20
17.317
 30
0.0
 10
3.3063
 20
17.317
 30
0.0
 10
3.4319
 20
17.4713
 30
0.0
 10
3.6012
 20
17.5489
 30
0.0
 10
3.8147
 20
17.5489
 30
0.0
 10
3.8147
 20
17.5489
 30
0.0
 10
3.9733
 20
17.5489
 30
0.0
 10
4.1035
 20
17.5042
 30
0.0
 10
4.2051
 20
17.4148
 30
0.0
 10
4.2051
 20
17.4148
 30
0.0
 10
4.3067
 20
17.3259
 30
0.0
 10
4.3674
 20
17.2027
 30
0.0
 10
4.3876
 20
17.0456
 30
0.0
  0
SPLINE
  5
56
330
1F
100
AcDbEntity
  8
DEFAULT_1
 62
   250
100
AcDbSpline
210
0.0
220
0.0
230
1.0
 70
    11
 71
     3
 72
    40
 73
    36
 74
     0
 42
0.0000000001
 43
0.0000000001
 40
0.0
 40
0.0
 40
0.0
 40
0.0
 40
0.1
 40
0.1
 40
0.1
 40
0.1
 40
0.2
 40
0.2
 40
0.2
 40
0.2
 40
0.3
 40
0.3
 40
0.3
 40
0.3
 40
0.4
 40
0.4
 40
0.4
 40
0.4
 40
0.5
 40
0.5
 40
0.5
 40
0.5
 40
0.6
 40
0.6
 40
0.6
 40
0.6
 40
0.7
 40
0.7
 40
0.7
 40
0.7
 40
0.8
 40
0.8
 40
0.8
 40
0.8
 40
1.0
 40
1.0
 40
1.0
 40
1.0
 10
3.3749
 20
16.175
 30
0.0
 10
3.3749
 20
16.0893
 30
0.0
 10
3.3933
 20
16.0075
 30
0.0
 10
3.4295
 20
15.9294
 30
0.0
 10
3.4295
 20
15.9294
 30
0.0
 10
3.4657
 20
15.8513
 30
0.0
 10
3.5165
 20
15.7921
 30
0.0
 10
3.5814
 20
15.7512
 30
0.0
 10
3.5814
 20
15.7512
 30
0.0
 10
3.6468
 20
15.7102
 30
0.0
 10
3.7155
 20
15.6895
 30
0.0
 10
3.787
 20
15.6895
 30
0.0
 10
3.787
 20
15.6895
 30
0.0
 10
3.8919
 20
15.6895
 30
0.0
 10
3.9817
 20
15.7319
 30
0.0
 10
4.057
 20
15.8165
 30
0.0
 10
4.057
 20
15.8165
 30
0.0
 10
4.1322
 20
15.9012
 30
0.0
 10
4.1699
 20
16.016
 30
0.0
 10
4.1699
 20
16.1608
 30
0.0
 10
4.1699
 20
16.1608
 30
0.0
 10
4.1699
 20
16.3005
 30
0.0
 10
4.1327
 20
16.4106
 30
0.0
 10
4.0584
 20
16.491
 30
0.0
 10
4.0584
 20
16.491
 30
0.0
 10
3.9841
 20
16.5715
 30
0.0
 10
3.8905
 20
16.6115
 30
0.0
 10
3.7776
 20
16.6115
 30
0.0
 10
3.7776
 20
16.6115
 30
0.0
 10
3.6652
 20
16.6115
 30
0.0
 10
3.5701
 20
16.5715
 30
0.0
 10
3.4921
 20
16.491
 30
0.0
 10
3.4921
 20
16.491
 30
0.0
 10
3.414
 20
16.4106
 30
0.0
 10
3.3749
 20
16.3052
 30
0.0
 10
3.3749
 20
16.175
 30
0.0
  0
SPLINE
  5
57
330
1F
100
AcDbEntity
  8
DEFAULT_1
 62
   250
100
AcDbSpline
210
0.0
220
0.0
230
1.0
 70
    11
 71
     3
 72
    52
 73
    48
 74
     0
 42
0.0000000001
 43
0.0000000001
 40
0.0
 40
0.0
 40
0.0
 40
0.0
 40
0.0769230769230769
 40
0.0769230769230769
 40
0.0769230769230769
 40
0.0769230769230769
 40
0.1538461538461539
 40
0.1538461538461539
 40
0.1538461538461539
 40
0.1538461538461539
 40
0.2307692307692308
 40
0.2307692307692308
 40
0.2307692307692308
 40
0.2307692307692308
 40
0.3076923076923077
 40
0.3076923076923077
 40
0.3076923076923077
 40
0.3076923076923077
 40
0.3846153846153846
 40
0.3846153846153846
 40
0.3846153846153846
 40
0.3846153846153846
 40
0.4615384615384616
 40
0.4615384615384616
 40
0.4615384615384616
 40
0.4615384615384616
 40
0.5384615384615384
 40
0.5384615384615384
 40
0.5384615384615384
 40
0.5384615384615384
 40
0.6153846153846154
 40
0.6153846153846154
 40
0.6153846153846154
 40
0.6153846153846154
 40
0.6923076923076923
 40
0.6923076923076923
 40
0.6923076923076923
 40
0.6923076923076923
 40
0.7692307692307693
 40
0.7692307692307693
 40
0.7692307692307693
 40
0.7692307692307693
 40
0.8461538461538461
 40
0.8461538461538461
 40
0.8461538461538461
 40
0.8461538461538461
 40
1.0
 40
1.0
 40
1.0
 40
1.0
 10
4.6703
 20
16.5164
 30
0.0
 10
4.6703
 20
16.7554
 30
0.0
 10
4.6948
 20
16.9478
 30
0.0
 10
4.7442
 20
17.0931
 30
0.0
 10
4.7442
 20
17.0931
 30
0.0
 10
4.7931
 20
17.2389
 30
0.0
 10
4.8665
 20
17.3513
 30
0.0
 10
4.9634
 20
17.4304
 30
0.0
 10
4.9634
 20
17.4304
 30
0.0
 10
5.0603
 20
17.5094
 30
0.0
 10
5.1821
 20
17.5489
 30
0.0
 10
5.3288
 20
17.5489
 30
0.0
 10
5.3288
 20
17.5489
 30
0.0
 10
5.4375
 20
17.5489
 30
0.0
 10
5.5325
 20
17.5268
 30
0.0
 10
5.6143
 20
17.483
 30
0.0
 10
5.6143
 20
17.483
 30
0.0
 10
5.6962
 20
17.4398
 30
0.0
 10
5.7635
 20
17.3767
 30
0.0
 10
5.8171
 20
17.2944
 30
0.0
 10
5.8171
 20
17.2944
 30
0.0
 10
5.8702
 20
17.2121
 30
0.0
 10
5.9121
 20
17.1119
 30
0.0
 10
5.9422
 20
16.9939
 30
0.0
 10
5.9422
 20
16.9939
 30
0.0
 10
5.9728
 20
16.8758
 30
0.0
 10
5.9878
 20
16.7168
 30
0.0
 10
5.9878
 20
16.5164
 30
0.0
 10
5.9878
 20
16.5164
 30
0.0
 10
5.9878
 20
16.2794
 30
0.0
 10
5.9634
 20
16.0884
 30
0.0
 10
5.9149
 20
15.9426
 30
0.0
 10
5.9149
 20
15.9426
 30
0.0
 10
5.866
 20
15.7968
 30
0.0
 10
5.7931
 20
15.6844
 30
0.0
 10
5.6962
 20
15.6049
 30
0.0
 10
5.6962
 20
15.6049
 30
0.0
 10
5.5993
 20
15.5254
 30
0.0
 10
5.477
 20
15.4859
 30
0.0
 10
5.3288
 20
15.4859
 30
0.0
 10
5.3288
 20
15.4859
 30
0.0
 10
5.1341
 20
15.4859
 30
0.0
 10
4.9812
 20
15.5555
 30
0.0
 10
4.8702
 20
15.6952
 30
0.0
 10
4.8702
 20
15.6952
 30
0.0
 10
4.7371
 20
15.8631
 30
0.0
 10
4.6703
 20
16.1373
 30
0.0
 10
4.6703
 20
16.5164
 30
0.0
  0
SPLINE
  5
58
330
1F
100
AcDbEntity
  8
DEFAULT_1
 62
   250
100
AcDbSpline
210
0.0
220
0.0
230
1.0
 70
    11
 71
     3
 72
    36
 73
    32
 74
     0
 42
0.0000000001
 43
0.0000000001
 40
0.0
 40
0.0
 40
0.0
 40
0.0
 40
0.1111111111111111
 40
0.1111111111111111
 40
0.1111111111111111
 40
0.1111111111111111
 40
0.2222222222222222
 40
0.2222222222222222
 40
0.2222222222222222
 40
0.2222222222222222
 40
0.3333333333333333
 40
0.3333333333333333
 40
0.3333333333333333
 40
0.3333333333333333
 40
0.4444444444444444
 40
0.4444444444444444
 40
0.4444444444444444
 40
0.4444444444444444
 40
0.5555555555555556
 40
0.5555555555555556
 40
0.5555555555555556
 40
0.5555555555555556
 40
0.6666666666666666
 40
0.6666666666666666
 40
0.6666666666666666
 40
0.6666666666666666
 40
0.7777777777777778
 40
0.7777777777777778
 40
0.7777777777777778
 40
0.7777777777777778
 40
1.0
 40
1.0
 40
1.0
 40
1.0
 10
4.9253
 20
16.5164
 30
0.0
 10
4.9253
 20
16.1848
 30
0.0
 10
4.9643
 20
15.9642
 30
0.0
 10
5.0419
 20
15.8542
 30
0.0
 10
5.0419
 20
15.8542
 30
0.0
 10
5.1195
 20
15.7446
 30
0.0
 10
5.215
 20
15.6895
 30
0.0
 10
5.3288
 20
15.6895
 30
0.0
 10
5.3288
 20
15.6895
 30
0.0
 10
5.4431
 20
15.6895
 30
0.0
 10
5.5386
 20
15.745
 30
0.0
 10
5.6162
 20
15.8551
 30
0.0
 10
5.6162
 20
15.8551
 30
0.0
 10
5.6938
 20
15.9652
 30
0.0
 10
5.7329
 20
16.1858
 30
0.0
 10
5.7329
 20
16.5164
 30
0.0
 10
5.7329
 20
16.5164
 30
0.0
 10
5.7329
 20
16.849
 30
0.0
 10
5.6938
 20
17.0701
 30
0.0
 10
5.6162
 20
17.1792
 30
0.0
 10
5.6162
 20
17.1792
 30
0.0
 10
5.5386
 20
17.2888
 30
0.0
 10
5.4422
 20
17.3433
 30
0.0
 10
5.3265
 20
17.3433
 30
0.0
 10
5.3265
 20
17.3433
 30
0.0
 10
5.2122
 20
17.3433
 30
0.0
 10
5.1214
 20
17.2949
 30
0.0
 10
5.0532
 20
17.1985
 30
0.0
 10
5.0532
 20
17.1985
 30
0.0
 10
4.9681
 20
17.0757
 30
0.0
 10
4.9253
 20
16.848
 30
0.0
 10
4.9253
 20
16.5164
 30
0.0
  0
SPLINE
  5
59
330
1F
100
AcDbEntity
  8
DEFAULT_1
 62
   250
100
AcDbSpline
210
0.0
220
0.0
230
1.0
 70
    11
 71
     3
 72
    20
 73
    16
 74
     0
 42
0.0000000001
 43
0.0000000001
 40
0.0
 40
0.0
 40
0.0
 40
0.0
 40
0.2
 40
0.2
 40
0.2
 40
0.2
 40
0.4
 40
0.4
 40
0.4
 40
0.4
 40
0.6
 40
0.6
 40
0.6
 40
0.6
 40
1.0
 40
1.0
 40
1.0
 40
1.0
 10
13.6467
 20
15.2888
 30
0.0
 10
13.6467
 20
15.2888
 30
0.0
 10
16.1467
 20
14.9359
 30
0.0
 10
16.1467
 20
14.9359
 30
0.0
 10
16.1467
 20
14.9359
 30
0.0
 10
16.1467
 20
14.9359
 30
0.0
 10
16.1467
 20
14.8576
 30
0.0
 10
16.1467
 20
14.8576
 30
0.0
 10
16.1467
 20
14.8576
 30
0.0
 10
16.1467
 20
14.8576
 30
0.0
 10
13.6467
 20
14.4813
 30
0.0
 10
13.6467
 20
14.4813
 30
0.0
 10
13.6467
 20
14.4813
 30
0.0
 10
13.6467
 20
14.4813
 30
0.0
 10
13.6467
 20
15.2888
 30
0.0
 10
13.6467
 20
15.2888
 30
0.0
  0
SPLINE
  5
5A
330
1F
100
AcDbEntity
  8
DEFAULT_1
 62
   250
100
AcDbSpline
210
0.0
220
0.0
230
1.0
 70
    11
 71
     3
 72
    20
 73
    16
 74
     0
 42
0.0000000001
 43
0.0000000001
 40
0.0
 40
0.0
 40
0.0
 40
0.0
 40
0.2
 40
0.2
 40
0.2
 40
0.2
 40
0.4
 40
0.4
 40
0.4
 40
0.4
 40
0.6
 40
0.6
 40
0.6
 40
0.6
 40
1.0
 40
1.0
 40
1.0
 40
1.0
 10
-8.4368
 20
14.5239
 30
0.0
 10
-8.4368
 20
14.5239
 30
0.0
 10
-10.9368
 20
14.8768
 30
0.0
 10
-10.9368
 20
14.8768
 30
0.0
 10
-10.9368
 20
14.8768
 30
0.0
 10
-10.9368
 20
14.8768
 30
0.0
 10
-10.9368
 20
14.9551
 30
0.0
 10
-10.9368
 20
14.9551
 30
0.0
 10
-10.9368
 20
14.9551
 30
0.0
 10
-10.9368
 20
14.9551
 30
0.0
 10
-8.4368
 20
15.3314
 30
0.0
 10
-8.4368
 20
15.3314
 30
0.0
 10
-8.4368
 20
15.3314
 30
0.0
 10
-8.4368
 20
15.3314
 30
0.0
 10
-8.4368
 20
14.5239
 30
0.0
 10
-8.4368
 20
14.5239
 30
0.0
  0
SPLINE
  5
5B
330
1F
100
AcDbEntity
  8
DEFAULT_1
 62
   250
100
AcDbSpline
210
0.0
220
0.0
230
1.0
 70
     8
 71
     3
 72
    52
 73
    48
 74
     0
 42
0.0000000001
 43
0.0000000001
 40
0.0
 40
0.0
 40
0.0
 40
0.0
 40
0.0769230769230769
 40
0.0769230769230769
 40
0.0769230769230769
 40
0.0769230769230769
 40
0.1538461538461539
 40
0.1538461538461539
 40
0.1538461538461539
 40
0.1538461538461539
 40
0.2307692307692308
 40
0.2307692307692308
 40
0.2307692307692308
 40
0.2307692307692308
 40
0.3076923076923077
 40
0.3076923076923077
 40
0.3076923076923077
 40
0.3076923076923077
 40
0.3846153846153846
 40
0.3846153846153846
 40
0.3846153846153846
 40
0.3846153846153846
 40
0.4615384615384616
 40
0.4615384615384616
 40
0.4615384615384616
 40
0.4615384615384616
 40
0.5384615384615384
 40
0.5384615384615384
 40
0.5384615384615384
 40
0.5384615384615384
 40
0.6153846153846154
 40
0.6153846153846154
 40
0.6153846153846154
 40
0.6153846153846154
 40
0.6923076923076923
 40
0.6923076923076923
 40
0.6923076923076923
 40
0.6923076923076923
 40
0.7692307692307693
 40
0.7692307692307693
 40
0.7692307692307693
 40
0.7692307692307693
 40
0.8461538461538461
 40
0.8461538461538461
 40
0.8461538461538461
 40
0.8461538461538461
 40
1.0
 40
1.0
 40
1.0
 40
1.0
 10
-5.818
 20
5.2302
 30
0.0
 10
-5.818
 20
5.2302
 30
0.0
 10
-5.7006
 20
-1.9306
 30
0.0
 10
-5.7006
 20
-1.9306
 30
0.0
 10
-5.7006
 20
-1.9306
 30
0.0
 10
-5.6764
 20
-3.3151
 30
0.0
 10
-4.5472
 20
-4.4247
 30
0.0
 10
-3.1626
 20
-4.4247
 30
0.0
 10
-3.1626
 20
-4.4247
 30
0.0
 10
-3.1626
 20
-4.4247
 30
0.0
 10
8.304
 20
-4.4139
 30
0.0
 10
8.304
 20
-4.4139
 30
0.0
 10
8.304
 20
-4.4139
 30
0.0
 10
8.304
 20
-4.4139
 30
0.0
 10
8.7271
 20
-4.3581
 30
0.0
 10
8.7271
 20
-4.3581
 30
0.0
 10
8.7271
 20
-4.3581
 30
0.0
 10
8.7271
 20
-4.3581
 30
0.0
 10
9.1009
 20
-4.2474
 30
0.0
 10
9.1009
 20
-4.2474
 30
0.0
 10
9.1009
 20
-4.2474
 30
0.0
 10
9.1009
 20
-4.2474
 30
0.0
 10
9.4746
 20
-4.0536
 30
0.0
 10
9.4746
 20
-4.0536
 30
0.0
 10
9.4746
 20
-4.0536
 30
0.0
 10
9.4746
 20
-4.0536
 30
0.0
 10
9.8622
 20
-3.7767
 30
0.0
 10
9.8622
 20
-3.7767
 30
0.0
 10
9.8622
 20
-3.7767
 30
0.0
 10
9.8622
 20
-3.7767
 30
0.0
 10
10.2913
 20
-3.2922
 30
0.0
 10
10.2913
 20
-3.2922
 30
0.0
 10
10.2913
 20
-3.2922
 30
0.0
 10
10.2913
 20
-3.2922
 30
0.0
 10
10.4851
 20
-2.8631
 30
0.0
 10
10.4851
 20
-2.8631
 30
0.0
 10
10.4851
 20
-2.8631
 30
0.0
 10
10.4851
 20
-2.8631
 30
0.0
 10
10.6374
 20
-2.4201
 30
0.0
 10
10.6374
 20
-2.4201
 30
0.0
 10
10.6374
 20
-2.4201
 30
0.0
 10
10.6374
 20
-2.4201
 30
0.0
 10
10.7066
 20
-1.991
 30
0.0
 10
10.7066
 20
-1.991
 30
0.0
 10
10.7066
 20
-1.991
 30
0.0
 10
10.7066
 20
-1.991
 30
0.0
 10
10.8312
 20
5.2487
 30
0.0
 10
10.8312
 20
5.2487
 30
0.0
  0
SPLINE
  5
5C
330
1F
100
AcDbEntity
  8
DEFAULT_1
 62
   250
100
AcDbSpline
210
0.0
220
0.0
230
1.0
 70
     8
 71
     3
 72
    24
 73
    20
 74
     0
 42
0.0000000001
 43
0.0000000001
 40
0.0
 40
0.0
 40
0.0
 40
0.0
 40
0.1666666666666667
 40
0.1666666666666667
 40
0.1666666666666667
 40
0.1666666666666667
 40
0.3333333333333333
 40
0.3333333333333333
 40
0.3333333333333333
 40
0.3333333333333333
 40
0.5
 40
0.5
 40
0.5
 40
0.5
 40
0.6666666666666666
 40
0.6666666666666666
 40
0.6666666666666666
 40
0.6666666666666666
 40
1.0
 40
1.0
 40
1.0
 40
1.0
 10
-1.7351
 20
-4.3994
 30
0.0
 10
-1.7351
 20
-4.3994
 30
0.0
 10
-1.6991
 20
-12.3578
 30
0.0
 10
-1.6991
 20
-12.3578
 30
0.0
 10
-1.6991
 20
-12.3578
 30
0.0
 10
-1.6991
 20
-12.3578
 30
0.0
 10
-1.5529
 20
-12.886
 30
0.0
 10
-1.5529
 20
-12.886
 30
0.0
 10
-1.5529
 20
-12.886
 30
0.0
 10
-1.5529
 20
-12.886
 30
0.0
 10
6.5471
 20
-12.886
 30
0.0
 10
6.5471
 20
-12.886
 30
0.0
 10
6.5471
 20
-12.886
 30
0.0
 10
6.5471
 20
-12.886
 30
0.0
 10
6.6915
 20
-12.3578
 30
0.0
 10
6.6915
 20
-12.3578
 30
0.0
 10
6.6915
 20
-12.3578
 30
0.0
 10
6.6915
 20
-12.3578
 30
0.0
 10
6.7095
 20
-4.3994
 30
0.0
 10
6.7095
 20
-4.3994
 30
0.0
  0
SPLINE
  5
5D
330
1F
100
AcDbEntity
  8
DEFAULT_1
 62
   250
100
AcDbSpline
210
0.0
220
0.0
230
1.0
 70
    24
 71
     3
 72
     8
 73
     4
 74
     0
 42
0.0000000001
 43
0.0000000001
 40
0.0
 40
0.0
 40
0.0
 40
0.0
 40
1.0
 40
1.0
 40
1.0
 40
1.0
 10
-1.7804
 20
-17.5861
 30
0.0
 10
-1.7804
 20
-17.5861
 30
0.0
 10
-1.7804
 20
-13.333
 30
0.0
 10
-1.7804
 20
-13.333
 30
0.0
  0
SPLINE
  5
5E
330
1F
100
AcDbEntity
  8
DEFAULT_1
 62
   250
100
AcDbSpline
210
0.0
220
0.0
230
1.0
 70
    24
 71
     3
 72
     8
 73
     4
 74
     0
 42
0.0000000001
 43
0.0000000001
 40
0.0
 40
0.0
 40
0.0
 40
0.0
 40
1.0
 40
1.0
 40
1.0
 40
1.0
 10
6.707
 20
-17.6147
 30
0.0
 10
6.707
 20
-17.6147
 30
0.0
 10
6.707
 20
-13.4147
 30
0.0
 10
6.707
 20
-13.4147
 30
0.0
  0
SPLINE
  5
5F
330
1F
100
AcDbEntity
  8
DEFAULT_1
 62
   250
100
AcDbSpline
210
0.0
220
0.0
230
1.0
 70
    24
 71
     3
 72
     8
 73
     4
 74
     0
 42
0.0000000001
 43
0.0000000001
 40
0.0
 40
0.0
 40
0.0
 40
0.0
 40
1.0
 40
1.0
 40
1.0
 40
1.0
 10
10.1129
 20
-17.111
 30
0.0
 10
10.1129
 20
-17.111
 30
0.0
 10
-5.2667
 20
-17.111
 30
0.0
 10
-5.2667
 20
-17.111
 30
0.0
  0
SPLINE
  5
60
330
1F
100
AcDbEntity
  8
DEFAULT_1
 62
   250
100
AcDbSpline
210
0.0
220
0.0
230
1.0
 70
    11
 71
     3
 72
    84
 73
    80
 74
     0
 42
0.0000000001
 43
0.0000000001
 40
0.0
 40
0.0
 40
0.0
 40
0.0
 40
0.0476190476190476
 40
0.0476190476190476
 40
0.0476190476190476
 40
0.0476190476190476
 40
0.0952380952380952
 40
0.0952380952380952
 40
0.0952380952380952
 40
0.0952380952380952
 40
0.1428571428571428
 40
0.1428571428571428
 40
0.1428571428571428
 40
0.1428571428571428
 40
0.1904761904761905
 40
0.1904761904761905
 40
0.1904761904761905
 40
0.1904761904761905
 40
0.2380952380952381
 40
0.2380952380952381
 40
0.2380952380952381
 40
0.2380952380952381
 40
0.2857142857142857
 40
0.2857142857142857
 40
0.2857142857142857
 40
0.2857142857142857
 40
0.3333333333333333
 40
0.3333333333333333
 40
0.3333333333333333
 40
0.3333333333333333
 40
0.3809523809523809
 40
0.3809523809523809
 40
0.3809523809523809
 40
0.3809523809523809
 40
0.4285714285714285
 40
0.4285714285714285
 40
0.4285714285714285
 40
0.4285714285714285
 40
0.4761904761904762
 40
0.4761904761904762
 40
0.4761904761904762
 40
0.4761904761904762
 40
0.5238095238095238
 40
0.5238095238095238
 40
0.5238095238095238
 40
0.5238095238095238
 40
0.5714285714285714
 40
0.5714285714285714
 40
0.5714285714285714
 40
0.5714285714285714
 40
0.6190476190476191
 40
0.6190476190476191
 40
0.6190476190476191
 40
0.6190476190476191
 40
0.6666666666666666
 40
0.6666666666666666
 40
0.6666666666666666
 40
0.6666666666666666
 40
0.7142857142857143
 40
0.7142857142857143
 40
0.7142857142857143
 40
0.7142857142857143
 40
0.7619047619047619
 40
0.7619047619047619
 40
0.7619047619047619
 40
0.7619047619047619
 40
0.8095238095238095
 40
0.8095238095238095
 40
0.8095238095238095
 40
0.8095238095238095
 40
0.8571428571428571
 40
0.8571428571428571
 40
0.8571428571428571
 40
0.8571428571428571
 40
0.9047619047619048
 40
0.9047619047619048
 40
0.9047619047619048
 40
0.9047619047619048
 40
1.0
 40
1.0
 40
1.0
 40
1.0
 10
1.8155
 20
-14.6042
 30
0.0
 10
1.8155
 20
-14.6042
 30
0.0
 10
2.0469
 20
-14.3451
 30
0.0
 10
2.0469
 20
-14.3451
 30
0.0
 10
2.0469
 20
-14.3451
 30
0.0
 10
2.0469
 20
-14.3451
 30
0.0
 10
2.1833
 20
-14.4608
 30
0.0
 10
2.1833
 20
-14.4608
 30
0.0
 10
2.1833
 20
-14.4608
 30
0.0
 10
2.1833
 20
-14.4608
 30
0.0
 10
1.9411
 20
-14.7336
 30
0.0
 10
1.9411
 20
-14.7336
 30
0.0
 10
1.9411
 20
-14.7336
 30
0.0
 10
2.0201
 20
-14.8512
 30
0.0
 10
2.0732
 20
-14.9542
 30
0.0
 10
2.101
 20
-15.0421
 30
0.0
 10
2.101
 20
-15.0421
 30
0.0
 10
2.1377
 20
-15.1579
 30
0.0
 10
2.156
 20
-15.2877
 30
0.0
 10
2.156
 20
-15.4307
 30
0.0
 10
2.156
 20
-15.4307
 30
0.0
 10
2.156
 20
-15.6376
 30
0.0
 10
2.1142
 20
-15.822
 30
0.0
 10
2.0304
 20
-15.9833
 30
0.0
 10
2.0304
 20
-15.9833
 30
0.0
 10
1.9467
 20
-16.1452
 30
0.0
 10
1.8296
 20
-16.2674
 30
0.0
 10
1.6786
 20
-16.3502
 30
0.0
 10
1.6786
 20
-16.3502
 30
0.0
 10
1.5271
 20
-16.4325
 30
0.0
 10
1.3668
 20
-16.4739
 30
0.0
 10
1.197
 20
-16.4739
 30
0.0
 10
1.197
 20
-16.4739
 30
0.0
 10
1.07
 20
-16.4739
 30
0.0
 10
0.9552
 20
-16.4561
 30
0.0
 10
0.8522
 20
-16.4203
 30
0.0
 10
0.8522
 20
-16.4203
 30
0.0
 10
0.7732
 20
-16.3926
 30
0.0
 10
0.681
 20
-16.3399
 30
0.0
 10
0.5751
 20
-16.2618
 30
0.0
 10
0.5751
 20
-16.2618
 30
0.0
 10
0.5751
 20
-16.2618
 30
0.0
 10
0.3437
 20
-16.521
 30
0.0
 10
0.3437
 20
-16.521
 30
0.0
 10
0.3437
 20
-16.521
 30
0.0
 10
0.3437
 20
-16.521
 30
0.0
 10
0.2073
 20
-16.4053
 30
0.0
 10
0.2073
 20
-16.4053
 30
0.0
 10
0.2073
 20
-16.4053
 30
0.0
 10
0.2073
 20
-16.4053
 30
0.0
 10
0.45
 20
-16.1339
 30
0.0
 10
0.45
 20
-16.1339
 30
0.0
 10
0.45
 20
-16.1339
 30
0.0
 10
0.3597
 20
-15.997
 30
0.0
 10
0.2995
 20
-15.8799
 30
0.0
 10
0.2694
 20
-15.783
 30
0.0
 10
0.2694
 20
-15.783
 30
0.0
 10
0.2393
 20
-15.6861
 30
0.0
 10
0.2238
 20
-15.5694
 30
0.0
 10
0.2238
 20
-15.4335
 30
0.0
 10
0.2238
 20
-15.4335
 30
0.0
 10
0.2238
 20
-15.2261
 30
0.0
 10
0.2652
 20
-15.0412
 30
0.0
 10
0.3479
 20
-14.8789
 30
0.0
 10
0.3479
 20
-14.8789
 30
0.0
 10
0.4307
 20
-14.7166
 30
0.0
 10
0.5464
 20
-14.5939
 30
0.0
 10
0.696
 20
-14.5102
 30
0.0
 10
0.696
 20
-14.5102
 30
0.0
 10
0.8451
 20
-14.4269
 30
0.0
 10
1.0112
 20
-14.385
 30
0.0
 10
1.1941
 20
-14.385
 30
0.0
 10
1.1941
 20
-14.385
 30
0.0
 10
1.3174
 20
-14.385
 30
0.0
 10
1.4251
 20
-14.401
 30
0.0
 10
1.5173
 20
-14.434
 30
0.0
 10
1.5173
 20
-14.434
 30
0.0
 10
1.6095
 20
-14.4664
 30
0.0
 10
1.7092
 20
-14.5233
 30
0.0
 10
1.8155
 20
-14.6042
 30
0.0
  0
SPLINE
  5
61
330
1F
100
AcDbEntity
  8
DEFAULT_1
 62
   250
100
AcDbSpline
210
0.0
220
0.0
230
1.0
 70
    11
 71
     3
 72
    32
 73
    28
 74
     0
 42
0.0000000001
 43
0.0000000001
 40
0.0
 40
0.0
 40
0.0
 40
0.0
 40
0.125
 40
0.125
 40
0.125
 40
0.125
 40
0.25
 40
0.25
 40
0.25
 40
0.25
 40
0.375
 40
0.375
 40
0.375
 40
0.375
 40
0.5
 40
0.5
 40
0.5
 40
0.5
 40
0.625
 40
0.625
 40
0.625
 40
0.625
 40
0.75
 40
0.75
 40
0.75
 40
0.75
 40
1.0
 40
1.0
 40
1.0
 40
1.0
 10
1.6504
 20
-14.79
 30
0.0
 10
1.5638
 20
-14.7223
 30
0.0
 10
1.4881
 20
-14.6757
 30
0.0
 10
1.4237
 20
-14.6508
 30
0.0
 10
1.4237
 20
-14.6508
 30
0.0
 10
1.3588
 20
-14.6263
 30
0.0
 10
1.2826
 20
-14.6136
 30
0.0
 10
1.1955
 20
-14.6136
 30
0.0
 10
1.1955
 20
-14.6136
 30
0.0
 10
0.9942
 20
-14.6136
 30
0.0
 10
0.8282
 20
-14.6818
 30
0.0
 10
0.6965
 20
-14.8182
 30
0.0
 10
0.6965
 20
-14.8182
 30
0.0
 10
0.5652
 20
-14.9547
 30
0.0
 10
0.4994
 20
-15.1583
 30
0.0
 10
0.4994
 20
-15.4297
 30
0.0
 10
0.4994
 20
-15.4297
 30
0.0
 10
0.4994
 20
-15.536
 30
0.0
 10
0.5097
 20
-15.6306
 30
0.0
 10
0.53
 20
-15.7134
 30
0.0
 10
0.53
 20
-15.7134
 30
0.0
 10
0.5446
 20
-15.775
 30
0.0
 10
0.5751
 20
-15.8507
 30
0.0
 10
0.6222
 20
-15.9405
 30
0.0
 10
0.6222
 20
-15.9405
 30
0.0
 10
0.6222
 20
-15.9405
 30
0.0
 10
1.6504
 20
-14.79
 30
0.0
 10
1.6504
 20
-14.79
 30
0.0
  0
SPLINE
  5
62
330
1F
100
AcDbEntity
  8
DEFAULT_1
 62
   250
100
AcDbSpline
210
0.0
220
0.0
230
1.0
 70
    11
 71
     3
 72
    28
 73
    24
 74
     0
 42
0.0000000001
 43
0.0000000001
 40
0.0
 40
0.0
 40
0.0
 40
0.0
 40
0.1428571428571428
 40
0.1428571428571428
 40
0.1428571428571428
 40
0.1428571428571428
 40
0.2857142857142857
 40
0.2857142857142857
 40
0.2857142857142857
 40
0.2857142857142857
 40
0.4285714285714285
 40
0.4285714285714285
 40
0.4285714285714285
 40
0.4285714285714285
 40
0.5714285714285714
 40
0.5714285714285714
 40
0.5714285714285714
 40
0.5714285714285714
 40
0.7142857142857143
 40
0.7142857142857143
 40
0.7142857142857143
 40
0.7142857142857143
 40
1.0
 40
1.0
 40
1.0
 40
1.0
 10
1.7633
 20
-14.9321
 30
0.0
 10
1.7633
 20
-14.9321
 30
0.0
 10
0.7393
 20
-16.0784
 30
0.0
 10
0.7393
 20
-16.0784
 30
0.0
 10
0.7393
 20
-16.0784
 30
0.0
 10
0.8098
 20
-16.1362
 30
0.0
 10
0.8752
 20
-16.1767
 30
0.0
 10
0.935
 20
-16.1997
 30
0.0
 10
0.935
 20
-16.1997
 30
0.0
 10
1.013
 20
-16.2303
 30
0.0
 10
1.0977
 20
-16.2453
 30
0.0
 10
1.1885
 20
-16.2453
 30
0.0
 10
1.1885
 20
-16.2453
 30
0.0
 10
1.3889
 20
-16.2453
 30
0.0
 10
1.554
 20
-16.1748
 30
0.0
 10
1.6847
 20
-16.0332
 30
0.0
 10
1.6847
 20
-16.0332
 30
0.0
 10
1.815
 20
-15.8916
 30
0.0
 10
1.8804
 20
-15.6931
 30
0.0
 10
1.8804
 20
-15.4377
 30
0.0
 10
1.8804
 20
-15.4377
 30
0.0
 10
1.8804
 20
-15.2468
 30
0.0
 10
1.8414
 20
-15.0779
 30
0.0
 10
1.7633
 20
-14.9321
 30
0.0
  0
SPLINE
  5
63
330
1F
100
AcDbEntity
  8
DEFAULT_1
 62
   250
100
AcDbSpline
210
0.0
220
0.0
230
1.0
 70
    11
 71
     3
 72
    92
 73
    88
 74
     0
 42
0.0000000001
 43
0.0000000001
 40
0.0
 40
0.0
 40
0.0
 40
0.0
 40
0.0434782608695652
 40
0.0434782608695652
 40
0.0434782608695652
 40
0.0434782608695652
 40
0.0869565217391304
 40
0.0869565217391304
 40
0.0869565217391304
 40
0.0869565217391304
 40
0.1304347826086956
 40
0.1304347826086956
 40
0.1304347826086956
 40
0.1304347826086956
 40
0.1739130434782609
 40
0.1739130434782609
 40
0.1739130434782609
 40
0.1739130434782609
 40
0.2173913043478261
 40
0.2173913043478261
 40
0.2173913043478261
 40
0.2173913043478261
 40
0.2608695652173913
 40
0.2608695652173913
 40
0.2608695652173913
 40
0.2608695652173913
 40
0.3043478260869565
 40
0.3043478260869565
 40
0.3043478260869565
 40
0.3043478260869565
 40
0.3478260869565217
 40
0.3478260869565217
 40
0.3478260869565217
 40
0.3478260869565217
 40
0.391304347826087
 40
0.391304347826087
 40
0.391304347826087
 40
0.391304347826087
 40
0.4347826086956522
 40
0.4347826086956522
 40
0.4347826086956522
 40
0.4347826086956522
 40
0.4782608695652174
 40
0.4782608695652174
 40
0.4782608695652174
 40
0.4782608695652174
 40
0.5217391304347826
 40
0.5217391304347826
 40
0.5217391304347826
 40
0.5217391304347826
 40
0.5652173913043478
 40
0.5652173913043478
 40
0.5652173913043478
 40
0.5652173913043478
 40
0.6086956521739131
 40
0.6086956521739131
 40
0.6086956521739131
 40
0.6086956521739131
 40
0.6521739130434783
 40
0.6521739130434783
 40
0.6521739130434783
 40
0.6521739130434783
 40
0.6956521739130435
 40
0.6956521739130435
 40
0.6956521739130435
 40
0.6956521739130435
 40
0.7391304347826086
 40
0.7391304347826086
 40
0.7391304347826086
 40
0.7391304347826086
 40
0.782608695652174
 40
0.782608695652174
 40
0.782608695652174
 40
0.782608695652174
 40
0.8260869565217391
 40
0.8260869565217391
 40
0.8260869565217391
 40
0.8260869565217391
 40
0.8695652173913043
 40
0.8695652173913043
 40
0.8695652173913043
 40
0.8695652173913043
 40
0.9130434782608695
 40
0.9130434782608695
 40
0.9130434782608695
 40
0.9130434782608695
 40
1.0
 40
1.0
 40
1.0
 40
1.0
 10
2.4053
 20
-15.9104
 30
0.0
 10
2.4053
 20
-15.9104
 30
0.0
 10
2.6659
 20
-15.8883
 30
0.0
 10
2.6659
 20
-15.8883
 30
0.0
 10
2.6659
 20
-15.8883
 30
0.0
 10
2.6852
 20
-16.0153
 30
0.0
 10
2.7299
 20
-16.1103
 30
0.0
 10
2.8
 20
-16.1743
 30
0.0
 10
2.8
 20
-16.1743
 30
0.0
 10
2.8705
 20
-16.2383
 30
0.0
 10
2.9552
 20
-16.2703
 30
0.0
 10
3.0544
 20
-16.2703
 30
0.0
 10
3.0544
 20
-16.2703
 30
0.0
 10
3.1739
 20
-16.2703
 30
0.0
 10
3.275
 20
-16.2251
 30
0.0
 10
3.3573
 20
-16.1353
 30
0.0
 10
3.3573
 20
-16.1353
 30
0.0
 10
3.4401
 20
-16.045
 30
0.0
 10
3.4815
 20
-15.9255
 30
0.0
 10
3.4815
 20
-15.7769
 30
0.0
 10
3.4815
 20
-15.7769
 30
0.0
 10
3.4815
 20
-15.6353
 30
0.0
 10
3.442
 20
-15.5238
 30
0.0
 10
3.3625
 20
-15.442
 30
0.0
 10
3.3625
 20
-15.442
 30
0.0
 10
3.283
 20
-15.3601
 30
0.0
 10
3.1791
 20
-15.3192
 30
0.0
 10
3.0502
 20
-15.3192
 30
0.0
 10
3.0502
 20
-15.3192
 30
0.0
 10
2.9702
 20
-15.3192
 30
0.0
 10
2.8983
 20
-15.3375
 30
0.0
 10
2.8338
 20
-15.3737
 30
0.0
 10
2.8338
 20
-15.3737
 30
0.0
 10
2.7694
 20
-15.41
 30
0.0
 10
2.7191
 20
-15.457
 30
0.0
 10
2.6824
 20
-15.5149
 30
0.0
 10
2.6824
 20
-15.5149
 30
0.0
 10
2.6824
 20
-15.5149
 30
0.0
 10
2.4495
 20
-15.4848
 30
0.0
 10
2.4495
 20
-15.4848
 30
0.0
 10
2.4495
 20
-15.4848
 30
0.0
 10
2.4495
 20
-15.4848
 30
0.0
 10
2.6452
 20
-14.4471
 30
0.0
 10
2.6452
 20
-14.4471
 30
0.0
 10
2.6452
 20
-14.4471
 30
0.0
 10
2.6452
 20
-14.4471
 30
0.0
 10
3.6499
 20
-14.4471
 30
0.0
 10
3.6499
 20
-14.4471
 30
0.0
 10
3.6499
 20
-14.4471
 30
0.0
 10
3.6499
 20
-14.4471
 30
0.0
 10
3.6499
 20
-14.6842
 30
0.0
 10
3.6499
 20
-14.6842
 30
0.0
 10
3.6499
 20
-14.6842
 30
0.0
 10
3.6499
 20
-14.6842
 30
0.0
 10
2.8437
 20
-14.6842
 30
0.0
 10
2.8437
 20
-14.6842
 30
0.0
 10
2.8437
 20
-14.6842
 30
0.0
 10
2.8437
 20
-14.6842
 30
0.0
 10
2.7346
 20
-15.227
 30
0.0
 10
2.7346
 20
-15.227
 30
0.0
 10
2.7346
 20
-15.227
 30
0.0
 10
2.8559
 20
-15.1423
 30
0.0
 10
2.9834
 20
-15.1
 30
0.0
 10
3.1165
 20
-15.1
 30
0.0
 10
3.1165
 20
-15.1
 30
0.0
 10
3.2929
 20
-15.1
 30
0.0
 10
3.4415
 20
-15.1611
 30
0.0
 10
3.5629
 20
-15.2834
 30
0.0
 10
3.5629
 20
-15.2834
 30
0.0
 10
3.6842
 20
-15.4057
 30
0.0
 10
3.7449
 20
-15.5628
 30
0.0
 10
3.7449
 20
-15.7547
 30
0.0
 10
3.7449
 20
-15.7547
 30
0.0
 10
3.7449
 20
-15.9377
 30
0.0
 10
3.6913
 20
-16.0958
 30
0.0
 10
3.585
 20
-16.2289
 30
0.0
 10
3.585
 20
-16.2289
 30
0.0
 10
3.4552
 20
-16.3921
 30
0.0
 10
3.2783
 20
-16.4739
 30
0.0
 10
3.0544
 20
-16.4739
 30
0.0
 10
3.0544
 20
-16.4739
 30
0.0
 10
2.8705
 20
-16.4739
 30
0.0
 10
2.7205
 20
-16.4227
 30
0.0
 10
2.6043
 20
-16.3197
 30
0.0
 10
2.6043
 20
-16.3197
 30
0.0
 10
2.4881
 20
-16.2166
 30
0.0
 10
2.4218
 20
-16.0802
 30
0.0
 10
2.4053
 20
-15.9104
 30
0.0
  0
SPLINE
  5
64
330
1F
100
AcDbEntity
  8
DEFAULT_1
 62
   250
100
AcDbSpline
210
0.0
220
0.0
230
1.0
 70
    11
 71
     3
 72
    52
 73
    48
 74
     0
 42
0.0000000001
 43
0.0000000001
 40
0.0
 40
0.0
 40
0.0
 40
0.0
 40
0.0769230769230769
 40
0.0769230769230769
 40
0.0769230769230769
 40
0.0769230769230769
 40
0.1538461538461539
 40
0.1538461538461539
 40
0.1538461538461539
 40
0.1538461538461539
 40
0.2307692307692308
 40
0.2307692307692308
 40
0.2307692307692308
 40
0.2307692307692308
 40
0.3076923076923077
 40
0.3076923076923077
 40
0.3076923076923077
 40
0.3076923076923077
 40
0.3846153846153846
 40
0.3846153846153846
 40
0.3846153846153846
 40
0.3846153846153846
 40
0.4615384615384616
 40
0.4615384615384616
 40
0.4615384615384616
 40
0.4615384615384616
 40
0.5384615384615384
 40
0.5384615384615384
 40
0.5384615384615384
 40
0.5384615384615384
 40
0.6153846153846154
 40
0.6153846153846154
 40
0.6153846153846154
 40
0.6153846153846154
 40
0.6923076923076923
 40
0.6923076923076923
 40
0.6923076923076923
 40
0.6923076923076923
 40
0.7692307692307693
 40
0.7692307692307693
 40
0.7692307692307693
 40
0.7692307692307693
 40
0.8461538461538461
 40
0.8461538461538461
 40
0.8461538461538461
 40
0.8461538461538461
 40
1.0
 40
1.0
 40
1.0
 40
1.0
 10
3.9749
 20
-15.4434
 30
0.0
 10
3.9749
 20
-15.2044
 30
0.0
 10
3.9994
 20
-15.012
 30
0.0
 10
4.0488
 20
-14.8667
 30
0.0
 10
4.0488
 20
-14.8667
 30
0.0
 10
4.0977
 20
-14.7209
 30
0.0
 10
4.1711
 20
-14.6085
 30
0.0
 10
4.268
 20
-14.5294
 30
0.0
 10
4.268
 20
-14.5294
 30
0.0
 10
4.3649
 20
-14.4504
 30
0.0
 10
4.4867
 20
-14.4109
 30
0.0
 10
4.6334
 20
-14.4109
 30
0.0
 10
4.6334
 20
-14.4109
 30
0.0
 10
4.7421
 20
-14.4109
 30
0.0
 10
4.8371
 20
-14.433
 30
0.0
 10
4.9189
 20
-14.4768
 30
0.0
 10
4.9189
 20
-14.4768
 30
0.0
 10
5.0008
 20
-14.52
 30
0.0
 10
5.0681
 20
-14.5831
 30
0.0
 10
5.1217
 20
-14.6654
 30
0.0
 10
5.1217
 20
-14.6654
 30
0.0
 10
5.1748
 20
-14.7477
 30
0.0
 10
5.2167
 20
-14.8479
 30
0.0
 10
5.2468
 20
-14.9659
 30
0.0
 10
5.2468
 20
-14.9659
 30
0.0
 10
5.2774
 20
-15.084
 30
0.0
 10
5.2924
 20
-15.243
 30
0.0
 10
5.2924
 20
-15.4434
 30
0.0
 10
5.2924
 20
-15.4434
 30
0.0
 10
5.2924
 20
-15.6804
 30
0.0
 10
5.268
 20
-15.8714
 30
0.0
 10
5.2195
 20
-16.0172
 30
0.0
 10
5.2195
 20
-16.0172
 30
0.0
 10
5.1706
 20
-16.163
 30
0.0
 10
5.0977
 20
-16.2754
 30
0.0
 10
5.0008
 20
-16.3549
 30
0.0
 10
5.0008
 20
-16.3549
 30
0.0
 10
4.9039
 20
-16.4344
 30
0.0
 10
4.7816
 20
-16.4739
 30
0.0
 10
4.6334
 20
-16.4739
 30
0.0
 10
4.6334
 20
-16.4739
 30
0.0
 10
4.4387
 20
-16.4739
 30
0.0
 10
4.2858
 20
-16.4043
 30
0.0
 10
4.1748
 20
-16.2646
 30
0.0
 10
4.1748
 20
-16.2646
 30
0.0
 10
4.0417
 20
-16.0967
 30
0.0
 10
3.9749
 20
-15.8225
 30
0.0
 10
3.9749
 20
-15.4434
 30
0.0
  0
SPLINE
  5
65
330
1F
100
AcDbEntity
  8
DEFAULT_1
 62
   250
100
AcDbSpline
210
0.0
220
0.0
230
1.0
 70
    11
 71
     3
 72
    36
 73
    32
 74
     0
 42
0.0000000001
 43
0.0000000001
 40
0.0
 40
0.0
 40
0.0
 40
0.0
 40
0.1111111111111111
 40
0.1111111111111111
 40
0.1111111111111111
 40
0.1111111111111111
 40
0.2222222222222222
 40
0.2222222222222222
 40
0.2222222222222222
 40
0.2222222222222222
 40
0.3333333333333333
 40
0.3333333333333333
 40
0.3333333333333333
 40
0.3333333333333333
 40
0.4444444444444444
 40
0.4444444444444444
 40
0.4444444444444444
 40
0.4444444444444444
 40
0.5555555555555556
 40
0.5555555555555556
 40
0.5555555555555556
 40
0.5555555555555556
 40
0.6666666666666666
 40
0.6666666666666666
 40
0.6666666666666666
 40
0.6666666666666666
 40
0.7777777777777778
 40
0.7777777777777778
 40
0.7777777777777778
 40
0.7777777777777778
 40
1.0
 40
1.0
 40
1.0
 40
1.0
 10
4.2299
 20
-15.4434
 30
0.0
 10
4.2299
 20
-15.775
 30
0.0
 10
4.2689
 20
-15.9956
 30
0.0
 10
4.3465
 20
-16.1056
 30
0.0
 10
4.3465
 20
-16.1056
 30
0.0
 10
4.4241
 20
-16.2152
 30
0.0
 10
4.5196
 20
-16.2703
 30
0.0
 10
4.6334
 20
-16.2703
 30
0.0
 10
4.6334
 20
-16.2703
 30
0.0
 10
4.7477
 20
-16.2703
 30
0.0
 10
4.8432
 20
-16.2148
 30
0.0
 10
4.9208
 20
-16.1047
 30
0.0
 10
4.9208
 20
-16.1047
 30
0.0
 10
4.9984
 20
-15.9946
 30
0.0
 10
5.0375
 20
-15.774
 30
0.0
 10
5.0375
 20
-15.4434
 30
0.0
 10
5.0375
 20
-15.4434
 30
0.0
 10
5.0375
 20
-15.1108
 30
0.0
 10
4.9984
 20
-14.8897
 30
0.0
 10
4.9208
 20
-14.7806
 30
0.0
 10
4.9208
 20
-14.7806
 30
0.0
 10
4.8432
 20
-14.671
 30
0.0
 10
4.7468
 20
-14.6165
 30
0.0
 10
4.6311
 20
-14.6165
 30
0.0
 10
4.6311
 20
-14.6165
 30
0.0
 10
4.5168
 20
-14.6165
 30
0.0
 10
4.426
 20
-14.6649
 30
0.0
 10
4.3578
 20
-14.7613
 30
0.0
 10
4.3578
 20
-14.7613
 30
0.0
 10
4.2727
 20
-14.8841
 30
0.0
 10
4.2299
 20
-15.1118
 30
0.0
 10
4.2299
 20
-15.4434
 30
0.0
  0
SPLINE
  5
66
330
1F
100
AcDbEntity
  8
DEFAULT_1
 62
   250
100
AcDbSpline
210
0.0
220
0.0
230
1.0
 70
    11
 71
     3
 72
    20
 73
    16
 74
     0
 42
0.0000000001
 43
0.0000000001
 40
0.0
 40
0.0
 40
0.0
 40
0.0
 40
0.2
 40
0.2
 40
0.2
 40
0.2
 40
0.4
 40
0.4
 40
0.4
 40
0.4
 40
0.6
 40
0.6
 40
0.6
 40
0.6
 40
1.0
 40
1.0
 40
1.0
 40
1.0
 10
-4.314
 20
-16.7421
 30
0.0
 10
-4.314
 20
-16.7421
 30
0.0
 10
-1.814
 20
-17.095
 30
0.0
 10
-1.814
 20
-17.095
 30
0.0
 10
-1.814
 20
-17.095
 30
0.0
 10
-1.814
 20
-17.095
 30
0.0
 10
-1.814
 20
-17.1733
 30
0.0
 10
-1.814
 20
-17.1733
 30
0.0
 10
-1.814
 20
-17.1733
 30
0.0
 10
-1.814
 20
-17.1733
 30
0.0
 10
-4.314
 20
-17.5496
 30
0.0
 10
-4.314
 20
-17.5496
 30
0.0
 10
-4.314
 20
-17.5496
 30
0.0
 10
-4.314
 20
-17.5496
 30
0.0
 10
-4.314
 20
-16.7421
 30
0.0
 10
-4.314
 20
-16.7421
 30
0.0
  0
SPLINE
  5
67
330
1F
100
AcDbEntity
  8
DEFAULT_1
 62
   250
100
AcDbSpline
210
0.0
220
0.0
230
1.0
 70
    11
 71
     3
 72
    20
 73
    16
 74
     0
 42
0.0000000001
 43
0.0000000001
 40
0.0
 40
0.0
 40
0.0
 40
0.0
 40
0.2
 40
0.2
 40
0.2
 40
0.2
 40
0.4
 40
0.4
 40
0.4
 40
0.4
 40
0.6
 40
0.6
 40
0.6
 40
0.6
 40
1.0
 40
1.0
 40
1.0
 40
1.0
 10
9.3315
 20
-17.4969
 30
0.0
 10
9.3315
 20
-17.4969
 30
0.0
 10
6.8315
 20
-17.144
 30
0.0
 10
6.8315
 20
-17.144
 30
0.0
 10
6.8315
 20
-17.144
 30
0.0
 10
6.8315
 20
-17.144
 30
0.0
 10
6.8315
 20
-17.0657
 30
0.0
 10
6.8315
 20
-17.0657
 30
0.0
 10
6.8315
 20
-17.0657
 30
0.0
 10
6.8315
 20
-17.0657
 30
0.0
 10
9.3315
 20
-16.6894
 30
0.0
 10
9.3315
 20
-16.6894
 30
0.0
 10
9.3315
 20
-16.6894
 30
0.0
 10
9.3315
 20
-16.6894
 30
0.0
 10
9.3315
 20
-17.4969
 30
0.0
 10
9.3315
 20
-17.4969
 30
0.0
  0
SPLINE
  5
68
330
1F
100
AcDbEntity
  8
DEFAULT_1
 62
   250
100
AcDbSpline
210
0.0
220
0.0
230
1.0
 70
    24
 71
     3
 72
     8
 73
     4
 74
     0
 42
0.0000000001
 43
0.0000000001
 40
0.0
 40
0.0
 40
0.0
 40
0.0
 40
1.0
 40
1.0
 40
1.0
 40
1.0
 10
-2.3757
 20
-12.8845
 30
0.0
 10
-2.3757
 20
-12.8845
 30
0.0
 10
-14.0596
 20
-12.8845
 30
0.0
 10
-14.0596
 20
-12.8845
 30
0.0
  0
SPLINE
  5
69
330
1F
100
AcDbEntity
  8
DEFAULT_1
 62
   250
100
AcDbSpline
210
0.0
220
0.0
230
1.0
 70
    11
 71
     3
 72
    20
 73
    16
 74
     0
 42
0.0000000001
 43
0.0000000001
 40
0.0
 40
0.0
 40
0.0
 40
0.0
 40
0.2
 40
0.2
 40
0.2
 40
0.2
 40
0.4
 40
0.4
 40
0.4
 40
0.4
 40
0.6
 40
0.6
 40
0.6
 40
0.6
 40
1.0
 40
1.0
 40
1.0
 40
1.0
 10
-13.9037
 20
-15.5458
 30
0.0
 10
-13.9037
 20
-15.5458
 30
0.0
 10
-13.5508
 20
-13.0458
 30
0.0
 10
-13.5508
 20
-13.0458
 30
0.0
 10
-13.5508
 20
-13.0458
 30
0.0
 10
-13.5508
 20
-13.0458
 30
0.0
 10
-13.4725
 20
-13.0458
 30
0.0
 10
-13.4725
 20
-13.0458
 30
0.0
 10
-13.4725
 20
-13.0458
 30
0.0
 10
-13.4725
 20
-13.0458
 30
0.0
 10
-13.0962
 20
-15.5458
 30
0.0
 10
-13.0962
 20
-15.5458
 30
0.0
 10
-13.0962
 20
-15.5458
 30
0.0
 10
-13.0962
 20
-15.5458
 30
0.0
 10
-13.9037
 20
-15.5458
 30
0.0
 10
-13.9037
 20
-15.5458
 30
0.0
  0
SPLINE
  5
6A
330
1F
100
AcDbEntity
  8
DEFAULT_1
 62
   250
100
AcDbSpline
210
0.0
220
0.0
230
1.0
 70
    11
 71
     3
 72
    48
 73
    44
 74
     0
 42
0.0000000001
 43
0.0000000001
 40
0.0
 40
0.0
 40
0.0
 40
0.0
 40
0.0833333333333333
 40
0.0833333333333333
 40
0.0833333333333333
 40
0.0833333333333333
 40
0.1666666666666667
 40
0.1666666666666667
 40
0.1666666666666667
 40
0.1666666666666667
 40
0.25
 40
0.25
 40
0.25
 40
0.25
 40
0.3333333333333333
 40
0.3333333333333333
 40
0.3333333333333333
 40
0.3333333333333333
 40
0.4166666666666667
 40
0.4166666666666667
 40
0.4166666666666667
 40
0.4166666666666667
 40
0.5
 40
0.5
 40
0.5
 40
0.5
 40
0.5833333333333334
 40
0.5833333333333334
 40
0.5833333333333334
 40
0.5833333333333334
 40
0.6666666666666666
 40
0.6666666666666666
 40
0.6666666666666666
 40
0.6666666666666666
 40
0.75
 40
0.75
 40
0.75
 40
0.75
 40
0.8333333333333334
 40
0.8333333333333334
 40
0.8333333333333334
 40
0.8333333333333334
 40
1.0
 40
1.0
 40
1.0
 40
1.0
 10
-15.7335
 20
1.6705
 30
0.0
 10
-15.7335
 20
1.6705
 30
0.0
 10
-15.972
 20
1.6705
 30
0.0
 10
-15.972
 20
1.6705
 30
0.0
 10
-15.972
 20
1.6705
 30
0.0
 10
-15.972
 20
1.6705
 30
0.0
 10
-15.972
 20
2.9781
 30
0.0
 10
-15.972
 20
2.9781
 30
0.0
 10
-15.972
 20
2.9781
 30
0.0
 10
-15.972
 20
2.9781
 30
0.0
 10
-15.7791
 20
2.9781
 30
0.0
 10
-15.7791
 20
2.9781
 30
0.0
 10
-15.7791
 20
2.9781
 30
0.0
 10
-15.6423
 20
2.8497
 30
0.0
 10
-15.4602
 20
2.7222
 30
0.0
 10
-15.2335
 20
2.5957
 30
0.0
 10
-15.2335
 20
2.5957
 30
0.0
 10
-15.0068
 20
2.4696
 30
0.0
 10
-14.773
 20
2.3718
 30
0.0
 10
-14.5336
 20
2.3031
 30
0.0
 10
-14.5336
 20
2.3031
 30
0.0
 10
-14.3643
 20
2.2533
 30
0.0
 10
-14.1794
 20
2.2218
 30
0.0
 10
-13.9781
 20
2.2081
 30
0.0
 10
-13.9781
 20
2.2081
 30
0.0
 10
-13.9781
 20
2.2081
 30
0.0
 10
-13.9781
 20
1.9532
 30
0.0
 10
-13.9781
 20
1.9532
 30
0.0
 10
-13.9781
 20
1.9532
 30
0.0
 10
-14.1371
 20
1.956
 30
0.0
 10
-14.329
 20
1.987
 30
0.0
 10
-14.5543
 20
2.0468
 30
0.0
 10
-14.5543
 20
2.0468
 30
0.0
 10
-14.7791
 20
2.1065
 30
0.0
 10
-14.9964
 20
2.1921
 30
0.0
 10
-15.2053
 20
2.3036
 30
0.0
 10
-15.2053
 20
2.3036
 30
0.0
 10
-15.4141
 20
2.4155
 30
0.0
 10
-15.5905
 20
2.5341
 30
0.0
 10
-15.7335
 20
2.6601
 30
0.0
 10
-15.7335
 20
2.6601
 30
0.0
 10
-15.7335
 20
2.6601
 30
0.0
 10
-15.7335
 20
1.6705
 30
0.0
 10
-15.7335
 20
1.6705
 30
0.0
  0
SPLINE
  5
6B
330
1F
100
AcDbEntity
  8
DEFAULT_1
 62
   250
100
AcDbSpline
210
0.0
220
0.0
230
1.0
 70
    11
 71
     3
 72
    92
 73
    88
 74
     0
 42
0.0000000001
 43
0.0000000001
 40
0.0
 40
0.0
 40
0.0
 40
0.0
 40
0.0434782608695652
 40
0.0434782608695652
 40
0.0434782608695652
 40
0.0434782608695652
 40
0.0869565217391304
 40
0.0869565217391304
 40
0.0869565217391304
 40
0.0869565217391304
 40
0.1304347826086956
 40
0.1304347826086956
 40
0.1304347826086956
 40
0.1304347826086956
 40
0.1739130434782609
 40
0.1739130434782609
 40
0.1739130434782609
 40
0.1739130434782609
 40
0.2173913043478261
 40
0.2173913043478261
 40
0.2173913043478261
 40
0.2173913043478261
 40
0.2608695652173913
 40
0.2608695652173913
 40
0.2608695652173913
 40
0.2608695652173913
 40
0.3043478260869565
 40
0.3043478260869565
 40
0.3043478260869565
 40
0.3043478260869565
 40
0.3478260869565217
 40
0.3478260869565217
 40
0.3478260869565217
 40
0.3478260869565217
 40
0.391304347826087
 40
0.391304347826087
 40
0.391304347826087
 40
0.391304347826087
 40
0.4347826086956522
 40
0.4347826086956522
 40
0.4347826086956522
 40
0.4347826086956522
 40
0.4782608695652174
 40
0.4782608695652174
 40
0.4782608695652174
 40
0.4782608695652174
 40
0.5217391304347826
 40
0.5217391304347826
 40
0.5217391304347826
 40
0.5217391304347826
 40
0.5652173913043478
 40
0.5652173913043478
 40
0.5652173913043478
 40
0.5652173913043478
 40
0.6086956521739131
 40
0.6086956521739131
 40
0.6086956521739131
 40
0.6086956521739131
 40
0.6521739130434783
 40
0.6521739130434783
 40
0.6521739130434783
 40
0.6521739130434783
 40
0.6956521739130435
 40
0.6956521739130435
 40
0.6956521739130435
 40
0.6956521739130435
 40
0.7391304347826086
 40
0.7391304347826086
 40
0.7391304347826086
 40
0.7391304347826086
 40
0.782608695652174
 40
0.782608695652174
 40
0.782608695652174
 40
0.782608695652174
 40
0.8260869565217391
 40
0.8260869565217391
 40
0.8260869565217391
 40
0.8260869565217391
 40
0.8695652173913043
 40
0.8695652173913043
 40
0.8695652173913043
 40
0.8695652173913043
 40
0.9130434782608695
 40
0.9130434782608695
 40
0.9130434782608695
 40
0.9130434782608695
 40
1.0
 40
1.0
 40
1.0
 40
1.0
 10
-14.4452
 20
3.2608
 30
0.0
 10
-14.4452
 20
3.2608
 30
0.0
 10
-14.4673
 20
3.4993
 30
0.0
 10
-14.4673
 20
3.4993
 30
0.0
 10
-14.4673
 20
3.4993
 30
0.0
 10
-14.3553
 20
3.5195
 30
0.0
 10
-14.274
 20
3.5581
 30
0.0
 10
-14.2232
 20
3.615
 30
0.0
 10
-14.2232
 20
3.615
 30
0.0
 10
-14.1728
 20
3.6719
 30
0.0
 10
-14.1474
 20
3.7448
 30
0.0
 10
-14.1474
 20
3.8342
 30
0.0
 10
-14.1474
 20
3.8342
 30
0.0
 10
-14.1474
 20
3.9104
 30
0.0
 10
-14.1648
 20
3.9771
 30
0.0
 10
-14.2001
 20
4.0345
 30
0.0
 10
-14.2001
 20
4.0345
 30
0.0
 10
-14.2349
 20
4.0919
 30
0.0
 10
-14.2815
 20
4.139
 30
0.0
 10
-14.3398
 20
4.1756
 30
0.0
 10
-14.3398
 20
4.1756
 30
0.0
 10
-14.3981
 20
4.2128
 30
0.0
 10
-14.4772
 20
4.2434
 30
0.0
 10
-14.5759
 20
4.2683
 30
0.0
 10
-14.5759
 20
4.2683
 30
0.0
 10
-14.6752
 20
4.2928
 30
0.0
 10
-14.7763
 20
4.3055
 30
0.0
 10
-14.8793
 20
4.3055
 30
0.0
 10
-14.8793
 20
4.3055
 30
0.0
 10
-14.8901
 20
4.3055
 30
0.0
 10
-14.9071
 20
4.305
 30
0.0
 10
-14.9287
 20
4.3041
 30
0.0
 10
-14.9287
 20
4.3041
 30
0.0
 10
-14.8502
 20
4.2542
 30
0.0
 10
-14.7857
 20
4.1865
 30
0.0
 10
-14.7368
 20
4.1009
 30
0.0
 10
-14.7368
 20
4.1009
 30
0.0
 10
-14.6874
 20
4.0148
 30
0.0
 10
-14.663
 20
3.9216
 30
0.0
 10
-14.663
 20
3.8219
 30
0.0
 10
-14.663
 20
3.8219
 30
0.0
 10
-14.663
 20
3.6545
 30
0.0
 10
-14.7236
 20
3.5129
 30
0.0
 10
-14.845
 20
3.3972
 30
0.0
 10
-14.845
 20
3.3972
 30
0.0
 10
-14.9663
 20
3.2815
 30
0.0
 10
-15.1258
 20
3.2236
 30
0.0
 10
-15.3243
 20
3.2236
 30
0.0
 10
-15.3243
 20
3.2236
 30
0.0
 10
-15.5294
 20
3.2236
 30
0.0
 10
-15.694
 20
3.2838
 30
0.0
 10
-15.8191
 20
3.4047
 30
0.0
 10
-15.8191
 20
3.4047
 30
0.0
 10
-15.9442
 20
3.5256
 30
0.0
 10
-16.0068
 20
3.6771
 30
0.0
 10
-16.0068
 20
3.8591
 30
0.0
 10
-16.0068
 20
3.8591
 30
0.0
 10
-16.0068
 20
3.9903
 30
0.0
 10
-15.971
 20
4.1103
 30
0.0
 10
-15.9005
 20
4.2194
 30
0.0
 10
-15.9005
 20
4.2194
 30
0.0
 10
-15.8299
 20
4.328
 30
0.0
 10
-15.7288
 20
4.4108
 30
0.0
 10
-15.598
 20
4.4673
 30
0.0
 10
-15.598
 20
4.4673
 30
0.0
 10
-15.4673
 20
4.5237
 30
0.0
 10
-15.2777
 20
4.5519
 30
0.0
 10
-15.0294
 20
4.5519
 30
0.0
 10
-15.0294
 20
4.5519
 30
0.0
 10
-14.7716
 20
4.5519
 30
0.0
 10
-14.5661
 20
4.5242
 30
0.0
 10
-14.4127
 20
4.4682
 30
0.0
 10
-14.4127
 20
4.4682
 30
0.0
 10
-14.2598
 20
4.4118
 30
0.0
 10
-14.1437
 20
4.3285
 30
0.0
 10
-14.0637
 20
4.218
 30
0.0
 10
-14.0637
 20
4.218
 30
0.0
 10
-13.9837
 20
4.107
 30
0.0
 10
-13.9438
 20
3.9776
 30
0.0
 10
-13.9438
 20
3.8285
 30
0.0
 10
-13.9438
 20
3.8285
 30
0.0
 10
-13.9438
 20
3.6705
 30
0.0
 10
-13.9875
 20
3.5416
 30
0.0
 10
-14.0755
 20
3.4414
 30
0.0
 10
-14.0755
 20
3.4414
 30
0.0
 10
-14.163
 20
3.3412
 30
0.0
 10
-14.2862
 20
3.281
 30
0.0
 10
-14.4452
 20
3.2608
 30
0.0
  0
SPLINE
  5
6C
330
1F
100
AcDbEntity
  8
DEFAULT_1
 62
   250
100
AcDbSpline
210
0.0
220
0.0
230
1.0
 70
    11
 71
     3
 72
    36
 73
    32
 74
     0
 42
0.0000000001
 43
0.0000000001
 40
0.0
 40
0.0
 40
0.0
 40
0.0
 40
0.1111111111111111
 40
0.1111111111111111
 40
0.1111111111111111
 40
0.1111111111111111
 40
0.2222222222222222
 40
0.2222222222222222
 40
0.2222222222222222
 40
0.2222222222222222
 40
0.3333333333333333
 40
0.3333333333333333
 40
0.3333333333333333
 40
0.3333333333333333
 40
0.4444444444444444
 40
0.4444444444444444
 40
0.4444444444444444
 40
0.4444444444444444
 40
0.5555555555555556
 40
0.5555555555555556
 40
0.5555555555555556
 40
0.5555555555555556
 40
0.6666666666666666
 40
0.6666666666666666
 40
0.6666666666666666
 40
0.6666666666666666
 40
0.7777777777777778
 40
0.7777777777777778
 40
0.7777777777777778
 40
0.7777777777777778
 40
1.0
 40
1.0
 40
1.0
 40
1.0
 10
-15.337
 20
4.2763
 30
0.0
 10
-15.479
 20
4.2763
 30
0.0
 10
-15.5924
 20
4.2387
 30
0.0
 10
-15.6757
 20
4.1629
 30
0.0
 10
-15.6757
 20
4.1629
 30
0.0
 10
-15.7594
 20
4.0867
 30
0.0
 10
-15.8012
 20
3.996
 30
0.0
 10
-15.8012
 20
3.8892
 30
0.0
 10
-15.8012
 20
3.8892
 30
0.0
 10
-15.8012
 20
3.7791
 30
0.0
 10
-15.7561
 20
3.6832
 30
0.0
 10
-15.6662
 20
3.6013
 30
0.0
 10
-15.6662
 20
3.6013
 30
0.0
 10
-15.5759
 20
3.5195
 30
0.0
 10
-15.4593
 20
3.4786
 30
0.0
 10
-15.3163
 20
3.4786
 30
0.0
 10
-15.3163
 20
3.4786
 30
0.0
 10
-15.1874
 20
3.4786
 30
0.0
 10
-15.083
 20
3.5176
 30
0.0
 10
-15.0026
 20
3.5952
 30
0.0
 10
-15.0026
 20
3.5952
 30
0.0
 10
-14.9221
 20
3.6728
 30
0.0
 10
-14.8821
 20
3.7683
 30
0.0
 10
-14.8821
 20
3.8821
 30
0.0
 10
-14.8821
 20
3.8821
 30
0.0
 10
-14.8821
 20
3.9974
 30
0.0
 10
-14.9221
 20
4.0914
 30
0.0
 10
-15.0026
 20
4.1653
 30
0.0
 10
-15.0026
 20
4.1653
 30
0.0
 10
-15.083
 20
4.2396
 30
0.0
 10
-15.1945
 20
4.2763
 30
0.0
 10
-15.337
 20
4.2763
 30
0.0
  0
ENDSEC
  0
SECTION
  2
OBJECTS
  0
DICTIONARY
  5
C
330
0
100
AcDbDictionary
  3
ACAD_GROUP
350
D
  3
ACAD_LAYOUT
350
1A
  3
ACAD_MATERIAL
350
3B
  3
ACAD_MLEADERSTYLE
350
8F
  3
ACAD_MLINESTYLE
350
17
  3
ACAD_PLOTSETTINGS
350
19
  3
ACAD_VISUALSTYLE
350
2A
  3
ACDBHEADERROUNDTRIPXREC
350
6D
  3
ACDBVARIABLEDICTIONARY
350
8D
  0
DICTIONARY
  5
D
102
{ACAD_REACTORS
330
C
102
}
330
C
100
AcDbDictionary
  0
DICTIONARY
  5
1A
102
{ACAD_REACTORS
330
C
102
}
330
C
100
AcDbDictionary
  0
DICTIONARY
  5
3B
102
{ACAD_REACTORS
330
C
102
}
330
C
100
AcDbDictionary
  3
BYBLOCK
350
3D
  3
BYLAYER
350
3C
  3
GLOBAL
350
3E
  0
DICTIONARY
  5
8F
102
{ACAD_REACTORS
330
C
102
}
330
C
100
AcDbDictionary
  0
DICTIONARY
  5
17
102
{ACAD_REACTORS
330
C
102
}
330
C
100
AcDbDictionary
  3
STANDARD
350
18
  0
DICTIONARY
  5
19
102
{ACAD_REACTORS
330
C
102
}
330
C
100
AcDbDictionary
  0
DICTIONARY
  5
2A
102
{ACAD_REACTORS
330
C
102
}
330
C
100
AcDbDictionary
  3
2DWIREFRAME
350
2F
  3
3D_HIDDEN
350
31
  3
3DWIREFRAME
350
30
  3
BASIC
350
32
  3
BRIGHTEN
350
36
  3
COLORCHANGE
350
3A
  3
CONCEPTUAL
350
34
  3
DIM
350
35
  3
FACEPATTERN
350
39
  3
FLAT
350
2B
  3
FLATWITHEDGES
350
2C
  3
GOURAUD
350
2D
  3
GOURAUDWITHEDGES
350
2E
  3
LINEPATTERN
350
38
  3
REALISTIC
350
33
  3
THICKEN
350
37
  0
DICTIONARY
  5
6D
102
{ACAD_REACTORS
330
C
102
}
330
C
100
AcDbDictionary
  3
CEPSNTYPE
350
76
  3
DIMSTYLEDATA
350
8C
  3
FINGERPRINTGUID
350
77
  3
HYPERLINKBASE
350
70
  3
INSUNITS
350
75
  3
LAYOUTDICT
350
72
  3
LWETCUNION
350
74
  3
PLOTSETDICT
350
73
  3
PSVPSCALE
350
79
  3
PUCSBASE
350
7C
  3
PUCSORGBACK
350
82
  3
PUCSORGBOTTOM
350
7E
  3
PUCSORGFRONT
350
81
  3
PUCSORGLEFT
350
7F
  3
PUCSORGRIGHT
350
80
  3
PUCSORGTOP
350
7D
  3
PUCSORTHOREF
350
7A
  3
PUCSORTHOVIEW
350
7B
  3
STYLESHEET
350
71
  3
TSTACKALIGN
350
6E
  3
TSTACKSIZE
350
6F
  3
UCSBASE
350
85
  3
UCSORGBACK
350
8B
  3
UCSORGBOTTOM
350
87
  3
UCSORGFRONT
350
8A
  3
UCSORGLEFT
350
88
  3
UCSORGRIGHT
350
89
  3
UCSORGTOP
350
86
  3
UCSORTHOREF
350
83
  3
UCSORTHOVIEW
350
84
  3
VERSIONGUID
350
78
  0
DICTIONARY
  5
8D
102
{ACAD_REACTORS
330
C
102
}
330
C
100
AcDbDictionary
  3
DIMASSOC
350
90
  3
HIDETEXT
350
91
  0
MATERIAL
  5
3D
102
{ACAD_REACTORS
330
3B
102
}
102
{ACAD_XDICTIONARY
360
94
102
}
330
3B
100
AcDbMaterial
  1
ByBlock
  0
MATERIAL
  5
3C
102
{ACAD_REACTORS
330
3B
102
}
102
{ACAD_XDICTIONARY
360
92
102
}
330
3B
100
AcDbMaterial
  1
ByLayer
  0
MATERIAL
  5
3E
102
{ACAD_REACTORS
330
3B
102
}
102
{ACAD_XDICTIONARY
360
96
102
}
330
3B
100
AcDbMaterial
  1
Global
  0
MLINESTYLE
  5
18
102
{ACAD_REACTORS
330
17
102
}
330
17
100
AcDbMlineStyle
  2
Standard
 70
     0
  3

 62
   256
 51
90.0
 52
90.0
 71
     2
 49
0.5
 62
   256
  6
BYLAYER
 49
-0.5
 62
   256
  6
BYLAYER
  0
ACAD_PROXY_OBJECT
  5
2F
102
{ACAD_REACTORS
330
2A
102
}
330
2A
100
AcDbProxyObject
 90
      499
 91
      501
 93
      436
310
42CC9915DA5C99599C985B595049028333333333333E3BF0000000000000FB0107901411070040501600405405064090741402480A0340
1001
ACAD
1000
AcDbSavedByObjectVersion
1070
     0
  0
ACAD_PROXY_OBJECT
  5
31
102
{ACAD_REACTORS
330
2A
102
}
330
2A
100
AcDbProxyObject
 90
      499
 91
      501
 93
      500
310
424CD108121A5919195B90640502408333333333333E3BF0000000000000FB01079024090700405020000000000001110200405405064090740C02480A0340
1001
ACAD
1000
AcDbSavedByObjectVersion
1070
     0
  0
ACAD_PROXY_OBJECT
  5
30
102
{ACAD_REACTORS
330
2A
102
}
330
2A
100
AcDbProxyObject
 90
      499
 91
      501
 93
      436
310
42CCD915DA5C99599C985B595059028333333333333E3BF0000000000000FB0107901411070040501600405405064090741402480A0340
1001
ACAD
1000
AcDbSavedByObjectVersion
1070
     0
  0
ACAD_PROXY_OBJECT
  5
32
102
{ACAD_REACTORS
330
2A
102
}
330
2A
100
AcDbProxyObject
 90
      499
 91
      501
 93
      388
310
4150985CDA58D07406404333333333333E3BF0000000000000FB0107A41107004050150841D405064090741402480A0350
1001
ACAD
1000
AcDbSavedByObjectVersion
1070
     0
  0
ACAD_PROXY_OBJECT
  5
36
102
{ACAD_REACTORS
330
2A
102
}
330
2A
100
AcDbProxyObject
 90
      499
 91
      501
 93
      428
310
42109C9A59DA1D195B90C409028333333333333E3BF0000000000000FB010790141107004050150841D405064090741402480A029950
1001
ACAD
1000
AcDbSavedByObjectVersion
1070
     0
  0
ACAD_PROXY_OBJECT
  5
3A
102
{ACAD_REACTORS
330
2A
102
}
330
2A
100
AcDbProxyObject
 90
      499
 91
      501
 93
      452
310
42D0DBDB1BDC90DA185B99D95104090240C333333333333E3BF0000000000000FB0108901411070040501508421405064090741402480A0350
1001
ACAD
1000
AcDbSavedByObjectVersion
1070
     0
  0
ACAD_PROXY_OBJECT
  5
34
102
{ACAD_REACTORS
330
2A
102
}
330
2A
100
AcDbProxyObject
 90
      499
 91
      501
 93
      500
310
4290DBDB98D95C1D1D585B10940D028333333333333E3BF0000000000000FB0107902409070040501000000000000111010841D405064090740C02480A0340
1001
ACAD
1000
AcDbSavedByObjectVersion
1070
     0
  0
ACAD_PROXY_OBJECT
  5
35
102
{ACAD_REACTORS
330
2A
102
}
330
2A
100
AcDbProxyObject
 90
      499
 91
      501
 93
      412
310
40D11A5B50B409028333333333333E3BF0000000000000FB010790141107004050150841D405064090741402480A02677FFFFFD0
1001
ACAD
1000
AcDbSavedByObjectVersion
1070
     0
  0
ACAD_PROXY_OBJECT
  5
39
102
{ACAD_REACTORS
330
2A
102
}
330
2A
100
AcDbProxyObject
 90
      499
 91
      501
 93
      444
310
42D19858D95C185D1D195C9B90F409028333333333333E3BF0000000000000FB010790141107004050150841D405064090741402480A0350
1001
ACAD
1000
AcDbSavedByObjectVersion
1070
     0
  0
ACAD_PROXY_OBJECT
  5
2B
102
{ACAD_REACTORS
330
2A
102
}
330
2A
100
AcDbProxyObject
 90
      499
 91
      501
 93
      388
310
41119B185D240901404333333333333E3BF0000000000000F9010740A41107004050150841D405064090741402480A1B50
1001
ACAD
1000
AcDbSavedByObjectVersion
1070
     0
  0
ACAD_PROXY_OBJECT
  5
2C
102
{ACAD_REACTORS
330
2A
102
}
330
2A
100
AcDbProxyObject
 90
      499
 91
      501
 93
      476
310
43519B185D15DA5D1A115919D95CD0140901404333333333333E3BF0000000000000F9010740901411070040501600405405064090741402480A1B50
1001
ACAD
1000
AcDbSavedByObjectVersion
1070
     0
  0
ACAD_PROXY_OBJECT
  5
2D
102
{ACAD_REACTORS
330
2A
102
}
330
2A
100
AcDbProxyObject
 90
      499
 91
      501
 93
      412
310
41D1DBDD5C985D5910240902404333333333333E3BF0000000000000F9010740A411070040501641D405064090741402480A1B50
1001
ACAD
1000
AcDbSavedByObjectVersion
1070
     0
  0
ACAD_PROXY_OBJECT
  5
2E
102
{ACAD_REACTORS
330
2A
102
}
330
2A
100
AcDbProxyObject
 90
      499
 91
      501
 93
      500
310
4411DBDD5C985D5915DA5D1A115919D95CD0340902404333333333333E3BF0000000000000F9010740901411070040501600405405064090741402480A1B50
1001
ACAD
1000
AcDbSavedByObjectVersion
1070
     0
  0
ACAD_PROXY_OBJECT
  5
38
102
{ACAD_REACTORS
330
2A
102
}
330
2A
100
AcDbProxyObject
 90
      499
 91
      501
 93
      444
310
42D31A5B995C185D1D195C9B90E409028333333333333E3BF0000000000000FB010790141107004050750841D405064090741402483A0350
1001
ACAD
1000
AcDbSavedByObjectVersion
1070
     0
  0
ACAD_PROXY_OBJECT
  5
33
102
{ACAD_REACTORS
330
2A
102
}
330
2A
100
AcDbProxyObject
 90
      499
 91
      501
 93
      420
310
425499585B1A5CDD1A58D08409028333333333333E3BF0000000000000FB01079019070040501508421405064090741402480A1B40
1001
ACAD
1000
AcDbSavedByObjectVersion
1070
     0
  0
ACAD_PROXY_OBJECT
  5
37
102
{ACAD_REACTORS
330
2A
102
}
330
2A
100
AcDbProxyObject
 90
      499
 91
      501
 93
      412
310
41D51A1A58DAD95B90D409028333333333333E3BF0000000000000FB010790141107004050150C41D405064090741402480A0350
1001
ACAD
1000
AcDbSavedByObjectVersion
1070
     0
  0
XRECORD
  5
76
102
{ACAD_REACTORS
330
6D
102
}
330
6D
100
AcDbXrecord
 90
        0
  0
XRECORD
  5
8C
102
{ACAD_REACTORS
330
6D
102
}
330
6D
100
AcDbXrecord
1000
DSTYLE
1002
{
1070
   340
340
11
1002
}
  0
XRECORD
  5
77
102
{ACAD_REACTORS
330
6D
102
}
330
6D
100
AcDbXrecord
  1
{6622D50B-24EF-47FE-A04C-2C8DB6B9F5E1}
  0
XRECORD
  5
70
102
{ACAD_REACTORS
330
6D
102
}
330
6D
100
AcDbXrecord
  1

  0
XRECORD
  5
75
102
{ACAD_REACTORS
330
6D
102
}
330
6D
100
AcDbXrecord
 90
        4
  0
XRECORD
  5
72
102
{ACAD_REACTORS
330
6D
102
}
330
6D
100
AcDbXrecord
340
1A
  0
XRECORD
  5
74
102
{ACAD_REACTORS
330
6D
102
}
330
6D
100
AcDbXrecord
 90
    10781
  0
XRECORD
  5
73
102
{ACAD_REACTORS
330
6D
102
}
330
6D
100
AcDbXrecord
340
19
  0
XRECORD
  5
79
102
{ACAD_REACTORS
330
6D
102
}
330
6D
100
AcDbXrecord
 40
0.0
  0
XRECORD
  5
7C
102
{ACAD_REACTORS
330
6D
102
}
330
6D
100
AcDbXrecord
340
0
  0
XRECORD
  5
82
102
{ACAD_REACTORS
330
6D
102
}
330
6D
100
AcDbXrecord
 10
0.0
 20
0.0
 30
0.0
  0
XRECORD
  5
7E
102
{ACAD_REACTORS
330
6D
102
}
330
6D
100
AcDbXrecord
 10
0.0
 20
0.0
 30
0.0
  0
XRECORD
  5
81
102
{ACAD_REACTORS
330
6D
102
}
330
6D
100
AcDbXrecord
 10
0.0
 20
0.0
 30
0.0
  0
XRECORD
  5
7F
102
{ACAD_REACTORS
330
6D
102
}
330
6D
100
AcDbXrecord
 10
0.0
 20
0.0
 30
0.0
  0
XRECORD
  5
80
102
{ACAD_REACTORS
330
6D
102
}
330
6D
100
AcDbXrecord
 10
0.0
 20
0.0
 30
0.0
  0
XRECORD
  5
7D
102
{ACAD_REACTORS
330
6D
102
}
330
6D
100
AcDbXrecord
 10
0.0
 20
0.0
 30
0.0
  0
XRECORD
  5
7A
102
{ACAD_REACTORS
330
6D
102
}
330
6D
100
AcDbXrecord
340
0
  0
XRECORD
  5
7B
102
{ACAD_REACTORS
330
6D
102
}
330
6D
100
AcDbXrecord
 70
     0
  0
XRECORD
  5
71
102
{ACAD_REACTORS
330
6D
102
}
330
6D
100
AcDbXrecord
  1

  0
XRECORD
  5
6E
102
{ACAD_REACTORS
330
6D
102
}
330
6D
100
AcDbXrecord
 90
        1
  0
XRECORD
  5
6F
102
{ACAD_REACTORS
330
6D
102
}
330
6D
100
AcDbXrecord
 90
       70
  0
XRECORD
  5
85
102
{ACAD_REACTORS
330
6D
102
}
330
6D
100
AcDbXrecord
340
0
  0
XRECORD
  5
8B
102
{ACAD_REACTORS
330
6D
102
}
330
6D
100
AcDbXrecord
 10
0.0
 20
0.0
 30
0.0
  0
XRECORD
  5
87
102
{ACAD_REACTORS
330
6D
102
}
330
6D
100
AcDbXrecord
 10
0.0
 20
0.0
 30
0.0
  0
XRECORD
  5
8A
102
{ACAD_REACTORS
330
6D
102
}
330
6D
100
AcDbXrecord
 10
0.0
 20
0.0
 30
0.0
  0
XRECORD
  5
88
102
{ACAD_REACTORS
330
6D
102
}
330
6D
100
AcDbXrecord
 10
0.0
 20
0.0
 30
0.0
  0
XRECORD
  5
89
102
{ACAD_REACTORS
330
6D
102
}
330
6D
100
AcDbXrecord
 10
0.0
 20
0.0
 30
0.0
  0
XRECORD
  5
86
102
{ACAD_REACTORS
330
6D
102
}
330
6D
100
AcDbXrecord
 10
0.0
 20
0.0
 30
0.0
  0
XRECORD
  5
83
102
{ACAD_REACTORS
330
6D
102
}
330
6D
100
AcDbXrecord
340
0
  0
XRECORD
  5
84
102
{ACAD_REACTORS
330
6D
102
}
330
6D
100
AcDbXrecord
 70
     0
  0
XRECORD
  5
78
102
{ACAD_REACTORS
330
6D
102
}
330
6D
100
AcDbXrecord
  1
{FAEB1C32-E019-11D5-929B-00C0DF256EC4}
  0
DICTIONARYVAR
  5
90
102
{ACAD_REACTORS
330
8D
102
}
330
8D
100
DictionaryVariables
280
     0
  1
2
  0
DICTIONARYVAR
  5
91
102
{ACAD_REACTORS
330
8D
102
}
330
8D
100
DictionaryVariables
280
     0
  1
1
  0
DICTIONARY
  5
94
330
3D
100
AcDbDictionary
280
     1
  3
ACAD_XREC_ROUNDTRIP
360
95
  0
DICTIONARY
  5
92
330
3C
100
AcDbDictionary
280
     1
  3
ACAD_XREC_ROUNDTRIP
360
93
  0
DICTIONARY
  5
96
330
3E
100
AcDbDictionary
280
     1
  3
ACAD_XREC_ROUNDTRIP
360
97
  0
XRECORD
  5
95
102
{ACAD_REACTORS
330
94
102
}
330
94
100
AcDbXrecord
102
MATERIAL
148
0.0
149
0.0
149
0.0
 93
        0
 94
      127
282
     0
 72
     1
 77
     1
171
     1
175
     1
179
     1
273
     0
  0
XRECORD
  5
93
102
{ACAD_REACTORS
330
92
102
}
330
92
100
AcDbXrecord
102
MATERIAL
148
0.0
149
0.0
149
0.0
 93
        0
 94
      127
282
     0
 72
     1
 77
     1
171
     1
175
     1
179
     1
273
     0
  0
XRECORD
  5
97
102
{ACAD_REACTORS
330
96
102
}
330
96
100
AcDbXrecord
102
MATERIAL
148
0.0
149
0.0
149
0.0
 93
        0
 94
      127
282
     0
 72
     1
 77
     1
171
     1
175
     1
179
     1
273
     0
  0
ENDSEC
  0
EOF
