  0
SECTION
  2
HEADER
  9
$ACADVER
  1
AC1014
  9
$ACADMAINTVER
 70
     9
  9
$DWGCODEPAGE
  3
ANSI_1250
  9
$INSBASE
 10
0.0
 20
0.0
 30
0.0
  9
$EXTMIN
 10
-24.2464
 20
-29.4186
 30
0.0
  9
$EXTMAX
 10
24.2463
 20
29.3598
 30
0.0
  9
$LIMMIN
 10
0.0
 20
0.0
  9
$LIMMAX
 10
12.0
 20
9.0
  9
$ORTHOMODE
 70
     0
  9
$REGENMODE
 70
     1
  9
$FILLMODE
 70
     1
  9
$QTEXTMODE
 70
     0
  9
$MIRRTEXT
 70
     1
  9
$DRAGMODE
 70
     2
  9
$LTSCALE
 40
1.0
  9
$OSMODE
 70
    37
  9
$ATTMODE
 70
     1
  9
$TEXTSIZE
 40
0.2
  9
$TRACEWID
 40
0.05
  9
$TEXTSTYLE
  7
STANDARD
  9
$CLAYER
  8
0
  9
$CELTYPE
  6
BYLAYER
  9
$CECOLOR
 62
   256
  9
$CELTSCALE
 40
1.0
  9
$DELOBJ
 70
     1
  9
$DISPSILH
 70
     0
  9
$DIMSCALE
 40
1.0
  9
$DIMASZ
 40
0.18
  9
$DIMEXO
 40
0.0625
  9
$DIMDLI
 40
0.38
  9
$DIMRND
 40
0.0
  9
$DIMDLE
 40
0.0
  9
$DIMEXE
 40
0.18
  9
$DIMTP
 40
0.0
  9
$DIMTM
 40
0.0
  9
$DIMTXT
 40
0.18
  9
$DIMCEN
 40
0.09
  9
$DIMTSZ
 40
0.0
  9
$DIMTOL
 70
     0
  9
$DIMLIM
 70
     0
  9
$DIMTIH
 70
     1
  9
$DIMTOH
 70
     1
  9
$DIMSE1
 70
     0
  9
$DIMSE2
 70
     0
  9
$DIMTAD
 70
     0
  9
$DIMZIN
 70
     0
  9
$DIMBLK
  1

  9
$DIMASO
 70
     1
  9
$DIMSHO
 70
     1
  9
$DIMPOST
  1

  9
$DIMAPOST
  1

  9
$DIMALT
 70
     0
  9
$DIMALTD
 70
     2
  9
$DIMALTF
 40
25.4
  9
$DIMLFAC
 40
1.0
  9
$DIMTOFL
 70
     0
  9
$DIMTVP
 40
0.0
  9
$DIMTIX
 70
     0
  9
$DIMSOXD
 70
     0
  9
$DIMSAH
 70
     0
  9
$DIMBLK1
  1

  9
$DIMBLK2
  1

  9
$DIMSTYLE
  2
STANDARD
  9
$DIMCLRD
 70
     0
  9
$DIMCLRE
 70
     0
  9
$DIMCLRT
 70
     0
  9
$DIMTFAC
 40
1.0
  9
$DIMGAP
 40
0.09
  9
$DIMJUST
 70
     0
  9
$DIMSD1
 70
     0
  9
$DIMSD2
 70
     0
  9
$DIMTOLJ
 70
     1
  9
$DIMTZIN
 70
     0
  9
$DIMALTZ
 70
     0
  9
$DIMALTTZ
 70
     0
  9
$DIMFIT
 70
     3
  9
$DIMUPT
 70
     0
  9
$DIMUNIT
 70
     2
  9
$DIMDEC
 70
     4
  9
$DIMTDEC
 70
     4
  9
$DIMALTU
 70
     2
  9
$DIMALTTD
 70
     2
  9
$DIMTXSTY
  7
STANDARD
  9
$DIMAUNIT
 70
     0
  9
$LUNITS
 70
     2
  9
$LUPREC
 70
     4
  9
$SKETCHINC
 40
0.1
  9
$FILLETRAD
 40
0.5
  9
$AUNITS
 70
     0
  9
$AUPREC
 70
     0
  9
$MENU
  1
.
  9
$ELEVATION
 40
0.0
  9
$PELEVATION
 40
0.0
  9
$THICKNESS
 40
0.0
  9
$LIMCHECK
 70
     0
  9
$CHAMFERA
 40
0.5
  9
$CHAMFERB
 40
0.5
  9
$CHAMFERC
 40
1.0
  9
$CHAMFERD
 40
0.0
  9
$SKPOLY
 70
     0
  9
$TDCREATE
 40
2456268.578282373
  9
$TDUPDATE
 40
2456268.578282384
  9
$TDINDWG
 40
0.0000000116
  9
$TDUSRTIMER
 40
0.0000000116
  9
$USRTIMER
 70
     1
  9
$ANGBASE
 50
0.0
  9
$ANGDIR
 70
     0
  9
$PDMODE
 70
     0
  9
$PDSIZE
 40
0.0
  9
$PLINEWID
 40
0.0
  9
$COORDS
 70
     1
  9
$SPLFRAME
 70
     0
  9
$SPLINETYPE
 70
     6
  9
$SPLINESEGS
 70
     8
  9
$ATTDIA
 70
     0
  9
$ATTREQ
 70
     1
  9
$HANDLING
 70
     1
  9
$HANDSEED
  5
181
  9
$SURFTAB1
 70
     6
  9
$SURFTAB2
 70
     6
  9
$SURFTYPE
 70
     6
  9
$SURFU
 70
     6
  9
$SURFV
 70
     6
  9
$UCSNAME
  2

  9
$UCSORG
 10
0.0
 20
0.0
 30
0.0
  9
$UCSXDIR
 10
1.0
 20
0.0
 30
0.0
  9
$UCSYDIR
 10
0.0
 20
1.0
 30
0.0
  9
$PUCSNAME
  2

  9
$PUCSORG
 10
0.0
 20
0.0
 30
0.0
  9
$PUCSXDIR
 10
1.0
 20
0.0
 30
0.0
  9
$PUCSYDIR
 10
0.0
 20
1.0
 30
0.0
  9
$USERI1
 70
     0
  9
$USERI2
 70
     0
  9
$USERI3
 70
     0
  9
$USERI4
 70
     0
  9
$USERI5
 70
     0
  9
$USERR1
 40
0.0
  9
$USERR2
 40
0.0
  9
$USERR3
 40
0.0
  9
$USERR4
 40
0.0
  9
$USERR5
 40
0.0
  9
$WORLDVIEW
 70
     1
  9
$SHADEDGE
 70
     3
  9
$SHADEDIF
 70
    70
  9
$TILEMODE
 70
     1
  9
$MAXACTVP
 70
    64
  9
$PINSBASE
 10
0.0
 20
0.0
 30
0.0
  9
$PLIMCHECK
 70
     0
  9
$PEXTMIN
 10
1.000000000000000E+20
 20
1.000000000000000E+20
 30
1.000000000000000E+20
  9
$PEXTMAX
 10
-1.000000000000000E+20
 20
-1.000000000000000E+20
 30
-1.000000000000000E+20
  9
$PLIMMIN
 10
0.0
 20
0.0
  9
$PLIMMAX
 10
12.0
 20
9.0
  9
$UNITMODE
 70
     0
  9
$VISRETAIN
 70
     1
  9
$PLINEGEN
 70
     0
  9
$PSLTSCALE
 70
     1
  9
$TREEDEPTH
 70
  3020
  9
$PICKSTYLE
 70
     1
  9
$CMLSTYLE
  2
STANDARD
  9
$CMLJUST
 70
     0
  9
$CMLSCALE
 40
1.0
  9
$PROXYGRAPHICS
 70
     1
  9
$MEASUREMENT
 70
     0
  0
ENDSEC
  0
SECTION
  2
CLASSES
  0
CLASS
  1
ACDBDICTIONARYWDFLT
  2
AcDbDictionaryWithDefault
  3
ObjectDBX Classes
 90
        0
280
     0
281
     0
  0
CLASS
  1
VISUALSTYLE
  2
AcDbVisualStyle
  3
ObjectDBX Classes
 90
     4095
280
     0
281
     0
  0
CLASS
  1
MATERIAL
  2
AcDbMaterial
  3
ObjectDBX Classes
 90
     1153
280
     0
281
     0
  0
CLASS
  1
DICTIONARYVAR
  2
AcDbDictionaryVar
  3
ObjectDBX Classes
 90
        0
280
     0
281
     0
  0
CLASS
  1
XRECORD
  2
AcDbXrecord
  3
AutoCAD 2000
 90
        0
280
     0
281
     0
  0
CLASS
  1
LWPOLYLINE
  2
AcDbPolyline
  3
AutoCAD 2000
 90
        0
280
     0
281
     1
  0
CLASS
  1
HATCH
  2
AcDbHatch
  3
AutoCAD 2000
 90
        0
280
     0
281
     1
  0
CLASS
  1
ACDBPLACEHOLDER
  2
AcDbPlaceHolder
  3
ObjectDBX Classes
 90
        0
280
     0
281
     0
  0
CLASS
  1
LAYOUT
  2
AcDbLayout
  3
ObjectDBX Classes
 90
        0
280
     0
281
     0
  0
ENDSEC
  0
SECTION
  2
TABLES
  0
TABLE
  2
VPORT
  5
8
330
0
100
AcDbSymbolTable
 70
     1
  0
VPORT
  5
29
330
8
100
AcDbSymbolTableRecord
100
AcDbViewportTableRecord
  2
*ACTIVE
 70
     0
 10
0.0
 20
0.0
 11
1.0
 21
1.0
 12
10.42990654205607
 22
4.5
 13
0.0
 23
0.0
 14
0.5
 24
0.5
 15
0.5
 25
0.5
 16
0.0
 26
0.0
 36
1.0
 17
0.0
 27
0.0
 37
0.0
 40
9.0
 41
1.972972972850329
 42
50.0
 43
0.0
 44
0.0
 50
0.0
 51
0.0
 71
     0
 72
   100
 73
     1
 74
     3
 75
     0
 76
     0
 77
     0
 78
     0
  0
ENDTAB
  0
TABLE
  2
LTYPE
  5
5
330
0
100
AcDbSymbolTable
 70
     4
  0
LTYPE
  5
14
330
5
100
AcDbSymbolTableRecord
100
AcDbLinetypeTableRecord
  2
BYBLOCK
 70
     0
  3

 72
    65
 73
     0
 40
0.0
  0
LTYPE
  5
15
330
5
100
AcDbSymbolTableRecord
100
AcDbLinetypeTableRecord
  2
BYLAYER
 70
     0
  3

 72
    65
 73
     0
 40
0.0
  0
LTYPE
  5
16
330
5
100
AcDbSymbolTableRecord
100
AcDbLinetypeTableRecord
  2
CONTINUOUS
 70
     0
  3
Solid line
 72
    65
 73
     0
 40
0.0
  0
LTYPE
  5
49
330
5
100
AcDbSymbolTableRecord
100
AcDbLinetypeTableRecord
  2
NEW_LINE1
 70
     0
  3

 72
    65
 73
     4
 40
1.2
 49
0.5
 74
     4
 75
     0
340
0
 46
1.0
 50
0.0
 44
0.0
 45
0.0
 49
-0.3
 74
     4
 75
     0
340
0
 46
1.0
 50
0.0
 44
0.0
 45
0.0
 49
0.1
 74
     4
 75
     0
340
0
 46
1.0
 50
0.0
 44
0.0
 45
0.0
 49
-0.3
 74
     4
 75
     0
340
0
 46
1.0
 50
0.0
 44
0.0
 45
0.0
  0
LTYPE
  5
135
330
5
100
AcDbSymbolTableRecord
100
AcDbLinetypeTableRecord
  2
NEW_LINE2
 70
     0
  3

 72
    65
 73
     4
 40
1.2
 49
0.5
 74
     4
 75
     0
340
0
 46
1.0
 50
0.0
 44
0.0
 45
0.0
 49
-0.3
 74
     4
 75
     0
340
0
 46
1.0
 50
0.0
 44
0.0
 45
0.0
 49
0.1
 74
     4
 75
     0
340
0
 46
1.0
 50
0.0
 44
0.0
 45
0.0
 49
-0.3
 74
     4
 75
     0
340
0
 46
1.0
 50
0.0
 44
0.0
 45
0.0
  0
LTYPE
  5
137
330
5
100
AcDbSymbolTableRecord
100
AcDbLinetypeTableRecord
  2
NEW_LINE3
 70
     0
  3

 72
    65
 73
     4
 40
1.2
 49
0.5
 74
     4
 75
     0
340
0
 46
1.0
 50
0.0
 44
0.0
 45
0.0
 49
-0.3
 74
     4
 75
     0
340
0
 46
1.0
 50
0.0
 44
0.0
 45
0.0
 49
0.1
 74
     4
 75
     0
340
0
 46
1.0
 50
0.0
 44
0.0
 45
0.0
 49
-0.3
 74
     4
 75
     0
340
0
 46
1.0
 50
0.0
 44
0.0
 45
0.0
  0
ENDTAB
  0
TABLE
  2
LAYER
  5
2
330
0
100
AcDbSymbolTable
 70
     2
  0
LAYER
  5
10
330
2
100
AcDbSymbolTableRecord
100
AcDbLayerTableRecord
  2
0
 70
     0
 62
     7
  6
CONTINUOUS
  0
LAYER
  5
40
330
2
100
AcDbSymbolTableRecord
100
AcDbLayerTableRecord
  2
DEFAULT_1
 70
     0
 62
     7
  6
CONTINUOUS
  0
ENDTAB
  0
TABLE
  2
STYLE
  5
3
330
0
100
AcDbSymbolTable
 70
     1
  0
STYLE
  5
11
330
3
100
AcDbSymbolTableRecord
100
AcDbTextStyleTableRecord
  2
STANDARD
 70
     0
 40
0.0
 41
1.0
 50
0.0
 71
     0
 42
0.2
  3
txt
  4

  0
ENDTAB
  0
TABLE
  2
VIEW
  5
6
330
0
100
AcDbSymbolTable
 70
     0
  0
ENDTAB
  0
TABLE
  2
UCS
  5
7
330
0
100
AcDbSymbolTable
 70
     0
  0
ENDTAB
  0
TABLE
  2
APPID
  5
9
330
0
100
AcDbSymbolTable
 70
     2
  0
APPID
  5
12
330
9
100
AcDbSymbolTableRecord
100
AcDbRegAppTableRecord
  2
ACAD
 70
     0
  0
APPID
  5
3F
330
9
100
AcDbSymbolTableRecord
100
AcDbRegAppTableRecord
  2
ODA
 70
     0
  0
ENDTAB
  0
TABLE
  2
DIMSTYLE
  5
A
330
0
100
AcDbSymbolTable
 70
     1
  0
DIMSTYLE
105
27
330
A
100
AcDbSymbolTableRecord
100
AcDbDimStyleTableRecord
  2
STANDARD
 70
     0
  3

  4

  5

  6

  7

 40
1.0
 41
0.18
 42
0.0625
 43
0.38
 44
0.18
 45
0.0
 46
0.0
 47
0.0
 48
0.0
140
0.18
141
0.09
142
0.0
143
25.4
144
1.0
145
0.0
146
1.0
147
0.09
 71
     0
 72
     0
 73
     1
 74
     1
 75
     0
 76
     0
 77
     0
 78
     0
170
     0
171
     2
172
     0
173
     0
174
     0
175
     0
176
     0
177
     0
178
     0
270
     2
271
     4
272
     4
273
     2
274
     2
340
11
275
     0
280
     0
281
     0
282
     0
283
     1
284
     0
285
     0
286
     0
287
     3
288
     0
  0
ENDTAB
  0
TABLE
  2
BLOCK_RECORD
  5
1
330
0
100
AcDbSymbolTable
 70
     1
  0
BLOCK_RECORD
  5
1F
330
1
100
AcDbSymbolTableRecord
100
AcDbBlockTableRecord
  2
*MODEL_SPACE
  0
BLOCK_RECORD
  5
1B
330
1
100
AcDbSymbolTableRecord
100
AcDbBlockTableRecord
  2
*PAPER_SPACE
  0
ENDTAB
  0
ENDSEC
  0
SECTION
  2
BLOCKS
  0
BLOCK
  5
20
330
1F
100
AcDbEntity
  8
0
100
AcDbBlockBegin
  2
*MODEL_SPACE
 70
     0
 10
0.0
 20
0.0
 30
0.0
  3
*MODEL_SPACE
  1

  0
ENDBLK
  5
21
330
1F
100
AcDbEntity
  8
0
100
AcDbBlockEnd
  0
BLOCK
  5
1C
330
1B
100
AcDbEntity
 67
     1
  8
0
100
AcDbBlockBegin
  2
*PAPER_SPACE
 70
     0
 10
0.0
 20
0.0
 30
0.0
  3
*PAPER_SPACE
  1

  0
ENDBLK
  5
1D
330
1B
100
AcDbEntity
 67
     1
  8
0
100
AcDbBlockEnd
  0
ENDSEC
  0
SECTION
  2
ENTITIES
  0
SPLINE
  5
41
330
1F
100
AcDbEntity
  8
DEFAULT_1
 62
   250
100
AcDbSpline
210
0.0
220
0.0
230
1.0
 70
    24
 71
     3
 72
     8
 73
     4
 74
     0
 42
0.0000000001
 43
0.0000000001
 40
0.0
 40
0.0
 40
0.0
 40
0.0
 40
1.0
 40
1.0
 40
1.0
 40
1.0
 10
-14.1751
 20
6.8818
 30
0.0
 10
-14.1751
 20
6.8818
 30
0.0
 10
-20.6835
 20
6.8818
 30
0.0
 10
-20.6835
 20
6.8818
 30
0.0
  0
SPLINE
  5
42
330
1F
100
AcDbEntity
  8
DEFAULT_1
 62
   250
100
AcDbSpline
210
0.0
220
0.0
230
1.0
 70
    24
 71
     3
 72
     8
 73
     4
 74
     0
 42
0.0000000001
 43
0.0000000001
 40
0.0
 40
0.0
 40
0.0
 40
0.0
 40
1.0
 40
1.0
 40
1.0
 40
1.0
 10
-14.4337
 20
24.4496
 30
0.0
 10
-14.4337
 20
24.4496
 30
0.0
 10
-16.7065
 20
24.4496
 30
0.0
 10
-16.7065
 20
24.4496
 30
0.0
  0
SPLINE
  5
43
330
1F
100
AcDbEntity
  8
DEFAULT_1
 62
   250
100
AcDbSpline
210
0.0
220
0.0
230
1.0
 70
    24
 71
     3
 72
     8
 73
     4
 74
     0
 42
0.0000000001
 43
0.0000000001
 40
0.0
 40
0.0
 40
0.0
 40
0.0
 40
1.0
 40
1.0
 40
1.0
 40
1.0
 10
-16.2389
 20
29.3598
 30
0.0
 10
-16.2389
 20
29.3598
 30
0.0
 10
-16.2389
 20
21.0916
 30
0.0
 10
-16.2389
 20
21.0916
 30
0.0
  0
SPLINE
  5
44
330
1F
100
AcDbEntity
  8
DEFAULT_1
 62
   250
100
AcDbSpline
210
0.0
220
0.0
230
1.0
 70
    24
 71
     3
 72
     8
 73
     4
 74
     0
 42
0.0000000001
 43
0.0000000001
 40
0.0
 40
0.0
 40
0.0
 40
0.0
 40
1.0
 40
1.0
 40
1.0
 40
1.0
 10
-13.2587
 20
2.0481
 30
0.0
 10
-13.2587
 20
2.0481
 30
0.0
 10
-13.2587
 20
6.5865
 30
0.0
 10
-13.2587
 20
6.5865
 30
0.0
  0
SPLINE
  5
45
330
1F
100
AcDbEntity
  8
DEFAULT_1
 62
   250
100
AcDbSpline
210
0.0
220
0.0
230
1.0
 70
    24
 71
     3
 72
     8
 73
     4
 74
     0
 42
0.0000000001
 43
0.0000000001
 40
0.0
 40
0.0
 40
0.0
 40
0.0
 40
1.0
 40
1.0
 40
1.0
 40
1.0
 10
19.2901
 20
2.3855
 30
0.0
 10
19.2901
 20
2.3855
 30
0.0
 10
19.2901
 20
7.0036
 30
0.0
 10
19.2901
 20
7.0036
 30
0.0
  0
SPLINE
  5
46
330
1F
100
AcDbEntity
  8
DEFAULT_1
 62
   250
100
AcDbSpline
210
0.0
220
0.0
230
1.0
 70
    24
 71
     3
 72
     8
 73
     4
 74
     0
 42
0.0000000001
 43
0.0000000001
 40
0.0
 40
0.0
 40
0.0
 40
0.0
 40
1.0
 40
1.0
 40
1.0
 40
1.0
 10
18.8434
 20
2.6264
 30
0.0
 10
18.8434
 20
2.6264
 30
0.0
 10
-12.5536
 20
2.6264
 30
0.0
 10
-12.5536
 20
2.6264
 30
0.0
  0
SPLINE
  5
47
330
1F
100
AcDbEntity
  8
DEFAULT_1
 62
   250
100
AcDbSpline
210
0.0
220
0.0
230
1.0
 70
    24
 71
     3
 72
     8
 73
     4
 74
     0
 42
0.0000000001
 43
0.0000000001
 40
0.0
 40
0.0
 40
0.0
 40
0.0
 40
1.0
 40
1.0
 40
1.0
 40
1.0
 10
-13.0247
 20
26.2071
 30
0.0
 10
-13.0247
 20
26.2071
 30
0.0
 10
-20.8614
 20
26.2071
 30
0.0
 10
-20.8614
 20
26.2071
 30
0.0
  0
SPLINE
  5
48
330
1F
100
AcDbEntity
  8
DEFAULT_1
  6
NEW_LINE1
 62
   250
100
AcDbSpline
210
0.0
220
0.0
230
1.0
 70
    24
 71
     3
 72
     8
 73
     4
 74
     0
 42
0.0000000001
 43
0.0000000001
 40
0.0
 40
0.0
 40
0.0
 40
0.0
 40
1.0
 40
1.0
 40
1.0
 40
1.0
 10
3.0664
 20
6.0724
 30
0.0
 10
3.0664
 20
6.0724
 30
0.0
 10
3.0664
 20
28.3418
 30
0.0
 10
3.0664
 20
28.3418
 30
0.0
  0
SPLINE
  5
4A
330
1F
100
AcDbEntity
  8
DEFAULT_1
 62
   250
100
AcDbSpline
210
0.0
220
0.0
230
1.0
 70
    11
 71
     3
 72
    92
 73
    88
 74
     0
 42
0.0000000001
 43
0.0000000001
 40
0.0
 40
0.0
 40
0.0
 40
0.0
 40
0.0434782608695652
 40
0.0434782608695652
 40
0.0434782608695652
 40
0.0434782608695652
 40
0.0869565217391304
 40
0.0869565217391304
 40
0.0869565217391304
 40
0.0869565217391304
 40
0.1304347826086956
 40
0.1304347826086956
 40
0.1304347826086956
 40
0.1304347826086956
 40
0.1739130434782609
 40
0.1739130434782609
 40
0.1739130434782609
 40
0.1739130434782609
 40
0.2173913043478261
 40
0.2173913043478261
 40
0.2173913043478261
 40
0.2173913043478261
 40
0.2608695652173913
 40
0.2608695652173913
 40
0.2608695652173913
 40
0.2608695652173913
 40
0.3043478260869565
 40
0.3043478260869565
 40
0.3043478260869565
 40
0.3043478260869565
 40
0.3478260869565217
 40
0.3478260869565217
 40
0.3478260869565217
 40
0.3478260869565217
 40
0.391304347826087
 40
0.391304347826087
 40
0.391304347826087
 40
0.391304347826087
 40
0.4347826086956522
 40
0.4347826086956522
 40
0.4347826086956522
 40
0.4347826086956522
 40
0.4782608695652174
 40
0.4782608695652174
 40
0.4782608695652174
 40
0.4782608695652174
 40
0.5217391304347826
 40
0.5217391304347826
 40
0.5217391304347826
 40
0.5217391304347826
 40
0.5652173913043478
 40
0.5652173913043478
 40
0.5652173913043478
 40
0.5652173913043478
 40
0.6086956521739131
 40
0.6086956521739131
 40
0.6086956521739131
 40
0.6086956521739131
 40
0.6521739130434783
 40
0.6521739130434783
 40
0.6521739130434783
 40
0.6521739130434783
 40
0.6956521739130435
 40
0.6956521739130435
 40
0.6956521739130435
 40
0.6956521739130435
 40
0.7391304347826086
 40
0.7391304347826086
 40
0.7391304347826086
 40
0.7391304347826086
 40
0.782608695652174
 40
0.782608695652174
 40
0.782608695652174
 40
0.782608695652174
 40
0.8260869565217391
 40
0.8260869565217391
 40
0.8260869565217391
 40
0.8260869565217391
 40
0.8695652173913043
 40
0.8695652173913043
 40
0.8695652173913043
 40
0.8695652173913043
 40
0.9130434782608695
 40
0.9130434782608695
 40
0.9130434782608695
 40
0.9130434782608695
 40
1.0
 40
1.0
 40
1.0
 40
1.0
 10
-17.5444
 20
24.1378
 30
0.0
 10
-17.5444
 20
24.1378
 30
0.0
 10
-17.5665
 20
24.3984
 30
0.0
 10
-17.5665
 20
24.3984
 30
0.0
 10
-17.5665
 20
24.3984
 30
0.0
 10
-17.4395
 20
24.4177
 30
0.0
 10
-17.3445
 20
24.4624
 30
0.0
 10
-17.2805
 20
24.5325
 30
0.0
 10
-17.2805
 20
24.5325
 30
0.0
 10
-17.2165
 20
24.603
 30
0.0
 10
-17.1845
 20
24.6877
 30
0.0
 10
-17.1845
 20
24.7869
 30
0.0
 10
-17.1845
 20
24.7869
 30
0.0
 10
-17.1845
 20
24.9064
 30
0.0
 10
-17.2297
 20
25.0075
 30
0.0
 10
-17.3195
 20
25.0898
 30
0.0
 10
-17.3195
 20
25.0898
 30
0.0
 10
-17.4098
 20
25.1726
 30
0.0
 10
-17.5293
 20
25.214
 30
0.0
 10
-17.6779
 20
25.214
 30
0.0
 10
-17.6779
 20
25.214
 30
0.0
 10
-17.8195
 20
25.214
 30
0.0
 10
-17.931
 20
25.1745
 30
0.0
 10
-18.0128
 20
25.095
 30
0.0
 10
-18.0128
 20
25.095
 30
0.0
 10
-18.0947
 20
25.0155
 30
0.0
 10
-18.1356
 20
24.9116
 30
0.0
 10
-18.1356
 20
24.7827
 30
0.0
 10
-18.1356
 20
24.7827
 30
0.0
 10
-18.1356
 20
24.7027
 30
0.0
 10
-18.1173
 20
24.6308
 30
0.0
 10
-18.0811
 20
24.5663
 30
0.0
 10
-18.0811
 20
24.5663
 30
0.0
 10
-18.0448
 20
24.5019
 30
0.0
 10
-17.9978
 20
24.4516
 30
0.0
 10
-17.9399
 20
24.4149
 30
0.0
 10
-17.9399
 20
24.4149
 30
0.0
 10
-17.9399
 20
24.4149
 30
0.0
 10
-17.97
 20
24.182
 30
0.0
 10
-17.97
 20
24.182
 30
0.0
 10
-17.97
 20
24.182
 30
0.0
 10
-17.97
 20
24.182
 30
0.0
 10
-19.0077
 20
24.3777
 30
0.0
 10
-19.0077
 20
24.3777
 30
0.0
 10
-19.0077
 20
24.3777
 30
0.0
 10
-19.0077
 20
24.3777
 30
0.0
 10
-19.0077
 20
25.3824
 30
0.0
 10
-19.0077
 20
25.3824
 30
0.0
 10
-19.0077
 20
25.3824
 30
0.0
 10
-19.0077
 20
25.3824
 30
0.0
 10
-18.7706
 20
25.3824
 30
0.0
 10
-18.7706
 20
25.3824
 30
0.0
 10
-18.7706
 20
25.3824
 30
0.0
 10
-18.7706
 20
25.3824
 30
0.0
 10
-18.7706
 20
24.5762
 30
0.0
 10
-18.7706
 20
24.5762
 30
0.0
 10
-18.7706
 20
24.5762
 30
0.0
 10
-18.7706
 20
24.5762
 30
0.0
 10
-18.2278
 20
24.4671
 30
0.0
 10
-18.2278
 20
24.4671
 30
0.0
 10
-18.2278
 20
24.4671
 30
0.0
 10
-18.3125
 20
24.5884
 30
0.0
 10
-18.3548
 20
24.7159
 30
0.0
 10
-18.3548
 20
24.849
 30
0.0
 10
-18.3548
 20
24.849
 30
0.0
 10
-18.3548
 20
25.0254
 30
0.0
 10
-18.2937
 20
25.174
 30
0.0
 10
-18.1714
 20
25.2954
 30
0.0
 10
-18.1714
 20
25.2954
 30
0.0
 10
-18.0491
 20
25.4167
 30
0.0
 10
-17.892
 20
25.4774
 30
0.0
 10
-17.7001
 20
25.4774
 30
0.0
 10
-17.7001
 20
25.4774
 30
0.0
 10
-17.5171
 20
25.4774
 30
0.0
 10
-17.359
 20
25.4238
 30
0.0
 10
-17.2259
 20
25.3175
 30
0.0
 10
-17.2259
 20
25.3175
 30
0.0
 10
-17.0627
 20
25.1877
 30
0.0
 10
-16.9809
 20
25.0108
 30
0.0
 10
-16.9809
 20
24.7869
 30
0.0
 10
-16.9809
 20
24.7869
 30
0.0
 10
-16.9809
 20
24.603
 30
0.0
 10
-17.0321
 20
24.453
 30
0.0
 10
-17.1351
 20
24.3368
 30
0.0
 10
-17.1351
 20
24.3368
 30
0.0
 10
-17.2382
 20
24.2206
 30
0.0
 10
-17.3746
 20
24.1543
 30
0.0
 10
-17.5444
 20
24.1378
 30
0.0
  0
SPLINE
  5
4B
330
1F
100
AcDbEntity
  8
DEFAULT_1
 62
   250
100
AcDbSpline
210
0.0
220
0.0
230
1.0
 70
    11
 71
     3
 72
    20
 73
    16
 74
     0
 42
0.0000000001
 43
0.0000000001
 40
0.0
 40
0.0
 40
0.0
 40
0.0
 40
0.2
 40
0.2
 40
0.2
 40
0.2
 40
0.4
 40
0.4
 40
0.4
 40
0.4
 40
0.6
 40
0.6
 40
0.6
 40
0.6
 40
1.0
 40
1.0
 40
1.0
 40
1.0
 10
-16.6462
 20
21.8946
 30
0.0
 10
-16.6462
 20
21.8946
 30
0.0
 10
-16.2933
 20
24.3946
 30
0.0
 10
-16.2933
 20
24.3946
 30
0.0
 10
-16.2933
 20
24.3946
 30
0.0
 10
-16.2933
 20
24.3946
 30
0.0
 10
-16.215
 20
24.3946
 30
0.0
 10
-16.215
 20
24.3946
 30
0.0
 10
-16.215
 20
24.3946
 30
0.0
 10
-16.215
 20
24.3946
 30
0.0
 10
-15.8387
 20
21.8946
 30
0.0
 10
-15.8387
 20
21.8946
 30
0.0
 10
-15.8387
 20
21.8946
 30
0.0
 10
-15.8387
 20
21.8946
 30
0.0
 10
-16.6462
 20
21.8946
 30
0.0
 10
-16.6462
 20
21.8946
 30
0.0
  0
SPLINE
  5
4C
330
1F
100
AcDbEntity
  8
DEFAULT_1
 62
   250
100
AcDbSpline
210
0.0
220
0.0
230
1.0
 70
    11
 71
     3
 72
    20
 73
    16
 74
     0
 42
0.0000000001
 43
0.0000000001
 40
0.0
 40
0.0
 40
0.0
 40
0.0
 40
0.2
 40
0.2
 40
0.2
 40
0.2
 40
0.4
 40
0.4
 40
0.4
 40
0.4
 40
0.6
 40
0.6
 40
0.6
 40
0.6
 40
1.0
 40
1.0
 40
1.0
 40
1.0
 10
-15.8662
 20
28.7548
 30
0.0
 10
-15.8662
 20
28.7548
 30
0.0
 10
-16.2191
 20
26.2548
 30
0.0
 10
-16.2191
 20
26.2548
 30
0.0
 10
-16.2191
 20
26.2548
 30
0.0
 10
-16.2191
 20
26.2548
 30
0.0
 10
-16.2974
 20
26.2548
 30
0.0
 10
-16.2974
 20
26.2548
 30
0.0
 10
-16.2974
 20
26.2548
 30
0.0
 10
-16.2974
 20
26.2548
 30
0.0
 10
-16.6737
 20
28.7548
 30
0.0
 10
-16.6737
 20
28.7548
 30
0.0
 10
-16.6737
 20
28.7548
 30
0.0
 10
-16.6737
 20
28.7548
 30
0.0
 10
-15.8662
 20
28.7548
 30
0.0
 10
-15.8662
 20
28.7548
 30
0.0
  0
SPLINE
  5
4D
330
1F
100
AcDbEntity
  8
DEFAULT_1
 62
   250
100
AcDbSpline
210
0.0
220
0.0
230
1.0
 70
    11
 71
     3
 72
    44
 73
    40
 74
     0
 42
0.0000000001
 43
0.0000000001
 40
0.0
 40
0.0
 40
0.0
 40
0.0
 40
0.0909090909090909
 40
0.0909090909090909
 40
0.0909090909090909
 40
0.0909090909090909
 40
0.1818181818181818
 40
0.1818181818181818
 40
0.1818181818181818
 40
0.1818181818181818
 40
0.2727272727272727
 40
0.2727272727272727
 40
0.2727272727272727
 40
0.2727272727272727
 40
0.3636363636363636
 40
0.3636363636363636
 40
0.3636363636363636
 40
0.3636363636363636
 40
0.4545454545454545
 40
0.4545454545454545
 40
0.4545454545454545
 40
0.4545454545454545
 40
0.5454545454545454
 40
0.5454545454545454
 40
0.5454545454545454
 40
0.5454545454545454
 40
0.6363636363636364
 40
0.6363636363636364
 40
0.6363636363636364
 40
0.6363636363636364
 40
0.7272727272727273
 40
0.7272727272727273
 40
0.7272727272727273
 40
0.7272727272727273
 40
0.8181818181818182
 40
0.8181818181818182
 40
0.8181818181818182
 40
0.8181818181818182
 40
1.0
 40
1.0
 40
1.0
 40
1.0
 10
-0.1925
 20
2.9493
 30
0.0
 10
-0.3294
 20
3.122
 30
0.0
 10
-0.4451
 20
3.3242
 30
0.0
 10
-0.5396
 20
3.5556
 30
0.0
 10
-0.5396
 20
3.5556
 30
0.0
 10
-0.6341
 20
3.7875
 30
0.0
 10
-0.6817
 20
4.0269
 30
0.0
 10
-0.6817
 20
4.2753
 30
0.0
 10
-0.6817
 20
4.2753
 30
0.0
 10
-0.6817
 20
4.494
 30
0.0
 10
-0.6464
 20
4.7033
 30
0.0
 10
-0.5754
 20
4.9037
 30
0.0
 10
-0.5754
 20
4.9037
 30
0.0
 10
-0.4926
 20
5.1361
 30
0.0
 10
-0.3651
 20
5.3675
 30
0.0
 10
-0.1925
 20
5.598
 30
0.0
 10
-0.1925
 20
5.598
 30
0.0
 10
-0.1925
 20
5.598
 30
0.0
 10
-0.0147
 20
5.598
 30
0.0
 10
-0.0147
 20
5.598
 30
0.0
 10
-0.0147
 20
5.598
 30
0.0
 10
-0.1257
 20
5.407
 30
0.0
 10
-0.1991
 20
5.2706
 30
0.0
 10
-0.2348
 20
5.1887
 30
0.0
 10
-0.2348
 20
5.1887
 30
0.0
 10
-0.2913
 20
5.0622
 30
0.0
 10
-0.335
 20
4.9296
 30
0.0
 10
-0.3675
 20
4.7918
 30
0.0
 10
-0.3675
 20
4.7918
 30
0.0
 10
-0.407
 20
4.6201
 30
0.0
 10
-0.4267
 20
4.4474
 30
0.0
 10
-0.4267
 20
4.2739
 30
0.0
 10
-0.4267
 20
4.2739
 30
0.0
 10
-0.4267
 20
3.8317
 30
0.0
 10
-0.2894
 20
3.3905
 30
0.0
 10
-0.0147
 20
2.9493
 30
0.0
 10
-0.0147
 20
2.9493
 30
0.0
 10
-0.0147
 20
2.9493
 30
0.0
 10
-0.1925
 20
2.9493
 30
0.0
 10
-0.1925
 20
2.9493
 30
0.0
  0
SPLINE
  5
4E
330
1F
100
AcDbEntity
  8
DEFAULT_1
 62
   250
100
AcDbSpline
210
0.0
220
0.0
230
1.0
 70
    11
 71
     3
 72
    84
 73
    80
 74
     0
 42
0.0000000001
 43
0.0000000001
 40
0.0
 40
0.0
 40
0.0
 40
0.0
 40
0.0476190476190476
 40
0.0476190476190476
 40
0.0476190476190476
 40
0.0476190476190476
 40
0.0952380952380952
 40
0.0952380952380952
 40
0.0952380952380952
 40
0.0952380952380952
 40
0.1428571428571428
 40
0.1428571428571428
 40
0.1428571428571428
 40
0.1428571428571428
 40
0.1904761904761905
 40
0.1904761904761905
 40
0.1904761904761905
 40
0.1904761904761905
 40
0.2380952380952381
 40
0.2380952380952381
 40
0.2380952380952381
 40
0.2380952380952381
 40
0.2857142857142857
 40
0.2857142857142857
 40
0.2857142857142857
 40
0.2857142857142857
 40
0.3333333333333333
 40
0.3333333333333333
 40
0.3333333333333333
 40
0.3333333333333333
 40
0.3809523809523809
 40
0.3809523809523809
 40
0.3809523809523809
 40
0.3809523809523809
 40
0.4285714285714285
 40
0.4285714285714285
 40
0.4285714285714285
 40
0.4285714285714285
 40
0.4761904761904762
 40
0.4761904761904762
 40
0.4761904761904762
 40
0.4761904761904762
 40
0.5238095238095238
 40
0.5238095238095238
 40
0.5238095238095238
 40
0.5238095238095238
 40
0.5714285714285714
 40
0.5714285714285714
 40
0.5714285714285714
 40
0.5714285714285714
 40
0.6190476190476191
 40
0.6190476190476191
 40
0.6190476190476191
 40
0.6190476190476191
 40
0.6666666666666666
 40
0.6666666666666666
 40
0.6666666666666666
 40
0.6666666666666666
 40
0.7142857142857143
 40
0.7142857142857143
 40
0.7142857142857143
 40
0.7142857142857143
 40
0.7619047619047619
 40
0.7619047619047619
 40
0.7619047619047619
 40
0.7619047619047619
 40
0.8095238095238095
 40
0.8095238095238095
 40
0.8095238095238095
 40
0.8095238095238095
 40
0.8571428571428571
 40
0.8571428571428571
 40
0.8571428571428571
 40
0.8571428571428571
 40
0.9047619047619048
 40
0.9047619047619048
 40
0.9047619047619048
 40
0.9047619047619048
 40
1.0
 40
1.0
 40
1.0
 40
1.0
 10
1.8099
 20
5.3788
 30
0.0
 10
1.8099
 20
5.3788
 30
0.0
 10
2.0413
 20
5.6379
 30
0.0
 10
2.0413
 20
5.6379
 30
0.0
 10
2.0413
 20
5.6379
 30
0.0
 10
2.0413
 20
5.6379
 30
0.0
 10
2.1777
 20
5.5222
 30
0.0
 10
2.1777
 20
5.5222
 30
0.0
 10
2.1777
 20
5.5222
 30
0.0
 10
2.1777
 20
5.5222
 30
0.0
 10
1.9355
 20
5.2494
 30
0.0
 10
1.9355
 20
5.2494
 30
0.0
 10
1.9355
 20
5.2494
 30
0.0
 10
2.0145
 20
5.1318
 30
0.0
 10
2.0676
 20
5.0288
 30
0.0
 10
2.0954
 20
4.9409
 30
0.0
 10
2.0954
 20
4.9409
 30
0.0
 10
2.1321
 20
4.8251
 30
0.0
 10
2.1504
 20
4.6953
 30
0.0
 10
2.1504
 20
4.5523
 30
0.0
 10
2.1504
 20
4.5523
 30
0.0
 10
2.1504
 20
4.3454
 30
0.0
 10
2.1086
 20
4.161
 30
0.0
 10
2.0248
 20
3.9997
 30
0.0
 10
2.0248
 20
3.9997
 30
0.0
 10
1.9411
 20
3.8378
 30
0.0
 10
1.824
 20
3.7156
 30
0.0
 10
1.673
 20
3.6328
 30
0.0
 10
1.673
 20
3.6328
 30
0.0
 10
1.5215
 20
3.5505
 30
0.0
 10
1.3612
 20
3.5091
 30
0.0
 10
1.1914
 20
3.5091
 30
0.0
 10
1.1914
 20
3.5091
 30
0.0
 10
1.0644
 20
3.5091
 30
0.0
 10
0.9496
 20
3.5269
 30
0.0
 10
0.8466
 20
3.5627
 30
0.0
 10
0.8466
 20
3.5627
 30
0.0
 10
0.7676
 20
3.5904
 30
0.0
 10
0.6754
 20
3.6431
 30
0.0
 10
0.5695
 20
3.7212
 30
0.0
 10
0.5695
 20
3.7212
 30
0.0
 10
0.5695
 20
3.7212
 30
0.0
 10
0.3381
 20
3.462
 30
0.0
 10
0.3381
 20
3.462
 30
0.0
 10
0.3381
 20
3.462
 30
0.0
 10
0.3381
 20
3.462
 30
0.0
 10
0.2017
 20
3.5777
 30
0.0
 10
0.2017
 20
3.5777
 30
0.0
 10
0.2017
 20
3.5777
 30
0.0
 10
0.2017
 20
3.5777
 30
0.0
 10
0.4444
 20
3.8491
 30
0.0
 10
0.4444
 20
3.8491
 30
0.0
 10
0.4444
 20
3.8491
 30
0.0
 10
0.3541
 20
3.986
 30
0.0
 10
0.2939
 20
4.1031
 30
0.0
 10
0.2638
 20
4.2
 30
0.0
 10
0.2638
 20
4.2
 30
0.0
 10
0.2337
 20
4.2969
 30
0.0
 10
0.2182
 20
4.4136
 30
0.0
 10
0.2182
 20
4.5495
 30
0.0
 10
0.2182
 20
4.5495
 30
0.0
 10
0.2182
 20
4.7569
 30
0.0
 10
0.2596
 20
4.9418
 30
0.0
 10
0.3423
 20
5.1041
 30
0.0
 10
0.3423
 20
5.1041
 30
0.0
 10
0.4251
 20
5.2664
 30
0.0
 10
0.5408
 20
5.3891
 30
0.0
 10
0.6904
 20
5.4728
 30
0.0
 10
0.6904
 20
5.4728
 30
0.0
 10
0.8395
 20
5.5561
 30
0.0
 10
1.0056
 20
5.598
 30
0.0
 10
1.1885
 20
5.598
 30
0.0
 10
1.1885
 20
5.598
 30
0.0
 10
1.3118
 20
5.598
 30
0.0
 10
1.4195
 20
5.582
 30
0.0
 10
1.5117
 20
5.549
 30
0.0
 10
1.5117
 20
5.549
 30
0.0
 10
1.6039
 20
5.5166
 30
0.0
 10
1.7036
 20
5.4597
 30
0.0
 10
1.8099
 20
5.3788
 30
0.0
  0
SPLINE
  5
4F
330
1F
100
AcDbEntity
  8
DEFAULT_1
 62
   250
100
AcDbSpline
210
0.0
220
0.0
230
1.0
 70
    11
 71
     3
 72
    32
 73
    28
 74
     0
 42
0.0000000001
 43
0.0000000001
 40
0.0
 40
0.0
 40
0.0
 40
0.0
 40
0.125
 40
0.125
 40
0.125
 40
0.125
 40
0.25
 40
0.25
 40
0.25
 40
0.25
 40
0.375
 40
0.375
 40
0.375
 40
0.375
 40
0.5
 40
0.5
 40
0.5
 40
0.5
 40
0.625
 40
0.625
 40
0.625
 40
0.625
 40
0.75
 40
0.75
 40
0.75
 40
0.75
 40
1.0
 40
1.0
 40
1.0
 40
1.0
 10
1.6448
 20
5.193
 30
0.0
 10
1.5582
 20
5.2607
 30
0.0
 10
1.4825
 20
5.3073
 30
0.0
 10
1.4181
 20
5.3322
 30
0.0
 10
1.4181
 20
5.3322
 30
0.0
 10
1.3532
 20
5.3567
 30
0.0
 10
1.277
 20
5.3694
 30
0.0
 10
1.1899
 20
5.3694
 30
0.0
 10
1.1899
 20
5.3694
 30
0.0
 10
0.9886
 20
5.3694
 30
0.0
 10
0.8226
 20
5.3012
 30
0.0
 10
0.6909
 20
5.1648
 30
0.0
 10
0.6909
 20
5.1648
 30
0.0
 10
0.5596
 20
5.0283
 30
0.0
 10
0.4938
 20
4.8247
 30
0.0
 10
0.4938
 20
4.5533
 30
0.0
 10
0.4938
 20
4.5533
 30
0.0
 10
0.4938
 20
4.447
 30
0.0
 10
0.5041
 20
4.3524
 30
0.0
 10
0.5244
 20
4.2696
 30
0.0
 10
0.5244
 20
4.2696
 30
0.0
 10
0.539
 20
4.208
 30
0.0
 10
0.5695
 20
4.1323
 30
0.0
 10
0.6166
 20
4.0425
 30
0.0
 10
0.6166
 20
4.0425
 30
0.0
 10
0.6166
 20
4.0425
 30
0.0
 10
1.6448
 20
5.193
 30
0.0
 10
1.6448
 20
5.193
 30
0.0
  0
SPLINE
  5
50
330
1F
100
AcDbEntity
  8
DEFAULT_1
 62
   250
100
AcDbSpline
210
0.0
220
0.0
230
1.0
 70
    11
 71
     3
 72
    28
 73
    24
 74
     0
 42
0.0000000001
 43
0.0000000001
 40
0.0
 40
0.0
 40
0.0
 40
0.0
 40
0.1428571428571428
 40
0.1428571428571428
 40
0.1428571428571428
 40
0.1428571428571428
 40
0.2857142857142857
 40
0.2857142857142857
 40
0.2857142857142857
 40
0.2857142857142857
 40
0.4285714285714285
 40
0.4285714285714285
 40
0.4285714285714285
 40
0.4285714285714285
 40
0.5714285714285714
 40
0.5714285714285714
 40
0.5714285714285714
 40
0.5714285714285714
 40
0.7142857142857143
 40
0.7142857142857143
 40
0.7142857142857143
 40
0.7142857142857143
 40
1.0
 40
1.0
 40
1.0
 40
1.0
 10
1.7577
 20
5.0509
 30
0.0
 10
1.7577
 20
5.0509
 30
0.0
 10
0.7337
 20
3.9046
 30
0.0
 10
0.7337
 20
3.9046
 30
0.0
 10
0.7337
 20
3.9046
 30
0.0
 10
0.8042
 20
3.8468
 30
0.0
 10
0.8696
 20
3.8063
 30
0.0
 10
0.9294
 20
3.7833
 30
0.0
 10
0.9294
 20
3.7833
 30
0.0
 10
1.0074
 20
3.7527
 30
0.0
 10
1.0921
 20
3.7377
 30
0.0
 10
1.1829
 20
3.7377
 30
0.0
 10
1.1829
 20
3.7377
 30
0.0
 10
1.3833
 20
3.7377
 30
0.0
 10
1.5484
 20
3.8082
 30
0.0
 10
1.6791
 20
3.9498
 30
0.0
 10
1.6791
 20
3.9498
 30
0.0
 10
1.8094
 20
4.0914
 30
0.0
 10
1.8748
 20
4.2899
 30
0.0
 10
1.8748
 20
4.5453
 30
0.0
 10
1.8748
 20
4.5453
 30
0.0
 10
1.8748
 20
4.7362
 30
0.0
 10
1.8358
 20
4.9051
 30
0.0
 10
1.7577
 20
5.0509
 30
0.0
  0
SPLINE
  5
51
330
1F
100
AcDbEntity
  8
DEFAULT_1
 62
   250
100
AcDbSpline
210
0.0
220
0.0
230
1.0
 70
    11
 71
     3
 72
    92
 73
    88
 74
     0
 42
0.0000000001
 43
0.0000000001
 40
0.0
 40
0.0
 40
0.0
 40
0.0
 40
0.0434782608695652
 40
0.0434782608695652
 40
0.0434782608695652
 40
0.0434782608695652
 40
0.0869565217391304
 40
0.0869565217391304
 40
0.0869565217391304
 40
0.0869565217391304
 40
0.1304347826086956
 40
0.1304347826086956
 40
0.1304347826086956
 40
0.1304347826086956
 40
0.1739130434782609
 40
0.1739130434782609
 40
0.1739130434782609
 40
0.1739130434782609
 40
0.2173913043478261
 40
0.2173913043478261
 40
0.2173913043478261
 40
0.2173913043478261
 40
0.2608695652173913
 40
0.2608695652173913
 40
0.2608695652173913
 40
0.2608695652173913
 40
0.3043478260869565
 40
0.3043478260869565
 40
0.3043478260869565
 40
0.3043478260869565
 40
0.3478260869565217
 40
0.3478260869565217
 40
0.3478260869565217
 40
0.3478260869565217
 40
0.391304347826087
 40
0.391304347826087
 40
0.391304347826087
 40
0.391304347826087
 40
0.4347826086956522
 40
0.4347826086956522
 40
0.4347826086956522
 40
0.4347826086956522
 40
0.4782608695652174
 40
0.4782608695652174
 40
0.4782608695652174
 40
0.4782608695652174
 40
0.5217391304347826
 40
0.5217391304347826
 40
0.5217391304347826
 40
0.5217391304347826
 40
0.5652173913043478
 40
0.5652173913043478
 40
0.5652173913043478
 40
0.5652173913043478
 40
0.6086956521739131
 40
0.6086956521739131
 40
0.6086956521739131
 40
0.6086956521739131
 40
0.6521739130434783
 40
0.6521739130434783
 40
0.6521739130434783
 40
0.6521739130434783
 40
0.6956521739130435
 40
0.6956521739130435
 40
0.6956521739130435
 40
0.6956521739130435
 40
0.7391304347826086
 40
0.7391304347826086
 40
0.7391304347826086
 40
0.7391304347826086
 40
0.782608695652174
 40
0.782608695652174
 40
0.782608695652174
 40
0.782608695652174
 40
0.8260869565217391
 40
0.8260869565217391
 40
0.8260869565217391
 40
0.8260869565217391
 40
0.8695652173913043
 40
0.8695652173913043
 40
0.8695652173913043
 40
0.8695652173913043
 40
0.9130434782608695
 40
0.9130434782608695
 40
0.9130434782608695
 40
0.9130434782608695
 40
1.0
 40
1.0
 40
1.0
 40
1.0
 10
2.4369
 20
4.0105
 30
0.0
 10
2.4369
 20
4.0105
 30
0.0
 10
2.6754
 20
4.0326
 30
0.0
 10
2.6754
 20
4.0326
 30
0.0
 10
2.6754
 20
4.0326
 30
0.0
 10
2.6956
 20
3.9206
 30
0.0
 10
2.7342
 20
3.8393
 30
0.0
 10
2.7911
 20
3.7885
 30
0.0
 10
2.7911
 20
3.7885
 30
0.0
 10
2.848
 20
3.7381
 30
0.0
 10
2.9209
 20
3.7127
 30
0.0
 10
3.0103
 20
3.7127
 30
0.0
 10
3.0103
 20
3.7127
 30
0.0
 10
3.0865
 20
3.7127
 30
0.0
 10
3.1532
 20
3.7301
 30
0.0
 10
3.2106
 20
3.7654
 30
0.0
 10
3.2106
 20
3.7654
 30
0.0
 10
3.268
 20
3.8002
 30
0.0
 10
3.3151
 20
3.8468
 30
0.0
 10
3.3517
 20
3.9051
 30
0.0
 10
3.3517
 20
3.9051
 30
0.0
 10
3.3889
 20
3.9634
 30
0.0
 10
3.4195
 20
4.0425
 30
0.0
 10
3.4444
 20
4.1412
 30
0.0
 10
3.4444
 20
4.1412
 30
0.0
 10
3.4689
 20
4.2405
 30
0.0
 10
3.4816
 20
4.3416
 30
0.0
 10
3.4816
 20
4.4446
 30
0.0
 10
3.4816
 20
4.4446
 30
0.0
 10
3.4816
 20
4.4554
 30
0.0
 10
3.4811
 20
4.4724
 30
0.0
 10
3.4802
 20
4.494
 30
0.0
 10
3.4802
 20
4.494
 30
0.0
 10
3.4303
 20
4.4155
 30
0.0
 10
3.3626
 20
4.351
 30
0.0
 10
3.277
 20
4.3021
 30
0.0
 10
3.277
 20
4.3021
 30
0.0
 10
3.1909
 20
4.2527
 30
0.0
 10
3.0977
 20
4.2283
 30
0.0
 10
2.998
 20
4.2283
 30
0.0
 10
2.998
 20
4.2283
 30
0.0
 10
2.8306
 20
4.2283
 30
0.0
 10
2.689
 20
4.2889
 30
0.0
 10
2.5733
 20
4.4103
 30
0.0
 10
2.5733
 20
4.4103
 30
0.0
 10
2.4576
 20
4.5316
 30
0.0
 10
2.3997
 20
4.6911
 30
0.0
 10
2.3997
 20
4.8896
 30
0.0
 10
2.3997
 20
4.8896
 30
0.0
 10
2.3997
 20
5.0947
 30
0.0
 10
2.4599
 20
5.2593
 30
0.0
 10
2.5808
 20
5.3844
 30
0.0
 10
2.5808
 20
5.3844
 30
0.0
 10
2.7017
 20
5.5095
 30
0.0
 10
2.8532
 20
5.5721
 30
0.0
 10
3.0352
 20
5.5721
 30
0.0
 10
3.0352
 20
5.5721
 30
0.0
 10
3.1664
 20
5.5721
 30
0.0
 10
3.2864
 20
5.5363
 30
0.0
 10
3.3955
 20
5.4658
 30
0.0
 10
3.3955
 20
5.4658
 30
0.0
 10
3.5041
 20
5.3952
 30
0.0
 10
3.5869
 20
5.2941
 30
0.0
 10
3.6434
 20
5.1633
 30
0.0
 10
3.6434
 20
5.1633
 30
0.0
 10
3.6998
 20
5.0326
 30
0.0
 10
3.728
 20
4.843
 30
0.0
 10
3.728
 20
4.5947
 30
0.0
 10
3.728
 20
4.5947
 30
0.0
 10
3.728
 20
4.3369
 30
0.0
 10
3.7003
 20
4.1314
 30
0.0
 10
3.6443
 20
3.978
 30
0.0
 10
3.6443
 20
3.978
 30
0.0
 10
3.5879
 20
3.8251
 30
0.0
 10
3.5046
 20
3.709
 30
0.0
 10
3.3941
 20
3.629
 30
0.0
 10
3.3941
 20
3.629
 30
0.0
 10
3.2831
 20
3.549
 30
0.0
 10
3.1537
 20
3.5091
 30
0.0
 10
3.0046
 20
3.5091
 30
0.0
 10
3.0046
 20
3.5091
 30
0.0
 10
2.8466
 20
3.5091
 30
0.0
 10
2.7177
 20
3.5528
 30
0.0
 10
2.6175
 20
3.6408
 30
0.0
 10
2.6175
 20
3.6408
 30
0.0
 10
2.5173
 20
3.7283
 30
0.0
 10
2.4571
 20
3.8515
 30
0.0
 10
2.4369
 20
4.0105
 30
0.0
  0
SPLINE
  5
52
330
1F
100
AcDbEntity
  8
DEFAULT_1
 62
   250
100
AcDbSpline
210
0.0
220
0.0
230
1.0
 70
    11
 71
     3
 72
    36
 73
    32
 74
     0
 42
0.0000000001
 43
0.0000000001
 40
0.0
 40
0.0
 40
0.0
 40
0.0
 40
0.1111111111111111
 40
0.1111111111111111
 40
0.1111111111111111
 40
0.1111111111111111
 40
0.2222222222222222
 40
0.2222222222222222
 40
0.2222222222222222
 40
0.2222222222222222
 40
0.3333333333333333
 40
0.3333333333333333
 40
0.3333333333333333
 40
0.3333333333333333
 40
0.4444444444444444
 40
0.4444444444444444
 40
0.4444444444444444
 40
0.4444444444444444
 40
0.5555555555555556
 40
0.5555555555555556
 40
0.5555555555555556
 40
0.5555555555555556
 40
0.6666666666666666
 40
0.6666666666666666
 40
0.6666666666666666
 40
0.6666666666666666
 40
0.7777777777777778
 40
0.7777777777777778
 40
0.7777777777777778
 40
0.7777777777777778
 40
1.0
 40
1.0
 40
1.0
 40
1.0
 10
3.4524
 20
4.9023
 30
0.0
 10
3.4524
 20
5.0443
 30
0.0
 10
3.4148
 20
5.1577
 30
0.0
 10
3.339
 20
5.241
 30
0.0
 10
3.339
 20
5.241
 30
0.0
 10
3.2628
 20
5.3247
 30
0.0
 10
3.1721
 20
5.3665
 30
0.0
 10
3.0653
 20
5.3665
 30
0.0
 10
3.0653
 20
5.3665
 30
0.0
 10
2.9552
 20
5.3665
 30
0.0
 10
2.8593
 20
5.3214
 30
0.0
 10
2.7774
 20
5.2315
 30
0.0
 10
2.7774
 20
5.2315
 30
0.0
 10
2.6956
 20
5.1412
 30
0.0
 10
2.6547
 20
5.0246
 30
0.0
 10
2.6547
 20
4.8816
 30
0.0
 10
2.6547
 20
4.8816
 30
0.0
 10
2.6547
 20
4.7527
 30
0.0
 10
2.6937
 20
4.6483
 30
0.0
 10
2.7713
 20
4.5679
 30
0.0
 10
2.7713
 20
4.5679
 30
0.0
 10
2.8489
 20
4.4874
 30
0.0
 10
2.9444
 20
4.4474
 30
0.0
 10
3.0582
 20
4.4474
 30
0.0
 10
3.0582
 20
4.4474
 30
0.0
 10
3.1735
 20
4.4474
 30
0.0
 10
3.2675
 20
4.4874
 30
0.0
 10
3.3414
 20
4.5679
 30
0.0
 10
3.3414
 20
4.5679
 30
0.0
 10
3.4157
 20
4.6483
 30
0.0
 10
3.4524
 20
4.7598
 30
0.0
 10
3.4524
 20
4.9023
 30
0.0
  0
SPLINE
  5
53
330
1F
100
AcDbEntity
  8
DEFAULT_1
 62
   250
100
AcDbSpline
210
0.0
220
0.0
230
1.0
 70
    11
 71
     3
 72
    68
 73
    64
 74
     0
 42
0.0000000001
 43
0.0000000001
 40
0.0
 40
0.0
 40
0.0
 40
0.0
 40
0.0588235294117647
 40
0.0588235294117647
 40
0.0588235294117647
 40
0.0588235294117647
 40
0.1176470588235294
 40
0.1176470588235294
 40
0.1176470588235294
 40
0.1176470588235294
 40
0.1764705882352941
 40
0.1764705882352941
 40
0.1764705882352941
 40
0.1764705882352941
 40
0.2352941176470588
 40
0.2352941176470588
 40
0.2352941176470588
 40
0.2352941176470588
 40
0.2941176470588235
 40
0.2941176470588235
 40
0.2941176470588235
 40
0.2941176470588235
 40
0.3529411764705883
 40
0.3529411764705883
 40
0.3529411764705883
 40
0.3529411764705883
 40
0.4117647058823529
 40
0.4117647058823529
 40
0.4117647058823529
 40
0.4117647058823529
 40
0.4705882352941176
 40
0.4705882352941176
 40
0.4705882352941176
 40
0.4705882352941176
 40
0.5294117647058824
 40
0.5294117647058824
 40
0.5294117647058824
 40
0.5294117647058824
 40
0.5882352941176471
 40
0.5882352941176471
 40
0.5882352941176471
 40
0.5882352941176471
 40
0.6470588235294118
 40
0.6470588235294118
 40
0.6470588235294118
 40
0.6470588235294118
 40
0.7058823529411765
 40
0.7058823529411765
 40
0.7058823529411765
 40
0.7058823529411765
 40
0.7647058823529411
 40
0.7647058823529411
 40
0.7647058823529411
 40
0.7647058823529411
 40
0.8235294117647058
 40
0.8235294117647058
 40
0.8235294117647058
 40
0.8235294117647058
 40
0.8823529411764706
 40
0.8823529411764706
 40
0.8823529411764706
 40
0.8823529411764706
 40
1.0
 40
1.0
 40
1.0
 40
1.0
 10
4.3513
 20
4.6389
 30
0.0
 10
4.2482
 20
4.6765
 30
0.0
 10
4.172
 20
4.7301
 30
0.0
 10
4.1222
 20
4.8002
 30
0.0
 10
4.1222
 20
4.8002
 30
0.0
 10
4.0728
 20
4.8698
 30
0.0
 10
4.0479
 20
4.9536
 30
0.0
 10
4.0479
 20
5.0509
 30
0.0
 10
4.0479
 20
5.0509
 30
0.0
 10
4.0479
 20
5.1981
 30
0.0
 10
4.1006
 20
5.3214
 30
0.0
 10
4.2064
 20
5.4216
 30
0.0
 10
4.2064
 20
5.4216
 30
0.0
 10
4.3122
 20
5.5218
 30
0.0
 10
4.4524
 20
5.5721
 30
0.0
 10
4.6278
 20
5.5721
 30
0.0
 10
4.6278
 20
5.5721
 30
0.0
 10
4.8042
 20
5.5721
 30
0.0
 10
4.9463
 20
5.5208
 30
0.0
 10
5.054
 20
5.4183
 30
0.0
 10
5.054
 20
5.4183
 30
0.0
 10
5.1612
 20
5.3157
 30
0.0
 10
5.2149
 20
5.1911
 30
0.0
 10
5.2149
 20
5.0439
 30
0.0
 10
5.2149
 20
5.0439
 30
0.0
 10
5.2149
 20
4.9503
 30
0.0
 10
5.1904
 20
4.8689
 30
0.0
 10
5.1415
 20
4.7993
 30
0.0
 10
5.1415
 20
4.7993
 30
0.0
 10
5.0921
 20
4.7301
 30
0.0
 10
5.0178
 20
4.6765
 30
0.0
 10
4.9176
 20
4.6389
 30
0.0
 10
4.9176
 20
4.6389
 30
0.0
 10
5.0413
 20
4.5984
 30
0.0
 10
5.1358
 20
4.5335
 30
0.0
 10
5.2007
 20
4.4432
 30
0.0
 10
5.2007
 20
4.4432
 30
0.0
 10
5.2652
 20
4.3534
 30
0.0
 10
5.2976
 20
4.2457
 30
0.0
 10
5.2976
 20
4.121
 30
0.0
 10
5.2976
 20
4.121
 30
0.0
 10
5.2976
 20
3.9479
 30
0.0
 10
5.2365
 20
3.803
 30
0.0
 10
5.1147
 20
3.6855
 30
0.0
 10
5.1147
 20
3.6855
 30
0.0
 10
4.9924
 20
3.5679
 30
0.0
 10
4.8315
 20
3.5091
 30
0.0
 10
4.6321
 20
3.5091
 30
0.0
 10
4.6321
 20
3.5091
 30
0.0
 10
4.4326
 20
3.5091
 30
0.0
 10
4.2722
 20
3.5679
 30
0.0
 10
4.1499
 20
3.6859
 30
0.0
 10
4.1499
 20
3.6859
 30
0.0
 10
4.0276
 20
3.804
 30
0.0
 10
3.9665
 20
3.9512
 30
0.0
 10
3.9665
 20
4.1276
 30
0.0
 10
3.9665
 20
4.1276
 30
0.0
 10
3.9665
 20
4.2588
 30
0.0
 10
3.9999
 20
4.3689
 30
0.0
 10
4.0667
 20
4.4578
 30
0.0
 10
4.0667
 20
4.4578
 30
0.0
 10
4.133
 20
4.5462
 30
0.0
 10
4.228
 20
4.6069
 30
0.0
 10
4.3513
 20
4.6389
 30
0.0
  0
SPLINE
  5
54
330
1F
100
AcDbEntity
  8
DEFAULT_1
 62
   250
100
AcDbSpline
210
0.0
220
0.0
230
1.0
 70
    11
 71
     3
 72
    36
 73
    32
 74
     0
 42
0.0000000001
 43
0.0000000001
 40
0.0
 40
0.0
 40
0.0
 40
0.0
 40
0.1111111111111111
 40
0.1111111111111111
 40
0.1111111111111111
 40
0.1111111111111111
 40
0.2222222222222222
 40
0.2222222222222222
 40
0.2222222222222222
 40
0.2222222222222222
 40
0.3333333333333333
 40
0.3333333333333333
 40
0.3333333333333333
 40
0.3333333333333333
 40
0.4444444444444444
 40
0.4444444444444444
 40
0.4444444444444444
 40
0.4444444444444444
 40
0.5555555555555556
 40
0.5555555555555556
 40
0.5555555555555556
 40
0.5555555555555556
 40
0.6666666666666666
 40
0.6666666666666666
 40
0.6666666666666666
 40
0.6666666666666666
 40
0.7777777777777778
 40
0.7777777777777778
 40
0.7777777777777778
 40
0.7777777777777778
 40
1.0
 40
1.0
 40
1.0
 40
1.0
 10
4.3014
 20
5.0594
 30
0.0
 10
4.3014
 20
4.9639
 30
0.0
 10
4.3324
 20
4.8858
 30
0.0
 10
4.3936
 20
4.8251
 30
0.0
 10
4.3936
 20
4.8251
 30
0.0
 10
4.4552
 20
4.7645
 30
0.0
 10
4.5352
 20
4.7339
 30
0.0
 10
4.6335
 20
4.7339
 30
0.0
 10
4.6335
 20
4.7339
 30
0.0
 10
4.729
 20
4.7339
 30
0.0
 10
4.8075
 20
4.764
 30
0.0
 10
4.8687
 20
4.8242
 30
0.0
 10
4.8687
 20
4.8242
 30
0.0
 10
4.9298
 20
4.8844
 30
0.0
 10
4.9599
 20
4.9583
 30
0.0
 10
4.9599
 20
5.0453
 30
0.0
 10
4.9599
 20
5.0453
 30
0.0
 10
4.9599
 20
5.1365
 30
0.0
 10
4.9289
 20
5.2127
 30
0.0
 10
4.8658
 20
5.2748
 30
0.0
 10
4.8658
 20
5.2748
 30
0.0
 10
4.8028
 20
5.3369
 30
0.0
 10
4.7247
 20
5.368
 30
0.0
 10
4.6307
 20
5.368
 30
0.0
 10
4.6307
 20
5.368
 30
0.0
 10
4.5361
 20
5.368
 30
0.0
 10
4.4576
 20
5.3374
 30
0.0
 10
4.395
 20
5.2772
 30
0.0
 10
4.395
 20
5.2772
 30
0.0
 10
4.3324
 20
5.2165
 30
0.0
 10
4.3014
 20
5.1436
 30
0.0
 10
4.3014
 20
5.0594
 30
0.0
  0
SPLINE
  5
55
330
1F
100
AcDbEntity
  8
DEFAULT_1
 62
   250
100
AcDbSpline
210
0.0
220
0.0
230
1.0
 70
    11
 71
     3
 72
    40
 73
    36
 74
     0
 42
0.0000000001
 43
0.0000000001
 40
0.0
 40
0.0
 40
0.0
 40
0.0
 40
0.1
 40
0.1
 40
0.1
 40
0.1
 40
0.2
 40
0.2
 40
0.2
 40
0.2
 40
0.3
 40
0.3
 40
0.3
 40
0.3
 40
0.4
 40
0.4
 40
0.4
 40
0.4
 40
0.5
 40
0.5
 40
0.5
 40
0.5
 40
0.6
 40
0.6
 40
0.6
 40
0.6
 40
0.7
 40
0.7
 40
0.7
 40
0.7
 40
0.8
 40
0.8
 40
0.8
 40
0.8
 40
1.0
 40
1.0
 40
1.0
 40
1.0
 10
4.2214
 20
4.1262
 30
0.0
 10
4.2214
 20
4.0556
 30
0.0
 10
4.2384
 20
3.987
 30
0.0
 10
4.2718
 20
3.9211
 30
0.0
 10
4.2718
 20
3.9211
 30
0.0
 10
4.3052
 20
3.8548
 30
0.0
 10
4.355
 20
3.8035
 30
0.0
 10
4.4213
 20
3.7673
 30
0.0
 10
4.4213
 20
3.7673
 30
0.0
 10
4.4877
 20
3.7311
 30
0.0
 10
4.5587
 20
3.7127
 30
0.0
 10
4.6349
 20
3.7127
 30
0.0
 10
4.6349
 20
3.7127
 30
0.0
 10
4.7534
 20
3.7127
 30
0.0
 10
4.8513
 20
3.7508
 30
0.0
 10
4.9284
 20
3.8275
 30
0.0
 10
4.9284
 20
3.8275
 30
0.0
 10
5.0055
 20
3.9037
 30
0.0
 10
5.0441
 20
4.0006
 30
0.0
 10
5.0441
 20
4.1182
 30
0.0
 10
5.0441
 20
4.1182
 30
0.0
 10
5.0441
 20
4.2377
 30
0.0
 10
5.0046
 20
4.3364
 30
0.0
 10
4.9251
 20
4.4145
 30
0.0
 10
4.9251
 20
4.4145
 30
0.0
 10
4.8456
 20
4.4926
 30
0.0
 10
4.7459
 20
4.5316
 30
0.0
 10
4.6264
 20
4.5316
 30
0.0
 10
4.6264
 20
4.5316
 30
0.0
 10
4.5098
 20
4.5316
 30
0.0
 10
4.4133
 20
4.4931
 30
0.0
 10
4.3367
 20
4.4159
 30
0.0
 10
4.3367
 20
4.4159
 30
0.0
 10
4.26
 20
4.3383
 30
0.0
 10
4.2214
 20
4.2419
 30
0.0
 10
4.2214
 20
4.1262
 30
0.0
  0
SPLINE
  5
56
330
1F
100
AcDbEntity
  8
DEFAULT_1
 62
   250
100
AcDbSpline
210
0.0
220
0.0
230
1.0
 70
    11
 71
     3
 72
    44
 73
    40
 74
     0
 42
0.0000000001
 43
0.0000000001
 40
0.0
 40
0.0
 40
0.0
 40
0.0
 40
0.0909090909090909
 40
0.0909090909090909
 40
0.0909090909090909
 40
0.0909090909090909
 40
0.1818181818181818
 40
0.1818181818181818
 40
0.1818181818181818
 40
0.1818181818181818
 40
0.2727272727272727
 40
0.2727272727272727
 40
0.2727272727272727
 40
0.2727272727272727
 40
0.3636363636363636
 40
0.3636363636363636
 40
0.3636363636363636
 40
0.3636363636363636
 40
0.4545454545454545
 40
0.4545454545454545
 40
0.4545454545454545
 40
0.4545454545454545
 40
0.5454545454545454
 40
0.5454545454545454
 40
0.5454545454545454
 40
0.5454545454545454
 40
0.6363636363636364
 40
0.6363636363636364
 40
0.6363636363636364
 40
0.6363636363636364
 40
0.7272727272727273
 40
0.7272727272727273
 40
0.7272727272727273
 40
0.7272727272727273
 40
0.8181818181818182
 40
0.8181818181818182
 40
0.8181818181818182
 40
0.8181818181818182
 40
1.0
 40
1.0
 40
1.0
 40
1.0
 10
5.7703
 20
2.9493
 30
0.0
 10
5.7703
 20
2.9493
 30
0.0
 10
5.5925
 20
2.9493
 30
0.0
 10
5.5925
 20
2.9493
 30
0.0
 10
5.5925
 20
2.9493
 30
0.0
 10
5.8672
 20
3.3905
 30
0.0
 10
6.0046
 20
3.8317
 30
0.0
 10
6.0046
 20
4.2739
 30
0.0
 10
6.0046
 20
4.2739
 30
0.0
 10
6.0046
 20
4.4465
 30
0.0
 10
5.9848
 20
4.6177
 30
0.0
 10
5.9453
 20
4.788
 30
0.0
 10
5.9453
 20
4.788
 30
0.0
 10
5.9143
 20
4.9253
 30
0.0
 10
5.8705
 20
5.058
 30
0.0
 10
5.8146
 20
5.1845
 30
0.0
 10
5.8146
 20
5.1845
 30
0.0
 10
5.7788
 20
5.2673
 30
0.0
 10
5.705
 20
5.4051
 30
0.0
 10
5.5925
 20
5.598
 30
0.0
 10
5.5925
 20
5.598
 30
0.0
 10
5.5925
 20
5.598
 30
0.0
 10
5.7703
 20
5.598
 30
0.0
 10
5.7703
 20
5.598
 30
0.0
 10
5.7703
 20
5.598
 30
0.0
 10
5.943
 20
5.3675
 30
0.0
 10
6.0709
 20
5.1361
 30
0.0
 10
6.1537
 20
4.9037
 30
0.0
 10
6.1537
 20
4.9037
 30
0.0
 10
6.2242
 20
4.7033
 30
0.0
 10
6.2595
 20
4.494
 30
0.0
 10
6.2595
 20
4.2753
 30
0.0
 10
6.2595
 20
4.2753
 30
0.0
 10
6.2595
 20
4.0269
 30
0.0
 10
6.212
 20
3.7875
 30
0.0
 10
6.117
 20
3.5556
 30
0.0
 10
6.117
 20
3.5556
 30
0.0
 10
6.022
 20
3.3242
 30
0.0
 10
5.9063
 20
3.122
 30
0.0
 10
5.7703
 20
2.9493
 30
0.0
  0
SPLINE
  5
57
330
1F
100
AcDbEntity
  8
DEFAULT_1
 62
   250
100
AcDbSpline
210
0.0
220
0.0
230
1.0
 70
    11
 71
     3
 72
    20
 73
    16
 74
     0
 42
0.0000000001
 43
0.0000000001
 40
0.0
 40
0.0
 40
0.0
 40
0.0
 40
0.2
 40
0.2
 40
0.2
 40
0.2
 40
0.4
 40
0.4
 40
0.4
 40
0.4
 40
0.6
 40
0.6
 40
0.6
 40
0.6
 40
1.0
 40
1.0
 40
1.0
 40
1.0
 10
16.7159
 20
3.0227
 30
0.0
 10
16.7159
 20
3.0227
 30
0.0
 10
19.2159
 20
2.6698
 30
0.0
 10
19.2159
 20
2.6698
 30
0.0
 10
19.2159
 20
2.6698
 30
0.0
 10
19.2159
 20
2.6698
 30
0.0
 10
19.2159
 20
2.5915
 30
0.0
 10
19.2159
 20
2.5915
 30
0.0
 10
19.2159
 20
2.5915
 30
0.0
 10
19.2159
 20
2.5915
 30
0.0
 10
16.7159
 20
2.2152
 30
0.0
 10
16.7159
 20
2.2152
 30
0.0
 10
16.7159
 20
2.2152
 30
0.0
 10
16.7159
 20
2.2152
 30
0.0
 10
16.7159
 20
3.0227
 30
0.0
 10
16.7159
 20
3.0227
 30
0.0
  0
SPLINE
  5
58
330
1F
100
AcDbEntity
  8
DEFAULT_1
 62
   250
100
AcDbSpline
210
0.0
220
0.0
230
1.0
 70
    11
 71
     3
 72
    20
 73
    16
 74
     0
 42
0.0000000001
 43
0.0000000001
 40
0.0
 40
0.0
 40
0.0
 40
0.0
 40
0.2
 40
0.2
 40
0.2
 40
0.2
 40
0.4
 40
0.4
 40
0.4
 40
0.4
 40
0.6
 40
0.6
 40
0.6
 40
0.6
 40
1.0
 40
1.0
 40
1.0
 40
1.0
 10
-10.6743
 20
2.2578
 30
0.0
 10
-10.6743
 20
2.2578
 30
0.0
 10
-13.1743
 20
2.6107
 30
0.0
 10
-13.1743
 20
2.6107
 30
0.0
 10
-13.1743
 20
2.6107
 30
0.0
 10
-13.1743
 20
2.6107
 30
0.0
 10
-13.1743
 20
2.689
 30
0.0
 10
-13.1743
 20
2.689
 30
0.0
 10
-13.1743
 20
2.689
 30
0.0
 10
-13.1743
 20
2.689
 30
0.0
 10
-10.6743
 20
3.0653
 30
0.0
 10
-10.6743
 20
3.0653
 30
0.0
 10
-10.6743
 20
3.0653
 30
0.0
 10
-10.6743
 20
3.0653
 30
0.0
 10
-10.6743
 20
2.2578
 30
0.0
 10
-10.6743
 20
2.2578
 30
0.0
  0
SPLINE
  5
59
330
1F
100
AcDbEntity
  8
DEFAULT_1
 62
   250
100
AcDbSpline
210
0.0
220
0.0
230
1.0
 70
    24
 71
     3
 72
     8
 73
     4
 74
     0
 42
0.0000000001
 43
0.0000000001
 40
0.0
 40
0.0
 40
0.0
 40
0.0
 40
1.0
 40
1.0
 40
1.0
 40
1.0
 10
-14.0326
 20
-21.9963
 30
0.0
 10
-14.0326
 20
-21.9963
 30
0.0
 10
19.9999
 20
-21.9963
 30
0.0
 10
19.9999
 20
-21.9963
 30
0.0
  0
SPLINE
  5
5A
330
1F
100
AcDbEntity
  8
DEFAULT_1
 62
   250
100
AcDbSpline
210
0.0
220
0.0
230
1.0
 70
    24
 71
     3
 72
     8
 73
     4
 74
     0
 42
0.0000000001
 43
0.0000000001
 40
0.0
 40
0.0
 40
0.0
 40
0.0
 40
1.0
 40
1.0
 40
1.0
 40
1.0
 10
-13.9235
 20
-5.3658
 30
0.0
 10
-13.9235
 20
-5.3658
 30
0.0
 10
-13.9636
 20
-5.4361
 30
0.0
 10
-13.9636
 20
-5.4361
 30
0.0
  0
SPLINE
  5
5B
330
1F
100
AcDbEntity
  8
DEFAULT_1
 62
   250
100
AcDbSpline
210
0.0
220
0.0
230
1.0
 70
    24
 71
     3
 72
     8
 73
     4
 74
     0
 42
0.0000000001
 43
0.0000000001
 40
0.0
 40
0.0
 40
0.0
 40
0.0
 40
1.0
 40
1.0
 40
1.0
 40
1.0
 10
19.6984
 20
-5.1735
 30
0.0
 10
19.6984
 20
-5.1735
 30
0.0
 10
19.6281
 20
-5.1332
 30
0.0
 10
19.6281
 20
-5.1332
 30
0.0
  0
SPLINE
  5
5C
330
1F
100
AcDbEntity
  8
DEFAULT_1
 62
   250
100
AcDbSpline
210
0.0
220
0.0
230
1.0
 70
     8
 71
     3
 72
     8
 73
     4
 74
     0
 42
0.0000000001
 43
0.0000000001
 40
0.0
 40
0.0
 40
0.0
 40
0.0
 40
1.0
 40
1.0
 40
1.0
 40
1.0
 10
19.6281
 20
-5.1332
 30
0.0
 10
19.3341
 20
-5.0008
 30
0.0
 10
18.9626
 20
-5.0643
 30
0.0
 10
18.6653
 20
-5.0643
 30
0.0
  0
SPLINE
  5
5D
330
1F
100
AcDbEntity
  8
DEFAULT_1
 62
   250
100
AcDbSpline
210
0.0
220
0.0
230
1.0
 70
    24
 71
     3
 72
    12
 73
     8
 74
     0
 42
0.0000000001
 43
0.0000000001
 40
0.0
 40
0.0
 40
0.0
 40
0.0
 40
0.3333333333333333
 40
0.3333333333333333
 40
0.3333333333333333
 40
0.3333333333333333
 40
1.0
 40
1.0
 40
1.0
 40
1.0
 10
18.6653
 20
-5.0643
 30
0.0
 10
18.6653
 20
-5.0643
 30
0.0
 10
-12.698
 20
-5.0643
 30
0.0
 10
-12.698
 20
-5.0643
 30
0.0
 10
-12.698
 20
-5.0643
 30
0.0
 10
-12.698
 20
-5.0643
 30
0.0
 10
-13.3652
 20
-5.0643
 30
0.0
 10
-13.3652
 20
-5.0643
 30
0.0
  0
SPLINE
  5
5E
330
1F
100
AcDbEntity
  8
DEFAULT_1
 62
   250
100
AcDbSpline
210
0.0
220
0.0
230
1.0
 70
     8
 71
     3
 72
     8
 73
     4
 74
     0
 42
0.0000000001
 43
0.0000000001
 40
0.0
 40
0.0
 40
0.0
 40
0.0
 40
1.0
 40
1.0
 40
1.0
 40
1.0
 10
-13.3652
 20
-5.0643
 30
0.0
 10
-13.6712
 20
-5.0807
 30
0.0
 10
-13.9357
 20
-5.268
 30
0.0
 10
-14.0131
 20
-5.5724
 30
0.0
  0
SPLINE
  5
5F
330
1F
100
AcDbEntity
  8
DEFAULT_1
 62
   250
100
AcDbSpline
210
0.0
220
0.0
230
1.0
 70
     8
 71
     3
 72
    20
 73
    16
 74
     0
 42
0.0000000001
 43
0.0000000001
 40
0.0
 40
0.0
 40
0.0
 40
0.0
 40
0.2
 40
0.2
 40
0.2
 40
0.2
 40
0.4
 40
0.4
 40
0.4
 40
0.4
 40
0.6
 40
0.6
 40
0.6
 40
0.6
 40
1.0
 40
1.0
 40
1.0
 40
1.0
 10
-14.0131
 20
-5.5724
 30
0.0
 10
-14.0131
 20
-5.5724
 30
0.0
 10
-14.0326
 20
-5.7314
 30
0.0
 10
-14.0326
 20
-5.7314
 30
0.0
 10
-14.0326
 20
-5.7314
 30
0.0
 10
-14.0326
 20
-5.7314
 30
0.0
 10
-14.0326
 20
-6.3989
 30
0.0
 10
-14.0326
 20
-6.3989
 30
0.0
 10
-14.0326
 20
-6.3989
 30
0.0
 10
-14.0326
 20
-6.3989
 30
0.0
 10
-14.0326
 20
-21.3288
 30
0.0
 10
-14.0326
 20
-21.3288
 30
0.0
 10
-14.0326
 20
-21.3288
 30
0.0
 10
-14.0326
 20
-21.3288
 30
0.0
 10
-14.0326
 20
-21.9963
 30
0.0
 10
-14.0326
 20
-21.9963
 30
0.0
  0
SPLINE
  5
60
330
1F
100
AcDbEntity
  8
DEFAULT_1
 62
   250
100
AcDbSpline
210
0.0
220
0.0
230
1.0
 70
     8
 71
     3
 72
     8
 73
     4
 74
     0
 42
0.0000000001
 43
0.0000000001
 40
0.0
 40
0.0
 40
0.0
 40
0.0
 40
1.0
 40
1.0
 40
1.0
 40
1.0
 10
19.3327
 20
-5.0643
 30
0.0
 10
19.6666
 20
-5.1048
 30
0.0
 10
19.9609
 20
-5.2971
 30
0.0
 10
19.9962
 20
-5.6596
 30
0.0
  0
SPLINE
  5
61
330
1F
100
AcDbEntity
  8
DEFAULT_1
 62
   250
100
AcDbSpline
210
0.0
220
0.0
230
1.0
 70
     8
 71
     3
 72
    20
 73
    16
 74
     0
 42
0.0000000001
 43
0.0000000001
 40
0.0
 40
0.0
 40
0.0
 40
0.0
 40
0.2
 40
0.2
 40
0.2
 40
0.2
 40
0.4
 40
0.4
 40
0.4
 40
0.4
 40
0.6
 40
0.6
 40
0.6
 40
0.6
 40
1.0
 40
1.0
 40
1.0
 40
1.0
 10
19.9962
 20
-5.6596
 30
0.0
 10
19.9962
 20
-5.6596
 30
0.0
 10
19.9999
 20
-5.7314
 30
0.0
 10
19.9999
 20
-5.7314
 30
0.0
 10
19.9999
 20
-5.7314
 30
0.0
 10
19.9999
 20
-5.7314
 30
0.0
 10
19.9999
 20
-6.3989
 30
0.0
 10
19.9999
 20
-6.3989
 30
0.0
 10
19.9999
 20
-6.3989
 30
0.0
 10
19.9999
 20
-6.3989
 30
0.0
 10
19.9999
 20
-21.3288
 30
0.0
 10
19.9999
 20
-21.3288
 30
0.0
 10
19.9999
 20
-21.3288
 30
0.0
 10
19.9999
 20
-21.3288
 30
0.0
 10
19.9999
 20
-21.9963
 30
0.0
 10
19.9999
 20
-21.9963
 30
0.0
  0
SPLINE
  5
62
330
1F
100
AcDbEntity
  8
DEFAULT_1
 62
   250
100
AcDbSpline
210
0.0
220
0.0
230
1.0
 70
     8
 71
     3
 72
    12
 73
     8
 74
     0
 42
0.0000000001
 43
0.0000000001
 40
0.0
 40
0.0
 40
0.0
 40
0.0
 40
0.3333333333333333
 40
0.3333333333333333
 40
0.3333333333333333
 40
0.3333333333333333
 40
1.0
 40
1.0
 40
1.0
 40
1.0
 10
1.0305
 20
-18.8057
 30
0.0
 10
1.0305
 20
-18.8057
 30
0.0
 10
0.9199
 20
-18.5355
 30
0.0
 10
0.9199
 20
-18.5355
 30
0.0
 10
0.9199
 20
-18.5355
 30
0.0
 10
0.9199
 20
-18.5355
 30
0.0
 10
0.7475
 20
-18.3109
 30
0.0
 10
0.7475
 20
-18.3109
 30
0.0
  0
SPLINE
  5
63
330
1F
100
AcDbEntity
  8
DEFAULT_1
 62
   250
100
AcDbSpline
210
0.0
220
0.0
230
1.0
 70
     8
 71
     3
 72
     8
 73
     4
 74
     0
 42
0.0000000001
 43
0.0000000001
 40
0.0
 40
0.0
 40
0.0
 40
0.0
 40
1.0
 40
1.0
 40
1.0
 40
1.0
 10
0.7475
 20
-18.3109
 30
0.0
 10
0.3548
 20
-17.9181
 30
0.0
 10
-0.1776
 20
-17.9933
 30
0.0
 10
-0.6865
 20
-17.9933
 30
0.0
  0
SPLINE
  5
64
330
1F
100
AcDbEntity
  8
DEFAULT_1
 62
   250
100
AcDbSpline
210
0.0
220
0.0
230
1.0
 70
     8
 71
     3
 72
    16
 73
    12
 74
     0
 42
0.0000000001
 43
0.0000000001
 40
0.0
 40
0.0
 40
0.0
 40
0.0
 40
0.25
 40
0.25
 40
0.25
 40
0.25
 40
0.5
 40
0.5
 40
0.5
 40
0.5
 40
1.0
 40
1.0
 40
1.0
 40
1.0
 10
-0.6865
 20
-17.9933
 30
0.0
 10
-0.6865
 20
-17.9933
 30
0.0
 10
-8.6941
 20
-17.9933
 30
0.0
 10
-8.6941
 20
-17.9933
 30
0.0
 10
-8.6941
 20
-17.9933
 30
0.0
 10
-8.6941
 20
-17.9933
 30
0.0
 10
-9.3613
 20
-17.9933
 30
0.0
 10
-9.3613
 20
-17.9933
 30
0.0
 10
-9.3613
 20
-17.9933
 30
0.0
 10
-9.3613
 20
-17.9933
 30
0.0
 10
-9.6419
 20
-18.0302
 30
0.0
 10
-9.6419
 20
-18.0302
 30
0.0
  0
SPLINE
  5
65
330
1F
100
AcDbEntity
  8
DEFAULT_1
 62
   250
100
AcDbSpline
210
0.0
220
0.0
230
1.0
 70
     8
 71
     3
 72
     8
 73
     4
 74
     0
 42
0.0000000001
 43
0.0000000001
 40
0.0
 40
0.0
 40
0.0
 40
0.0
 40
1.0
 40
1.0
 40
1.0
 40
1.0
 10
-9.6419
 20
-18.0302
 30
0.0
 10
-10.0174
 20
-18.1307
 30
0.0
 10
-10.3124
 20
-18.4311
 30
0.0
 10
-10.4113
 20
-18.8057
 30
0.0
  0
SPLINE
  5
66
330
1F
100
AcDbEntity
  8
DEFAULT_1
 62
   250
100
AcDbSpline
210
0.0
220
0.0
230
1.0
 70
     8
 71
     3
 72
    12
 73
     8
 74
     0
 42
0.0000000001
 43
0.0000000001
 40
0.0
 40
0.0
 40
0.0
 40
0.0
 40
0.3333333333333333
 40
0.3333333333333333
 40
0.3333333333333333
 40
0.3333333333333333
 40
1.0
 40
1.0
 40
1.0
 40
1.0
 10
-10.4113
 20
-19.3493
 30
0.0
 10
-10.4113
 20
-19.3493
 30
0.0
 10
-10.3005
 20
-19.6198
 30
0.0
 10
-10.3005
 20
-19.6198
 30
0.0
 10
-10.3005
 20
-19.6198
 30
0.0
 10
-10.3005
 20
-19.6198
 30
0.0
 10
-10.1282
 20
-19.8445
 30
0.0
 10
-10.1282
 20
-19.8445
 30
0.0
  0
SPLINE
  5
67
330
1F
100
AcDbEntity
  8
DEFAULT_1
 62
   250
100
AcDbSpline
210
0.0
220
0.0
230
1.0
 70
     8
 71
     3
 72
     8
 73
     4
 74
     0
 42
0.0000000001
 43
0.0000000001
 40
0.0
 40
0.0
 40
0.0
 40
0.0
 40
1.0
 40
1.0
 40
1.0
 40
1.0
 10
-10.1282
 20
-19.8445
 30
0.0
 10
-9.7353
 20
-20.2372
 30
0.0
 10
-9.2029
 20
-20.1621
 30
0.0
 10
-8.6941
 20
-20.1621
 30
0.0
  0
SPLINE
  5
68
330
1F
100
AcDbEntity
  8
DEFAULT_1
 62
   250
100
AcDbSpline
210
0.0
220
0.0
230
1.0
 70
    24
 71
     3
 72
     8
 73
     4
 74
     0
 42
0.0000000001
 43
0.0000000001
 40
0.0
 40
0.0
 40
0.0
 40
0.0
 40
1.0
 40
1.0
 40
1.0
 40
1.0
 10
-8.6941
 20
-20.1621
 30
0.0
 10
-8.6941
 20
-20.1621
 30
0.0
 10
-0.6865
 20
-20.1621
 30
0.0
 10
-0.6865
 20
-20.1621
 30
0.0
  0
SPLINE
  5
69
330
1F
100
AcDbEntity
  8
DEFAULT_1
 62
   250
100
AcDbSpline
210
0.0
220
0.0
230
1.0
 70
     8
 71
     3
 72
     8
 73
     4
 74
     0
 42
0.0000000001
 43
0.0000000001
 40
0.0
 40
0.0
 40
0.0
 40
0.0
 40
1.0
 40
1.0
 40
1.0
 40
1.0
 10
-0.6865
 20
-20.1621
 30
0.0
 10
-0.1776
 20
-20.1621
 30
0.0
 10
0.3548
 20
-20.2372
 30
0.0
 10
0.7475
 20
-19.8445
 30
0.0
  0
SPLINE
  5
6A
330
1F
100
AcDbEntity
  8
DEFAULT_1
 62
   250
100
AcDbSpline
210
0.0
220
0.0
230
1.0
 70
     8
 71
     3
 72
    12
 73
     8
 74
     0
 42
0.0000000001
 43
0.0000000001
 40
0.0
 40
0.0
 40
0.0
 40
0.0
 40
0.3333333333333333
 40
0.3333333333333333
 40
0.3333333333333333
 40
0.3333333333333333
 40
1.0
 40
1.0
 40
1.0
 40
1.0
 10
0.7475
 20
-19.8445
 30
0.0
 10
0.7475
 20
-19.8445
 30
0.0
 10
0.9199
 20
-19.6198
 30
0.0
 10
0.9199
 20
-19.6198
 30
0.0
 10
0.9199
 20
-19.6198
 30
0.0
 10
0.9199
 20
-19.6198
 30
0.0
 10
1.0305
 20
-19.3493
 30
0.0
 10
1.0305
 20
-19.3493
 30
0.0
  0
SPLINE
  5
6B
330
1F
100
AcDbEntity
  8
DEFAULT_1
 62
   250
100
AcDbSpline
210
0.0
220
0.0
230
1.0
 70
     8
 71
     3
 72
     8
 73
     4
 74
     0
 42
0.0000000001
 43
0.0000000001
 40
0.0
 40
0.0
 40
0.0
 40
0.0
 40
1.0
 40
1.0
 40
1.0
 40
1.0
 10
1.0265
 20
-19.3626
 30
0.0
 10
1.0785
 20
-19.237
 30
0.0
 10
1.0785
 20
-18.9182
 30
0.0
 10
1.0265
 20
-18.7924
 30
0.0
  0
SPLINE
  5
6C
330
1F
100
AcDbEntity
  8
DEFAULT_1
 62
   250
100
AcDbSpline
210
0.0
220
0.0
230
1.0
 70
     8
 71
     3
 72
     8
 73
     4
 74
     0
 42
0.0000000001
 43
0.0000000001
 40
0.0
 40
0.0
 40
0.0
 40
0.0
 40
1.0
 40
1.0
 40
1.0
 40
1.0
 10
-10.407
 20
-18.7924
 30
0.0
 10
-10.4589
 20
-18.9182
 30
0.0
 10
-10.4589
 20
-19.237
 30
0.0
 10
-10.407
 20
-19.3626
 30
0.0
  0
SPLINE
  5
6D
330
1F
100
AcDbEntity
  8
DEFAULT_1
 62
   250
100
AcDbSpline
210
0.0
220
0.0
230
1.0
 70
     8
 71
     3
 72
    12
 73
     8
 74
     0
 42
0.0000000001
 43
0.0000000001
 40
0.0
 40
0.0
 40
0.0
 40
0.0
 40
0.3333333333333333
 40
0.3333333333333333
 40
0.3333333333333333
 40
0.3333333333333333
 40
1.0
 40
1.0
 40
1.0
 40
1.0
 10
1.0305
 20
-14.1346
 30
0.0
 10
1.0305
 20
-14.1346
 30
0.0
 10
0.9199
 20
-13.8644
 30
0.0
 10
0.9199
 20
-13.8644
 30
0.0
 10
0.9199
 20
-13.8644
 30
0.0
 10
0.9199
 20
-13.8644
 30
0.0
 10
0.7475
 20
-13.6398
 30
0.0
 10
0.7475
 20
-13.6398
 30
0.0
  0
SPLINE
  5
6E
330
1F
100
AcDbEntity
  8
DEFAULT_1
 62
   250
100
AcDbSpline
210
0.0
220
0.0
230
1.0
 70
     8
 71
     3
 72
     8
 73
     4
 74
     0
 42
0.0000000001
 43
0.0000000001
 40
0.0
 40
0.0
 40
0.0
 40
0.0
 40
1.0
 40
1.0
 40
1.0
 40
1.0
 10
0.7475
 20
-13.6398
 30
0.0
 10
0.3548
 20
-13.247
 30
0.0
 10
-0.1776
 20
-13.3222
 30
0.0
 10
-0.6865
 20
-13.3222
 30
0.0
  0
SPLINE
  5
6F
330
1F
100
AcDbEntity
  8
DEFAULT_1
 62
   250
100
AcDbSpline
210
0.0
220
0.0
230
1.0
 70
     8
 71
     3
 72
    16
 73
    12
 74
     0
 42
0.0000000001
 43
0.0000000001
 40
0.0
 40
0.0
 40
0.0
 40
0.0
 40
0.25
 40
0.25
 40
0.25
 40
0.25
 40
0.5
 40
0.5
 40
0.5
 40
0.5
 40
1.0
 40
1.0
 40
1.0
 40
1.0
 10
-0.6865
 20
-13.3222
 30
0.0
 10
-0.6865
 20
-13.3222
 30
0.0
 10
-8.6941
 20
-13.3222
 30
0.0
 10
-8.6941
 20
-13.3222
 30
0.0
 10
-8.6941
 20
-13.3222
 30
0.0
 10
-8.6941
 20
-13.3222
 30
0.0
 10
-9.3613
 20
-13.3222
 30
0.0
 10
-9.3613
 20
-13.3222
 30
0.0
 10
-9.3613
 20
-13.3222
 30
0.0
 10
-9.3613
 20
-13.3222
 30
0.0
 10
-9.6419
 20
-13.3591
 30
0.0
 10
-9.6419
 20
-13.3591
 30
0.0
  0
SPLINE
  5
70
330
1F
100
AcDbEntity
  8
DEFAULT_1
 62
   250
100
AcDbSpline
210
0.0
220
0.0
230
1.0
 70
     8
 71
     3
 72
     8
 73
     4
 74
     0
 42
0.0000000001
 43
0.0000000001
 40
0.0
 40
0.0
 40
0.0
 40
0.0
 40
1.0
 40
1.0
 40
1.0
 40
1.0
 10
-9.6419
 20
-13.3591
 30
0.0
 10
-10.0174
 20
-13.4596
 30
0.0
 10
-10.3124
 20
-13.76
 30
0.0
 10
-10.4113
 20
-14.1346
 30
0.0
  0
SPLINE
  5
71
330
1F
100
AcDbEntity
  8
DEFAULT_1
 62
   250
100
AcDbSpline
210
0.0
220
0.0
230
1.0
 70
     8
 71
     3
 72
    12
 73
     8
 74
     0
 42
0.0000000001
 43
0.0000000001
 40
0.0
 40
0.0
 40
0.0
 40
0.0
 40
0.3333333333333333
 40
0.3333333333333333
 40
0.3333333333333333
 40
0.3333333333333333
 40
1.0
 40
1.0
 40
1.0
 40
1.0
 10
-10.4113
 20
-14.6782
 30
0.0
 10
-10.4113
 20
-14.6782
 30
0.0
 10
-10.3005
 20
-14.9487
 30
0.0
 10
-10.3005
 20
-14.9487
 30
0.0
 10
-10.3005
 20
-14.9487
 30
0.0
 10
-10.3005
 20
-14.9487
 30
0.0
 10
-10.1282
 20
-15.1732
 30
0.0
 10
-10.1282
 20
-15.1732
 30
0.0
  0
SPLINE
  5
72
330
1F
100
AcDbEntity
  8
DEFAULT_1
 62
   250
100
AcDbSpline
210
0.0
220
0.0
230
1.0
 70
     8
 71
     3
 72
     8
 73
     4
 74
     0
 42
0.0000000001
 43
0.0000000001
 40
0.0
 40
0.0
 40
0.0
 40
0.0
 40
1.0
 40
1.0
 40
1.0
 40
1.0
 10
-10.1282
 20
-15.1732
 30
0.0
 10
-9.7353
 20
-15.566
 30
0.0
 10
-9.2029
 20
-15.4908
 30
0.0
 10
-8.6941
 20
-15.4908
 30
0.0
  0
SPLINE
  5
73
330
1F
100
AcDbEntity
  8
DEFAULT_1
 62
   250
100
AcDbSpline
210
0.0
220
0.0
230
1.0
 70
    24
 71
     3
 72
     8
 73
     4
 74
     0
 42
0.0000000001
 43
0.0000000001
 40
0.0
 40
0.0
 40
0.0
 40
0.0
 40
1.0
 40
1.0
 40
1.0
 40
1.0
 10
-8.6941
 20
-15.4908
 30
0.0
 10
-8.6941
 20
-15.4908
 30
0.0
 10
-0.6865
 20
-15.4908
 30
0.0
 10
-0.6865
 20
-15.4908
 30
0.0
  0
SPLINE
  5
74
330
1F
100
AcDbEntity
  8
DEFAULT_1
 62
   250
100
AcDbSpline
210
0.0
220
0.0
230
1.0
 70
     8
 71
     3
 72
     8
 73
     4
 74
     0
 42
0.0000000001
 43
0.0000000001
 40
0.0
 40
0.0
 40
0.0
 40
0.0
 40
1.0
 40
1.0
 40
1.0
 40
1.0
 10
-0.6865
 20
-15.4908
 30
0.0
 10
-0.1776
 20
-15.4908
 30
0.0
 10
0.3548
 20
-15.566
 30
0.0
 10
0.7475
 20
-15.1732
 30
0.0
  0
SPLINE
  5
75
330
1F
100
AcDbEntity
  8
DEFAULT_1
 62
   250
100
AcDbSpline
210
0.0
220
0.0
230
1.0
 70
     8
 71
     3
 72
    12
 73
     8
 74
     0
 42
0.0000000001
 43
0.0000000001
 40
0.0
 40
0.0
 40
0.0
 40
0.0
 40
0.3333333333333333
 40
0.3333333333333333
 40
0.3333333333333333
 40
0.3333333333333333
 40
1.0
 40
1.0
 40
1.0
 40
1.0
 10
0.7475
 20
-15.1732
 30
0.0
 10
0.7475
 20
-15.1732
 30
0.0
 10
0.9199
 20
-14.9487
 30
0.0
 10
0.9199
 20
-14.9487
 30
0.0
 10
0.9199
 20
-14.9487
 30
0.0
 10
0.9199
 20
-14.9487
 30
0.0
 10
1.0305
 20
-14.6782
 30
0.0
 10
1.0305
 20
-14.6782
 30
0.0
  0
SPLINE
  5
76
330
1F
100
AcDbEntity
  8
DEFAULT_1
 62
   250
100
AcDbSpline
210
0.0
220
0.0
230
1.0
 70
     8
 71
     3
 72
     8
 73
     4
 74
     0
 42
0.0000000001
 43
0.0000000001
 40
0.0
 40
0.0
 40
0.0
 40
0.0
 40
1.0
 40
1.0
 40
1.0
 40
1.0
 10
1.0265
 20
-14.6915
 30
0.0
 10
1.0785
 20
-14.5659
 30
0.0
 10
1.0785
 20
-14.247
 30
0.0
 10
1.0265
 20
-14.1213
 30
0.0
  0
SPLINE
  5
77
330
1F
100
AcDbEntity
  8
DEFAULT_1
 62
   250
100
AcDbSpline
210
0.0
220
0.0
230
1.0
 70
     8
 71
     3
 72
     8
 73
     4
 74
     0
 42
0.0000000001
 43
0.0000000001
 40
0.0
 40
0.0
 40
0.0
 40
0.0
 40
1.0
 40
1.0
 40
1.0
 40
1.0
 10
-10.407
 20
-14.1213
 30
0.0
 10
-10.4589
 20
-14.247
 30
0.0
 10
-10.4589
 20
-14.5658
 30
0.0
 10
-10.407
 20
-14.6915
 30
0.0
  0
SPLINE
  5
78
330
1F
100
AcDbEntity
  8
DEFAULT_1
 62
   250
100
AcDbSpline
210
0.0
220
0.0
230
1.0
 70
     8
 71
     3
 72
    12
 73
     8
 74
     0
 42
0.0000000001
 43
0.0000000001
 40
0.0
 40
0.0
 40
0.0
 40
0.0
 40
0.3333333333333333
 40
0.3333333333333333
 40
0.3333333333333333
 40
0.3333333333333333
 40
1.0
 40
1.0
 40
1.0
 40
1.0
 10
1.0305
 20
-9.4635
 30
0.0
 10
1.0305
 20
-9.4635
 30
0.0
 10
0.9199
 20
-9.1932
 30
0.0
 10
0.9199
 20
-9.1932
 30
0.0
 10
0.9199
 20
-9.1932
 30
0.0
 10
0.9199
 20
-9.1932
 30
0.0
 10
0.7475
 20
-8.9686
 30
0.0
 10
0.7475
 20
-8.9686
 30
0.0
  0
SPLINE
  5
79
330
1F
100
AcDbEntity
  8
DEFAULT_1
 62
   250
100
AcDbSpline
210
0.0
220
0.0
230
1.0
 70
     8
 71
     3
 72
     8
 73
     4
 74
     0
 42
0.0000000001
 43
0.0000000001
 40
0.0
 40
0.0
 40
0.0
 40
0.0
 40
1.0
 40
1.0
 40
1.0
 40
1.0
 10
0.7475
 20
-8.9686
 30
0.0
 10
0.3548
 20
-8.5756
 30
0.0
 10
-0.1776
 20
-8.6511
 30
0.0
 10
-0.6865
 20
-8.6511
 30
0.0
  0
SPLINE
  5
7A
330
1F
100
AcDbEntity
  8
DEFAULT_1
 62
   250
100
AcDbSpline
210
0.0
220
0.0
230
1.0
 70
     8
 71
     3
 72
    16
 73
    12
 74
     0
 42
0.0000000001
 43
0.0000000001
 40
0.0
 40
0.0
 40
0.0
 40
0.0
 40
0.25
 40
0.25
 40
0.25
 40
0.25
 40
0.5
 40
0.5
 40
0.5
 40
0.5
 40
1.0
 40
1.0
 40
1.0
 40
1.0
 10
-0.6865
 20
-8.6511
 30
0.0
 10
-0.6865
 20
-8.6511
 30
0.0
 10
-8.6941
 20
-8.6511
 30
0.0
 10
-8.6941
 20
-8.6511
 30
0.0
 10
-8.6941
 20
-8.6511
 30
0.0
 10
-8.6941
 20
-8.6511
 30
0.0
 10
-9.3613
 20
-8.6511
 30
0.0
 10
-9.3613
 20
-8.6511
 30
0.0
 10
-9.3613
 20
-8.6511
 30
0.0
 10
-9.3613
 20
-8.6511
 30
0.0
 10
-9.6419
 20
-8.6879
 30
0.0
 10
-9.6419
 20
-8.6879
 30
0.0
  0
SPLINE
  5
7B
330
1F
100
AcDbEntity
  8
DEFAULT_1
 62
   250
100
AcDbSpline
210
0.0
220
0.0
230
1.0
 70
     8
 71
     3
 72
     8
 73
     4
 74
     0
 42
0.0000000001
 43
0.0000000001
 40
0.0
 40
0.0
 40
0.0
 40
0.0
 40
1.0
 40
1.0
 40
1.0
 40
1.0
 10
-9.6419
 20
-8.6879
 30
0.0
 10
-10.0174
 20
-8.7884
 30
0.0
 10
-10.3124
 20
-9.0888
 30
0.0
 10
-10.4113
 20
-9.4635
 30
0.0
  0
SPLINE
  5
7C
330
1F
100
AcDbEntity
  8
DEFAULT_1
 62
   250
100
AcDbSpline
210
0.0
220
0.0
230
1.0
 70
     8
 71
     3
 72
    12
 73
     8
 74
     0
 42
0.0000000001
 43
0.0000000001
 40
0.0
 40
0.0
 40
0.0
 40
0.0
 40
0.3333333333333333
 40
0.3333333333333333
 40
0.3333333333333333
 40
0.3333333333333333
 40
1.0
 40
1.0
 40
1.0
 40
1.0
 10
-10.4113
 20
-10.0071
 30
0.0
 10
-10.4113
 20
-10.0071
 30
0.0
 10
-10.3005
 20
-10.2775
 30
0.0
 10
-10.3005
 20
-10.2775
 30
0.0
 10
-10.3005
 20
-10.2775
 30
0.0
 10
-10.3005
 20
-10.2775
 30
0.0
 10
-10.1282
 20
-10.5021
 30
0.0
 10
-10.1282
 20
-10.5021
 30
0.0
  0
SPLINE
  5
7D
330
1F
100
AcDbEntity
  8
DEFAULT_1
 62
   250
100
AcDbSpline
210
0.0
220
0.0
230
1.0
 70
     8
 71
     3
 72
     8
 73
     4
 74
     0
 42
0.0000000001
 43
0.0000000001
 40
0.0
 40
0.0
 40
0.0
 40
0.0
 40
1.0
 40
1.0
 40
1.0
 40
1.0
 10
-10.1282
 20
-10.5021
 30
0.0
 10
-9.7353
 20
-10.8949
 30
0.0
 10
-9.2029
 20
-10.8197
 30
0.0
 10
-8.6941
 20
-10.8197
 30
0.0
  0
SPLINE
  5
7E
330
1F
100
AcDbEntity
  8
DEFAULT_1
 62
   250
100
AcDbSpline
210
0.0
220
0.0
230
1.0
 70
    24
 71
     3
 72
     8
 73
     4
 74
     0
 42
0.0000000001
 43
0.0000000001
 40
0.0
 40
0.0
 40
0.0
 40
0.0
 40
1.0
 40
1.0
 40
1.0
 40
1.0
 10
-8.6941
 20
-10.8197
 30
0.0
 10
-8.6941
 20
-10.8197
 30
0.0
 10
-0.6865
 20
-10.8197
 30
0.0
 10
-0.6865
 20
-10.8197
 30
0.0
  0
SPLINE
  5
7F
330
1F
100
AcDbEntity
  8
DEFAULT_1
 62
   250
100
AcDbSpline
210
0.0
220
0.0
230
1.0
 70
     8
 71
     3
 72
     8
 73
     4
 74
     0
 42
0.0000000001
 43
0.0000000001
 40
0.0
 40
0.0
 40
0.0
 40
0.0
 40
1.0
 40
1.0
 40
1.0
 40
1.0
 10
-0.6865
 20
-10.8197
 30
0.0
 10
-0.1776
 20
-10.8197
 30
0.0
 10
0.3548
 20
-10.8949
 30
0.0
 10
0.7475
 20
-10.5021
 30
0.0
  0
SPLINE
  5
80
330
1F
100
AcDbEntity
  8
DEFAULT_1
 62
   250
100
AcDbSpline
210
0.0
220
0.0
230
1.0
 70
     8
 71
     3
 72
    12
 73
     8
 74
     0
 42
0.0000000001
 43
0.0000000001
 40
0.0
 40
0.0
 40
0.0
 40
0.0
 40
0.3333333333333333
 40
0.3333333333333333
 40
0.3333333333333333
 40
0.3333333333333333
 40
1.0
 40
1.0
 40
1.0
 40
1.0
 10
0.7475
 20
-10.5021
 30
0.0
 10
0.7475
 20
-10.5021
 30
0.0
 10
0.9199
 20
-10.2775
 30
0.0
 10
0.9199
 20
-10.2775
 30
0.0
 10
0.9199
 20
-10.2775
 30
0.0
 10
0.9199
 20
-10.2775
 30
0.0
 10
1.0305
 20
-10.0071
 30
0.0
 10
1.0305
 20
-10.0071
 30
0.0
  0
SPLINE
  5
81
330
1F
100
AcDbEntity
  8
DEFAULT_1
 62
   250
100
AcDbSpline
210
0.0
220
0.0
230
1.0
 70
     8
 71
     3
 72
     8
 73
     4
 74
     0
 42
0.0000000001
 43
0.0000000001
 40
0.0
 40
0.0
 40
0.0
 40
0.0
 40
1.0
 40
1.0
 40
1.0
 40
1.0
 10
1.0265
 20
-10.0204
 30
0.0
 10
1.0785
 20
-9.8947
 30
0.0
 10
1.0785
 20
-9.576
 30
0.0
 10
1.0265
 20
-9.4502
 30
0.0
  0
SPLINE
  5
82
330
1F
100
AcDbEntity
  8
DEFAULT_1
 62
   250
100
AcDbSpline
210
0.0
220
0.0
230
1.0
 70
     8
 71
     3
 72
     8
 73
     4
 74
     0
 42
0.0000000001
 43
0.0000000001
 40
0.0
 40
0.0
 40
0.0
 40
0.0
 40
1.0
 40
1.0
 40
1.0
 40
1.0
 10
-10.407
 20
-9.4502
 30
0.0
 10
-10.4589
 20
-9.576
 30
0.0
 10
-10.459
 20
-9.8947
 30
0.0
 10
-10.407
 20
-10.0204
 30
0.0
  0
SPLINE
  5
83
330
1F
100
AcDbEntity
  8
DEFAULT_1
 62
   250
100
AcDbSpline
210
0.0
220
0.0
230
1.0
 70
     8
 71
     3
 72
    12
 73
     8
 74
     0
 42
0.0000000001
 43
0.0000000001
 40
0.0
 40
0.0
 40
0.0
 40
0.0
 40
0.3333333333333333
 40
0.3333333333333333
 40
0.3333333333333333
 40
0.3333333333333333
 40
1.0
 40
1.0
 40
1.0
 40
1.0
 10
6.2585
 20
-20.1273
 30
0.0
 10
6.2585
 20
-20.1273
 30
0.0
 10
6.5287
 20
-20.0168
 30
0.0
 10
6.5287
 20
-20.0168
 30
0.0
 10
6.5287
 20
-20.0168
 30
0.0
 10
6.5287
 20
-20.0168
 30
0.0
 10
6.7533
 20
-19.8445
 30
0.0
 10
6.7533
 20
-19.8445
 30
0.0
  0
SPLINE
  5
84
330
1F
100
AcDbEntity
  8
DEFAULT_1
 62
   250
100
AcDbSpline
210
0.0
220
0.0
230
1.0
 70
     8
 71
     3
 72
     8
 73
     4
 74
     0
 42
0.0000000001
 43
0.0000000001
 40
0.0
 40
0.0
 40
0.0
 40
0.0
 40
1.0
 40
1.0
 40
1.0
 40
1.0
 10
6.7533
 20
-19.8445
 30
0.0
 10
7.1461
 20
-19.4515
 30
0.0
 10
7.071
 20
-18.9192
 30
0.0
 10
7.071
 20
-18.4103
 30
0.0
  0
SPLINE
  5
85
330
1F
100
AcDbEntity
  8
DEFAULT_1
 62
   250
100
AcDbSpline
210
0.0
220
0.0
230
1.0
 70
    24
 71
     3
 72
     8
 73
     4
 74
     0
 42
0.0000000001
 43
0.0000000001
 40
0.0
 40
0.0
 40
0.0
 40
0.0
 40
1.0
 40
1.0
 40
1.0
 40
1.0
 10
7.071
 20
-18.4103
 30
0.0
 10
7.071
 20
-18.4103
 30
0.0
 10
7.071
 20
-10.4025
 30
0.0
 10
7.071
 20
-10.4025
 30
0.0
  0
SPLINE
  5
86
330
1F
100
AcDbEntity
  8
DEFAULT_1
 62
   250
100
AcDbSpline
210
0.0
220
0.0
230
1.0
 70
     8
 71
     3
 72
     8
 73
     4
 74
     0
 42
0.0000000001
 43
0.0000000001
 40
0.0
 40
0.0
 40
0.0
 40
0.0
 40
1.0
 40
1.0
 40
1.0
 40
1.0
 10
7.071
 20
-10.4025
 30
0.0
 10
7.071
 20
-9.8938
 30
0.0
 10
7.1461
 20
-9.3613
 30
0.0
 10
6.7533
 20
-8.9686
 30
0.0
  0
SPLINE
  5
87
330
1F
100
AcDbEntity
  8
DEFAULT_1
 62
   250
100
AcDbSpline
210
0.0
220
0.0
230
1.0
 70
     8
 71
     3
 72
    12
 73
     8
 74
     0
 42
0.0000000001
 43
0.0000000001
 40
0.0
 40
0.0
 40
0.0
 40
0.0
 40
0.3333333333333333
 40
0.3333333333333333
 40
0.3333333333333333
 40
0.3333333333333333
 40
1.0
 40
1.0
 40
1.0
 40
1.0
 10
6.7533
 20
-8.9686
 30
0.0
 10
6.7533
 20
-8.9686
 30
0.0
 10
6.5287
 20
-8.7963
 30
0.0
 10
6.5287
 20
-8.7963
 30
0.0
 10
6.5287
 20
-8.7963
 30
0.0
 10
6.5287
 20
-8.7963
 30
0.0
 10
6.2585
 20
-8.6857
 30
0.0
 10
6.2585
 20
-8.6857
 30
0.0
  0
SPLINE
  5
88
330
1F
100
AcDbEntity
  8
DEFAULT_1
 62
   250
100
AcDbSpline
210
0.0
220
0.0
230
1.0
 70
     8
 71
     3
 72
    12
 73
     8
 74
     0
 42
0.0000000001
 43
0.0000000001
 40
0.0
 40
0.0
 40
0.0
 40
0.0
 40
0.3333333333333333
 40
0.3333333333333333
 40
0.3333333333333333
 40
0.3333333333333333
 40
1.0
 40
1.0
 40
1.0
 40
1.0
 10
6.2718
 20
-8.6897
 30
0.0
 10
6.2718
 20
-8.6897
 30
0.0
 10
5.9865
 20
-8.6511
 30
0.0
 10
5.9865
 20
-8.6511
 30
0.0
 10
5.9865
 20
-8.6511
 30
0.0
 10
5.9865
 20
-8.6511
 30
0.0
 10
5.7016
 20
-8.6897
 30
0.0
 10
5.7016
 20
-8.6897
 30
0.0
  0
SPLINE
  5
89
330
1F
100
AcDbEntity
  8
DEFAULT_1
 62
   250
100
AcDbSpline
210
0.0
220
0.0
230
1.0
 70
     8
 71
     3
 72
    12
 73
     8
 74
     0
 42
0.0000000001
 43
0.0000000001
 40
0.0
 40
0.0
 40
0.0
 40
0.0
 40
0.3333333333333333
 40
0.3333333333333333
 40
0.3333333333333333
 40
0.3333333333333333
 40
1.0
 40
1.0
 40
1.0
 40
1.0
 10
5.7147
 20
-8.6857
 30
0.0
 10
5.7147
 20
-8.6857
 30
0.0
 10
5.4444
 20
-8.7963
 30
0.0
 10
5.4444
 20
-8.7963
 30
0.0
 10
5.4444
 20
-8.7963
 30
0.0
 10
5.4444
 20
-8.7963
 30
0.0
 10
5.2197
 20
-8.9686
 30
0.0
 10
5.2197
 20
-8.9686
 30
0.0
  0
SPLINE
  5
8A
330
1F
100
AcDbEntity
  8
DEFAULT_1
 62
   250
100
AcDbSpline
210
0.0
220
0.0
230
1.0
 70
     8
 71
     3
 72
     8
 73
     4
 74
     0
 42
0.0000000001
 43
0.0000000001
 40
0.0
 40
0.0
 40
0.0
 40
0.0
 40
1.0
 40
1.0
 40
1.0
 40
1.0
 10
5.2197
 20
-8.9686
 30
0.0
 10
4.827
 20
-9.3613
 30
0.0
 10
4.9023
 20
-9.8938
 30
0.0
 10
4.9023
 20
-10.4025
 30
0.0
  0
SPLINE
  5
8B
330
1F
100
AcDbEntity
  8
DEFAULT_1
 62
   250
100
AcDbSpline
210
0.0
220
0.0
230
1.0
 70
    24
 71
     3
 72
     8
 73
     4
 74
     0
 42
0.0000000001
 43
0.0000000001
 40
0.0
 40
0.0
 40
0.0
 40
0.0
 40
1.0
 40
1.0
 40
1.0
 40
1.0
 10
4.9023
 20
-10.4025
 30
0.0
 10
4.9023
 20
-10.4025
 30
0.0
 10
4.9023
 20
-18.4103
 30
0.0
 10
4.9023
 20
-18.4103
 30
0.0
  0
SPLINE
  5
8C
330
1F
100
AcDbEntity
  8
DEFAULT_1
 62
   250
100
AcDbSpline
210
0.0
220
0.0
230
1.0
 70
     8
 71
     3
 72
     8
 73
     4
 74
     0
 42
0.0000000001
 43
0.0000000001
 40
0.0
 40
0.0
 40
0.0
 40
0.0
 40
1.0
 40
1.0
 40
1.0
 40
1.0
 10
4.9023
 20
-18.4103
 30
0.0
 10
4.9023
 20
-18.9192
 30
0.0
 10
4.827
 20
-19.4515
 30
0.0
 10
5.2197
 20
-19.8445
 30
0.0
  0
SPLINE
  5
8D
330
1F
100
AcDbEntity
  8
DEFAULT_1
 62
   250
100
AcDbSpline
210
0.0
220
0.0
230
1.0
 70
     8
 71
     3
 72
    12
 73
     8
 74
     0
 42
0.0000000001
 43
0.0000000001
 40
0.0
 40
0.0
 40
0.0
 40
0.0
 40
0.3333333333333333
 40
0.3333333333333333
 40
0.3333333333333333
 40
0.3333333333333333
 40
1.0
 40
1.0
 40
1.0
 40
1.0
 10
5.2197
 20
-19.8445
 30
0.0
 10
5.2197
 20
-19.8445
 30
0.0
 10
5.4444
 20
-20.0168
 30
0.0
 10
5.4444
 20
-20.0168
 30
0.0
 10
5.4444
 20
-20.0168
 30
0.0
 10
5.4444
 20
-20.0168
 30
0.0
 10
5.7147
 20
-20.1273
 30
0.0
 10
5.7147
 20
-20.1273
 30
0.0
  0
SPLINE
  5
8E
330
1F
100
AcDbEntity
  8
DEFAULT_1
 62
   250
100
AcDbSpline
210
0.0
220
0.0
230
1.0
 70
     8
 71
     3
 72
     8
 73
     4
 74
     0
 42
0.0000000001
 43
0.0000000001
 40
0.0
 40
0.0
 40
0.0
 40
0.0
 40
1.0
 40
1.0
 40
1.0
 40
1.0
 10
5.7016
 20
-20.1231
 30
0.0
 10
5.8272
 20
-20.1753
 30
0.0
 10
6.1458
 20
-20.1754
 30
0.0
 10
6.2718
 20
-20.1231
 30
0.0
  0
SPLINE
  5
8F
330
1F
100
AcDbEntity
  8
DEFAULT_1
 62
   250
100
AcDbSpline
210
0.0
220
0.0
230
1.0
 70
     8
 71
     3
 72
    12
 73
     8
 74
     0
 42
0.0000000001
 43
0.0000000001
 40
0.0
 40
0.0
 40
0.0
 40
0.0
 40
0.3333333333333333
 40
0.3333333333333333
 40
0.3333333333333333
 40
0.3333333333333333
 40
1.0
 40
1.0
 40
1.0
 40
1.0
 10
10.9296
 20
-20.1273
 30
0.0
 10
10.9296
 20
-20.1273
 30
0.0
 10
11.1998
 20
-20.0168
 30
0.0
 10
11.1998
 20
-20.0168
 30
0.0
 10
11.1998
 20
-20.0168
 30
0.0
 10
11.1998
 20
-20.0168
 30
0.0
 10
11.4244
 20
-19.8445
 30
0.0
 10
11.4244
 20
-19.8445
 30
0.0
  0
SPLINE
  5
90
330
1F
100
AcDbEntity
  8
DEFAULT_1
 62
   250
100
AcDbSpline
210
0.0
220
0.0
230
1.0
 70
     8
 71
     3
 72
     8
 73
     4
 74
     0
 42
0.0000000001
 43
0.0000000001
 40
0.0
 40
0.0
 40
0.0
 40
0.0
 40
1.0
 40
1.0
 40
1.0
 40
1.0
 10
11.4244
 20
-19.8445
 30
0.0
 10
11.8172
 20
-19.4515
 30
0.0
 10
11.7421
 20
-18.9192
 30
0.0
 10
11.7421
 20
-18.4103
 30
0.0
  0
SPLINE
  5
91
330
1F
100
AcDbEntity
  8
DEFAULT_1
 62
   250
100
AcDbSpline
210
0.0
220
0.0
230
1.0
 70
    24
 71
     3
 72
     8
 73
     4
 74
     0
 42
0.0000000001
 43
0.0000000001
 40
0.0
 40
0.0
 40
0.0
 40
0.0
 40
1.0
 40
1.0
 40
1.0
 40
1.0
 10
11.7421
 20
-18.4103
 30
0.0
 10
11.7421
 20
-18.4103
 30
0.0
 10
11.7421
 20
-10.4025
 30
0.0
 10
11.7421
 20
-10.4025
 30
0.0
  0
SPLINE
  5
92
330
1F
100
AcDbEntity
  8
DEFAULT_1
 62
   250
100
AcDbSpline
210
0.0
220
0.0
230
1.0
 70
     8
 71
     3
 72
     8
 73
     4
 74
     0
 42
0.0000000001
 43
0.0000000001
 40
0.0
 40
0.0
 40
0.0
 40
0.0
 40
1.0
 40
1.0
 40
1.0
 40
1.0
 10
11.7421
 20
-10.4025
 30
0.0
 10
11.7421
 20
-9.8938
 30
0.0
 10
11.8172
 20
-9.3613
 30
0.0
 10
11.4244
 20
-8.9686
 30
0.0
  0
SPLINE
  5
93
330
1F
100
AcDbEntity
  8
DEFAULT_1
 62
   250
100
AcDbSpline
210
0.0
220
0.0
230
1.0
 70
     8
 71
     3
 72
    12
 73
     8
 74
     0
 42
0.0000000001
 43
0.0000000001
 40
0.0
 40
0.0
 40
0.0
 40
0.0
 40
0.3333333333333333
 40
0.3333333333333333
 40
0.3333333333333333
 40
0.3333333333333333
 40
1.0
 40
1.0
 40
1.0
 40
1.0
 10
11.4244
 20
-8.9686
 30
0.0
 10
11.4244
 20
-8.9686
 30
0.0
 10
11.1998
 20
-8.7963
 30
0.0
 10
11.1998
 20
-8.7963
 30
0.0
 10
11.1998
 20
-8.7963
 30
0.0
 10
11.1998
 20
-8.7963
 30
0.0
 10
10.9296
 20
-8.6857
 30
0.0
 10
10.9296
 20
-8.6857
 30
0.0
  0
SPLINE
  5
94
330
1F
100
AcDbEntity
  8
DEFAULT_1
 62
   250
100
AcDbSpline
210
0.0
220
0.0
230
1.0
 70
     8
 71
     3
 72
    12
 73
     8
 74
     0
 42
0.0000000001
 43
0.0000000001
 40
0.0
 40
0.0
 40
0.0
 40
0.0
 40
0.3333333333333333
 40
0.3333333333333333
 40
0.3333333333333333
 40
0.3333333333333333
 40
1.0
 40
1.0
 40
1.0
 40
1.0
 10
10.9429
 20
-8.6897
 30
0.0
 10
10.9429
 20
-8.6897
 30
0.0
 10
10.6577
 20
-8.6511
 30
0.0
 10
10.6577
 20
-8.6511
 30
0.0
 10
10.6577
 20
-8.6511
 30
0.0
 10
10.6577
 20
-8.6511
 30
0.0
 10
10.3727
 20
-8.6897
 30
0.0
 10
10.3727
 20
-8.6897
 30
0.0
  0
SPLINE
  5
95
330
1F
100
AcDbEntity
  8
DEFAULT_1
 62
   250
100
AcDbSpline
210
0.0
220
0.0
230
1.0
 70
     8
 71
     3
 72
    12
 73
     8
 74
     0
 42
0.0000000001
 43
0.0000000001
 40
0.0
 40
0.0
 40
0.0
 40
0.0
 40
0.3333333333333333
 40
0.3333333333333333
 40
0.3333333333333333
 40
0.3333333333333333
 40
1.0
 40
1.0
 40
1.0
 40
1.0
 10
10.3858
 20
-8.6857
 30
0.0
 10
10.3858
 20
-8.6857
 30
0.0
 10
10.1155
 20
-8.7963
 30
0.0
 10
10.1155
 20
-8.7963
 30
0.0
 10
10.1155
 20
-8.7963
 30
0.0
 10
10.1155
 20
-8.7963
 30
0.0
 10
9.8908
 20
-8.9686
 30
0.0
 10
9.8908
 20
-8.9686
 30
0.0
  0
SPLINE
  5
96
330
1F
100
AcDbEntity
  8
DEFAULT_1
 62
   250
100
AcDbSpline
210
0.0
220
0.0
230
1.0
 70
     8
 71
     3
 72
     8
 73
     4
 74
     0
 42
0.0000000001
 43
0.0000000001
 40
0.0
 40
0.0
 40
0.0
 40
0.0
 40
1.0
 40
1.0
 40
1.0
 40
1.0
 10
9.8908
 20
-8.9686
 30
0.0
 10
9.4982
 20
-9.3613
 30
0.0
 10
9.5734
 20
-9.8938
 30
0.0
 10
9.5734
 20
-10.4025
 30
0.0
  0
SPLINE
  5
97
330
1F
100
AcDbEntity
  8
DEFAULT_1
 62
   250
100
AcDbSpline
210
0.0
220
0.0
230
1.0
 70
    24
 71
     3
 72
     8
 73
     4
 74
     0
 42
0.0000000001
 43
0.0000000001
 40
0.0
 40
0.0
 40
0.0
 40
0.0
 40
1.0
 40
1.0
 40
1.0
 40
1.0
 10
9.5734
 20
-10.4025
 30
0.0
 10
9.5734
 20
-10.4025
 30
0.0
 10
9.5734
 20
-18.4103
 30
0.0
 10
9.5734
 20
-18.4103
 30
0.0
  0
SPLINE
  5
98
330
1F
100
AcDbEntity
  8
DEFAULT_1
 62
   250
100
AcDbSpline
210
0.0
220
0.0
230
1.0
 70
     8
 71
     3
 72
     8
 73
     4
 74
     0
 42
0.0000000001
 43
0.0000000001
 40
0.0
 40
0.0
 40
0.0
 40
0.0
 40
1.0
 40
1.0
 40
1.0
 40
1.0
 10
9.5734
 20
-18.4103
 30
0.0
 10
9.5734
 20
-18.9192
 30
0.0
 10
9.4982
 20
-19.4515
 30
0.0
 10
9.8908
 20
-19.8445
 30
0.0
  0
SPLINE
  5
99
330
1F
100
AcDbEntity
  8
DEFAULT_1
 62
   250
100
AcDbSpline
210
0.0
220
0.0
230
1.0
 70
     8
 71
     3
 72
    12
 73
     8
 74
     0
 42
0.0000000001
 43
0.0000000001
 40
0.0
 40
0.0
 40
0.0
 40
0.0
 40
0.3333333333333333
 40
0.3333333333333333
 40
0.3333333333333333
 40
0.3333333333333333
 40
1.0
 40
1.0
 40
1.0
 40
1.0
 10
9.8908
 20
-19.8445
 30
0.0
 10
9.8908
 20
-19.8445
 30
0.0
 10
10.1155
 20
-20.0168
 30
0.0
 10
10.1155
 20
-20.0168
 30
0.0
 10
10.1155
 20
-20.0168
 30
0.0
 10
10.1155
 20
-20.0168
 30
0.0
 10
10.3858
 20
-20.1273
 30
0.0
 10
10.3858
 20
-20.1273
 30
0.0
  0
SPLINE
  5
9A
330
1F
100
AcDbEntity
  8
DEFAULT_1
 62
   250
100
AcDbSpline
210
0.0
220
0.0
230
1.0
 70
     8
 71
     3
 72
     8
 73
     4
 74
     0
 42
0.0000000001
 43
0.0000000001
 40
0.0
 40
0.0
 40
0.0
 40
0.0
 40
1.0
 40
1.0
 40
1.0
 40
1.0
 10
10.3727
 20
-20.1231
 30
0.0
 10
10.4987
 20
-20.1754
 30
0.0
 10
10.8169
 20
-20.1753
 30
0.0
 10
10.9429
 20
-20.1231
 30
0.0
  0
SPLINE
  5
9B
330
1F
100
AcDbEntity
  8
DEFAULT_1
 62
   250
100
AcDbSpline
210
0.0
220
0.0
230
1.0
 70
     8
 71
     3
 72
    12
 73
     8
 74
     0
 42
0.0000000001
 43
0.0000000001
 40
0.0
 40
0.0
 40
0.0
 40
0.0
 40
0.3333333333333333
 40
0.3333333333333333
 40
0.3333333333333333
 40
0.3333333333333333
 40
1.0
 40
1.0
 40
1.0
 40
1.0
 10
15.6007
 20
-20.1273
 30
0.0
 10
15.6007
 20
-20.1273
 30
0.0
 10
15.871
 20
-20.0168
 30
0.0
 10
15.871
 20
-20.0168
 30
0.0
 10
15.871
 20
-20.0168
 30
0.0
 10
15.871
 20
-20.0168
 30
0.0
 10
16.0955
 20
-19.8445
 30
0.0
 10
16.0955
 20
-19.8445
 30
0.0
  0
SPLINE
  5
9C
330
1F
100
AcDbEntity
  8
DEFAULT_1
 62
   250
100
AcDbSpline
210
0.0
220
0.0
230
1.0
 70
     8
 71
     3
 72
     8
 73
     4
 74
     0
 42
0.0000000001
 43
0.0000000001
 40
0.0
 40
0.0
 40
0.0
 40
0.0
 40
1.0
 40
1.0
 40
1.0
 40
1.0
 10
16.0955
 20
-19.8445
 30
0.0
 10
16.4883
 20
-19.4515
 30
0.0
 10
16.4133
 20
-18.9192
 30
0.0
 10
16.4133
 20
-18.4103
 30
0.0
  0
SPLINE
  5
9D
330
1F
100
AcDbEntity
  8
DEFAULT_1
 62
   250
100
AcDbSpline
210
0.0
220
0.0
230
1.0
 70
    24
 71
     3
 72
     8
 73
     4
 74
     0
 42
0.0000000001
 43
0.0000000001
 40
0.0
 40
0.0
 40
0.0
 40
0.0
 40
1.0
 40
1.0
 40
1.0
 40
1.0
 10
16.4133
 20
-18.4103
 30
0.0
 10
16.4133
 20
-18.4103
 30
0.0
 10
16.4133
 20
-10.4025
 30
0.0
 10
16.4133
 20
-10.4025
 30
0.0
  0
SPLINE
  5
9E
330
1F
100
AcDbEntity
  8
DEFAULT_1
 62
   250
100
AcDbSpline
210
0.0
220
0.0
230
1.0
 70
     8
 71
     3
 72
     8
 73
     4
 74
     0
 42
0.0000000001
 43
0.0000000001
 40
0.0
 40
0.0
 40
0.0
 40
0.0
 40
1.0
 40
1.0
 40
1.0
 40
1.0
 10
16.4133
 20
-10.4025
 30
0.0
 10
16.4133
 20
-9.8938
 30
0.0
 10
16.4883
 20
-9.3613
 30
0.0
 10
16.0955
 20
-8.9686
 30
0.0
  0
SPLINE
  5
9F
330
1F
100
AcDbEntity
  8
DEFAULT_1
 62
   250
100
AcDbSpline
210
0.0
220
0.0
230
1.0
 70
     8
 71
     3
 72
    12
 73
     8
 74
     0
 42
0.0000000001
 43
0.0000000001
 40
0.0
 40
0.0
 40
0.0
 40
0.0
 40
0.3333333333333333
 40
0.3333333333333333
 40
0.3333333333333333
 40
0.3333333333333333
 40
1.0
 40
1.0
 40
1.0
 40
1.0
 10
16.0955
 20
-8.9686
 30
0.0
 10
16.0955
 20
-8.9686
 30
0.0
 10
15.871
 20
-8.7963
 30
0.0
 10
15.871
 20
-8.7963
 30
0.0
 10
15.871
 20
-8.7963
 30
0.0
 10
15.871
 20
-8.7963
 30
0.0
 10
15.6007
 20
-8.6857
 30
0.0
 10
15.6007
 20
-8.6857
 30
0.0
  0
SPLINE
  5
A0
330
1F
100
AcDbEntity
  8
DEFAULT_1
 62
   250
100
AcDbSpline
210
0.0
220
0.0
230
1.0
 70
     8
 71
     3
 72
    12
 73
     8
 74
     0
 42
0.0000000001
 43
0.0000000001
 40
0.0
 40
0.0
 40
0.0
 40
0.0
 40
0.3333333333333333
 40
0.3333333333333333
 40
0.3333333333333333
 40
0.3333333333333333
 40
1.0
 40
1.0
 40
1.0
 40
1.0
 10
15.614
 20
-8.6897
 30
0.0
 10
15.614
 20
-8.6897
 30
0.0
 10
15.3288
 20
-8.6511
 30
0.0
 10
15.3288
 20
-8.6511
 30
0.0
 10
15.3288
 20
-8.6511
 30
0.0
 10
15.3288
 20
-8.6511
 30
0.0
 10
15.0438
 20
-8.6897
 30
0.0
 10
15.0438
 20
-8.6897
 30
0.0
  0
SPLINE
  5
A1
330
1F
100
AcDbEntity
  8
DEFAULT_1
 62
   250
100
AcDbSpline
210
0.0
220
0.0
230
1.0
 70
     8
 71
     3
 72
    12
 73
     8
 74
     0
 42
0.0000000001
 43
0.0000000001
 40
0.0
 40
0.0
 40
0.0
 40
0.0
 40
0.3333333333333333
 40
0.3333333333333333
 40
0.3333333333333333
 40
0.3333333333333333
 40
1.0
 40
1.0
 40
1.0
 40
1.0
 10
15.0569
 20
-8.6857
 30
0.0
 10
15.0569
 20
-8.6857
 30
0.0
 10
14.7867
 20
-8.7963
 30
0.0
 10
14.7867
 20
-8.7963
 30
0.0
 10
14.7867
 20
-8.7963
 30
0.0
 10
14.7867
 20
-8.7963
 30
0.0
 10
14.562
 20
-8.9686
 30
0.0
 10
14.562
 20
-8.9686
 30
0.0
  0
SPLINE
  5
A2
330
1F
100
AcDbEntity
  8
DEFAULT_1
 62
   250
100
AcDbSpline
210
0.0
220
0.0
230
1.0
 70
     8
 71
     3
 72
     8
 73
     4
 74
     0
 42
0.0000000001
 43
0.0000000001
 40
0.0
 40
0.0
 40
0.0
 40
0.0
 40
1.0
 40
1.0
 40
1.0
 40
1.0
 10
14.562
 20
-8.9686
 30
0.0
 10
14.1693
 20
-9.3613
 30
0.0
 10
14.2445
 20
-9.8938
 30
0.0
 10
14.2445
 20
-10.4025
 30
0.0
  0
SPLINE
  5
A3
330
1F
100
AcDbEntity
  8
DEFAULT_1
 62
   250
100
AcDbSpline
210
0.0
220
0.0
230
1.0
 70
    24
 71
     3
 72
     8
 73
     4
 74
     0
 42
0.0000000001
 43
0.0000000001
 40
0.0
 40
0.0
 40
0.0
 40
0.0
 40
1.0
 40
1.0
 40
1.0
 40
1.0
 10
14.2445
 20
-10.4025
 30
0.0
 10
14.2445
 20
-10.4025
 30
0.0
 10
14.2445
 20
-18.4103
 30
0.0
 10
14.2445
 20
-18.4103
 30
0.0
  0
SPLINE
  5
A4
330
1F
100
AcDbEntity
  8
DEFAULT_1
 62
   250
100
AcDbSpline
210
0.0
220
0.0
230
1.0
 70
     8
 71
     3
 72
     8
 73
     4
 74
     0
 42
0.0000000001
 43
0.0000000001
 40
0.0
 40
0.0
 40
0.0
 40
0.0
 40
1.0
 40
1.0
 40
1.0
 40
1.0
 10
14.2445
 20
-18.4103
 30
0.0
 10
14.2445
 20
-18.9192
 30
0.0
 10
14.1693
 20
-19.4515
 30
0.0
 10
14.562
 20
-19.8445
 30
0.0
  0
SPLINE
  5
A5
330
1F
100
AcDbEntity
  8
DEFAULT_1
 62
   250
100
AcDbSpline
210
0.0
220
0.0
230
1.0
 70
     8
 71
     3
 72
    12
 73
     8
 74
     0
 42
0.0000000001
 43
0.0000000001
 40
0.0
 40
0.0
 40
0.0
 40
0.0
 40
0.3333333333333333
 40
0.3333333333333333
 40
0.3333333333333333
 40
0.3333333333333333
 40
1.0
 40
1.0
 40
1.0
 40
1.0
 10
14.562
 20
-19.8445
 30
0.0
 10
14.562
 20
-19.8445
 30
0.0
 10
14.7867
 20
-20.0168
 30
0.0
 10
14.7867
 20
-20.0168
 30
0.0
 10
14.7867
 20
-20.0168
 30
0.0
 10
14.7867
 20
-20.0168
 30
0.0
 10
15.0569
 20
-20.1273
 30
0.0
 10
15.0569
 20
-20.1273
 30
0.0
  0
SPLINE
  5
A6
330
1F
100
AcDbEntity
  8
DEFAULT_1
 62
   250
100
AcDbSpline
210
0.0
220
0.0
230
1.0
 70
     8
 71
     3
 72
     8
 73
     4
 74
     0
 42
0.0000000001
 43
0.0000000001
 40
0.0
 40
0.0
 40
0.0
 40
0.0
 40
1.0
 40
1.0
 40
1.0
 40
1.0
 10
15.0438
 20
-20.1231
 30
0.0
 10
15.1695
 20
-20.1753
 30
0.0
 10
15.4881
 20
-20.1754
 30
0.0
 10
15.614
 20
-20.1231
 30
0.0
  0
SPLINE
  5
A7
330
1F
100
AcDbEntity
  8
DEFAULT_1
 62
   250
100
AcDbSpline
210
0.0
220
0.0
230
1.0
 70
    24
 71
     3
 72
     8
 73
     4
 74
     0
 42
0.0000000001
 43
0.0000000001
 40
0.0
 40
0.0
 40
0.0
 40
0.0
 40
1.0
 40
1.0
 40
1.0
 40
1.0
 10
-14.6998
 20
-21.9963
 30
0.0
 10
-14.6998
 20
-21.9963
 30
0.0
 10
-14.0326
 20
-21.9963
 30
0.0
 10
-14.0326
 20
-21.9963
 30
0.0
  0
SPLINE
  5
A8
330
1F
100
AcDbEntity
  8
DEFAULT_1
 62
   250
100
AcDbSpline
210
0.0
220
0.0
230
1.0
 70
    24
 71
     3
 72
     8
 73
     4
 74
     0
 42
0.0000000001
 43
0.0000000001
 40
0.0
 40
0.0
 40
0.0
 40
0.0
 40
1.0
 40
1.0
 40
1.0
 40
1.0
 10
19.9999
 20
-21.9963
 30
0.0
 10
19.9999
 20
-21.9963
 30
0.0
 10
20.6674
 20
-21.9963
 30
0.0
 10
20.6674
 20
-21.9963
 30
0.0
  0
SPLINE
  5
A9
330
1F
100
AcDbEntity
  8
DEFAULT_1
 62
   250
100
AcDbSpline
210
0.0
220
0.0
230
1.0
 70
    24
 71
     3
 72
    16
 73
    12
 74
     0
 42
0.0000000001
 43
0.0000000001
 40
0.0
 40
0.0
 40
0.0
 40
0.0
 40
0.25
 40
0.25
 40
0.25
 40
0.25
 40
0.5
 40
0.5
 40
0.5
 40
0.5
 40
1.0
 40
1.0
 40
1.0
 40
1.0
 10
20.6674
 20
-21.9963
 30
0.0
 10
20.6674
 20
-21.9963
 30
0.0
 10
20.6674
 20
-21.3288
 30
0.0
 10
20.6674
 20
-21.3288
 30
0.0
 10
20.6674
 20
-21.3288
 30
0.0
 10
20.6674
 20
-21.3288
 30
0.0
 10
20.6674
 20
-5.2049
 30
0.0
 10
20.6674
 20
-5.2049
 30
0.0
 10
20.6674
 20
-5.2049
 30
0.0
 10
20.6674
 20
-5.2049
 30
0.0
 10
20.6674
 20
-4.5376
 30
0.0
 10
20.6674
 20
-4.5376
 30
0.0
  0
SPLINE
  5
AA
330
1F
100
AcDbEntity
  8
DEFAULT_1
 62
   250
100
AcDbSpline
210
0.0
220
0.0
230
1.0
 70
     8
 71
     3
 72
     8
 73
     4
 74
     0
 42
0.0000000001
 43
0.0000000001
 40
0.0
 40
0.0
 40
0.0
 40
0.0
 40
1.0
 40
1.0
 40
1.0
 40
1.0
 10
20.6674
 20
-4.5376
 30
0.0
 10
20.6665
 20
-4.4774
 30
0.0
 10
20.5868
 20
-4.3976
 30
0.0
 10
20.5264
 20
-4.397
 30
0.0
  0
SPLINE
  5
AB
330
1F
100
AcDbEntity
  8
DEFAULT_1
 62
   250
100
AcDbSpline
210
0.0
220
0.0
230
1.0
 70
    24
 71
     3
 72
    16
 73
    12
 74
     0
 42
0.0000000001
 43
0.0000000001
 40
0.0
 40
0.0
 40
0.0
 40
0.0
 40
0.25
 40
0.25
 40
0.25
 40
0.25
 40
0.5
 40
0.5
 40
0.5
 40
0.5
 40
1.0
 40
1.0
 40
1.0
 40
1.0
 10
20.5264
 20
-4.397
 30
0.0
 10
20.5264
 20
-4.397
 30
0.0
 10
19.8593
 20
-4.397
 30
0.0
 10
19.8593
 20
-4.397
 30
0.0
 10
19.8593
 20
-4.397
 30
0.0
 10
19.8593
 20
-4.397
 30
0.0
 10
-13.8918
 20
-4.397
 30
0.0
 10
-13.8918
 20
-4.397
 30
0.0
 10
-13.8918
 20
-4.397
 30
0.0
 10
-13.8918
 20
-4.397
 30
0.0
 10
-14.5591
 20
-4.397
 30
0.0
 10
-14.5591
 20
-4.397
 30
0.0
  0
SPLINE
  5
AC
330
1F
100
AcDbEntity
  8
DEFAULT_1
 62
   250
100
AcDbSpline
210
0.0
220
0.0
230
1.0
 70
     8
 71
     3
 72
     8
 73
     4
 74
     0
 42
0.0000000001
 43
0.0000000001
 40
0.0
 40
0.0
 40
0.0
 40
0.0
 40
1.0
 40
1.0
 40
1.0
 40
1.0
 10
-14.5591
 20
-4.397
 30
0.0
 10
-14.8586
 20
-4.493
 30
0.0
 10
-14.6998
 20
-5.0572
 30
0.0
 10
-14.6998
 20
-5.2049
 30
0.0
  0
SPLINE
  5
AD
330
1F
100
AcDbEntity
  8
DEFAULT_1
 62
   250
100
AcDbSpline
210
0.0
220
0.0
230
1.0
 70
    24
 71
     3
 72
    12
 73
     8
 74
     0
 42
0.0000000001
 43
0.0000000001
 40
0.0
 40
0.0
 40
0.0
 40
0.0
 40
0.3333333333333333
 40
0.3333333333333333
 40
0.3333333333333333
 40
0.3333333333333333
 40
1.0
 40
1.0
 40
1.0
 40
1.0
 10
-14.6998
 20
-5.2049
 30
0.0
 10
-14.6998
 20
-5.2049
 30
0.0
 10
-14.6998
 20
-21.3288
 30
0.0
 10
-14.6998
 20
-21.3288
 30
0.0
 10
-14.6998
 20
-21.3288
 30
0.0
 10
-14.6998
 20
-21.3288
 30
0.0
 10
-14.6998
 20
-21.9963
 30
0.0
 10
-14.6998
 20
-21.9963
 30
0.0
  0
SPLINE
  5
AE
330
1F
100
AcDbEntity
  8
DEFAULT_1
 62
   250
100
AcDbSpline
210
0.0
220
0.0
230
1.0
 70
    24
 71
     3
 72
     8
 73
     4
 74
     0
 42
0.0000000001
 43
0.0000000001
 40
0.0
 40
0.0
 40
0.0
 40
0.0
 40
1.0
 40
1.0
 40
1.0
 40
1.0
 10
-14.3605
 20
-5.0697
 30
0.0
 10
-14.3605
 20
-5.0697
 30
0.0
 10
-14.358
 20
-5.03
 30
0.0
 10
-14.358
 20
-5.03
 30
0.0
  0
SPLINE
  5
AF
330
1F
100
AcDbEntity
  8
DEFAULT_1
 62
   250
100
AcDbSpline
210
0.0
220
0.0
230
1.0
 70
    24
 71
     3
 72
     8
 73
     4
 74
     0
 42
0.0000000001
 43
0.0000000001
 40
0.0
 40
0.0
 40
0.0
 40
0.0
 40
1.0
 40
1.0
 40
1.0
 40
1.0
 10
-14.027
 20
-4.7363
 30
0.0
 10
-14.027
 20
-4.7363
 30
0.0
 10
-14.0666
 20
-4.7386
 30
0.0
 10
-14.0666
 20
-4.7386
 30
0.0
  0
SPLINE
  5
B0
330
1F
100
AcDbEntity
  8
DEFAULT_1
 62
   250
100
AcDbSpline
210
0.0
220
0.0
230
1.0
 70
    24
 71
     3
 72
     8
 73
     4
 74
     0
 42
0.0000000001
 43
0.0000000001
 40
0.0
 40
0.0
 40
0.0
 40
0.0
 40
1.0
 40
1.0
 40
1.0
 40
1.0
 10
20.3256
 20
-5.03
 30
0.0
 10
20.3256
 20
-5.03
 30
0.0
 10
20.3279
 20
-5.0697
 30
0.0
 10
20.3279
 20
-5.0697
 30
0.0
  0
SPLINE
  5
B1
330
1F
100
AcDbEntity
  8
DEFAULT_1
 62
   250
100
AcDbSpline
210
0.0
220
0.0
230
1.0
 70
    24
 71
     3
 72
     8
 73
     4
 74
     0
 42
0.0000000001
 43
0.0000000001
 40
0.0
 40
0.0
 40
0.0
 40
0.0
 40
1.0
 40
1.0
 40
1.0
 40
1.0
 10
20.0342
 20
-4.7386
 30
0.0
 10
20.0342
 20
-4.7386
 30
0.0
 10
19.9945
 20
-4.7363
 30
0.0
 10
19.9945
 20
-4.7363
 30
0.0
  0
SPLINE
  5
B2
330
1F
100
AcDbEntity
  8
DEFAULT_1
 62
   250
100
AcDbSpline
210
0.0
220
0.0
230
1.0
 70
    24
 71
     3
 72
    12
 73
     8
 74
     0
 42
0.0000000001
 43
0.0000000001
 40
0.0
 40
0.0
 40
0.0
 40
0.0
 40
0.3333333333333333
 40
0.3333333333333333
 40
0.3333333333333333
 40
0.3333333333333333
 40
1.0
 40
1.0
 40
1.0
 40
1.0
 10
-14.358
 20
-21.9963
 30
0.0
 10
-14.358
 20
-21.9963
 30
0.0
 10
-14.358
 20
-21.3288
 30
0.0
 10
-14.358
 20
-21.3288
 30
0.0
 10
-14.358
 20
-21.3288
 30
0.0
 10
-14.358
 20
-21.3288
 30
0.0
 10
-14.358
 20
-5.6974
 30
0.0
 10
-14.358
 20
-5.6974
 30
0.0
  0
SPLINE
  5
B3
330
1F
100
AcDbEntity
  8
DEFAULT_1
 62
   250
100
AcDbSpline
210
0.0
220
0.0
230
1.0
 70
     8
 71
     3
 72
    12
 73
     8
 74
     0
 42
0.0000000001
 43
0.0000000001
 40
0.0
 40
0.0
 40
0.0
 40
0.0
 40
0.3333333333333333
 40
0.3333333333333333
 40
0.3333333333333333
 40
0.3333333333333333
 40
1.0
 40
1.0
 40
1.0
 40
1.0
 10
-14.358
 20
-5.6974
 30
0.0
 10
-14.358
 20
-5.5976
 30
0.0
 10
-14.446
 20
-5.0897
 30
0.0
 10
-14.3014
 20
-4.8803
 30
0.0
 10
-14.3014
 20
-4.8803
 30
0.0
 10
-14.1191
 20
-4.6161
 30
0.0
 10
-13.5954
 20
-4.7386
 30
0.0
 10
-13.3994
 20
-4.7386
 30
0.0
  0
SPLINE
  5
B4
330
1F
100
AcDbEntity
  8
DEFAULT_1
 62
   250
100
AcDbSpline
210
0.0
220
0.0
230
1.0
 70
    24
 71
     3
 72
    12
 73
     8
 74
     0
 42
0.0000000001
 43
0.0000000001
 40
0.0
 40
0.0
 40
0.0
 40
0.0
 40
0.3333333333333333
 40
0.3333333333333333
 40
0.3333333333333333
 40
0.3333333333333333
 40
1.0
 40
1.0
 40
1.0
 40
1.0
 10
-13.3994
 20
-4.7386
 30
0.0
 10
-13.3994
 20
-4.7386
 30
0.0
 10
19.3669
 20
-4.7386
 30
0.0
 10
19.3669
 20
-4.7386
 30
0.0
 10
19.3669
 20
-4.7386
 30
0.0
 10
19.3669
 20
-4.7386
 30
0.0
 10
20.0342
 20
-4.7386
 30
0.0
 10
20.0342
 20
-4.7386
 30
0.0
  0
SPLINE
  5
B5
330
1F
100
AcDbEntity
  8
DEFAULT_1
 62
   250
100
AcDbSpline
210
0.0
220
0.0
230
1.0
 70
     8
 71
     3
 72
     8
 73
     4
 74
     0
 42
0.0000000001
 43
0.0000000001
 40
0.0
 40
0.0
 40
0.0
 40
0.0
 40
1.0
 40
1.0
 40
1.0
 40
1.0
 10
20.0342
 20
-4.7386
 30
0.0
 10
20.4708
 20
-4.7432
 30
0.0
 10
20.3256
 20
-5.5619
 30
0.0
 10
20.3256
 20
-5.6974
 30
0.0
  0
SPLINE
  5
B6
330
1F
100
AcDbEntity
  8
DEFAULT_1
 62
   250
100
AcDbSpline
210
0.0
220
0.0
230
1.0
 70
    24
 71
     3
 72
    12
 73
     8
 74
     0
 42
0.0000000001
 43
0.0000000001
 40
0.0
 40
0.0
 40
0.0
 40
0.0
 40
0.3333333333333333
 40
0.3333333333333333
 40
0.3333333333333333
 40
0.3333333333333333
 40
1.0
 40
1.0
 40
1.0
 40
1.0
 10
20.3256
 20
-5.6974
 30
0.0
 10
20.3256
 20
-5.6974
 30
0.0
 10
20.3256
 20
-21.3288
 30
0.0
 10
20.3256
 20
-21.3288
 30
0.0
 10
20.3256
 20
-21.3288
 30
0.0
 10
20.3256
 20
-21.3288
 30
0.0
 10
20.3256
 20
-21.9963
 30
0.0
 10
20.3256
 20
-21.9963
 30
0.0
  0
SPLINE
  5
B7
330
1F
100
AcDbEntity
  8
DEFAULT_1
 62
   250
100
AcDbSpline
210
0.0
220
0.0
230
1.0
 70
     8
 71
     3
 72
     8
 73
     4
 74
     0
 42
0.0000000001
 43
0.0000000001
 40
0.0
 40
0.0
 40
0.0
 40
0.0
 40
1.0
 40
1.0
 40
1.0
 40
1.0
 10
-6.4056
 20
-8.6511
 30
0.0
 10
-7.3245
 20
-9.2776
 30
0.0
 10
-8.1464
 20
-10.0252
 30
0.0
 10
-8.9215
 20
-10.8197
 30
0.0
  0
SPLINE
  5
B8
330
1F
100
AcDbEntity
  8
DEFAULT_1
 62
   250
100
AcDbSpline
210
0.0
220
0.0
230
1.0
 70
     8
 71
     3
 72
     8
 73
     4
 74
     0
 42
0.0000000001
 43
0.0000000001
 40
0.0
 40
0.0
 40
0.0
 40
0.0
 40
1.0
 40
1.0
 40
1.0
 40
1.0
 10
16.4133
 20
-12.6907
 30
0.0
 10
15.7654
 20
-11.7893
 30
0.0
 10
15.0598
 20
-10.9334
 30
0.0
 10
14.2445
 20
-10.177
 30
0.0
  0
SPLINE
  5
B9
330
1F
100
AcDbEntity
  8
DEFAULT_1
 62
   250
100
AcDbSpline
210
0.0
220
0.0
230
1.0
 70
    11
 71
     3
 72
    96
 73
    92
 74
     0
 42
0.0000000001
 43
0.0000000001
 40
0.0
 40
0.0
 40
0.0
 40
0.0
 40
0.0416666666666667
 40
0.0416666666666667
 40
0.0416666666666667
 40
0.0416666666666667
 40
0.0833333333333333
 40
0.0833333333333333
 40
0.0833333333333333
 40
0.0833333333333333
 40
0.125
 40
0.125
 40
0.125
 40
0.125
 40
0.1666666666666667
 40
0.1666666666666667
 40
0.1666666666666667
 40
0.1666666666666667
 40
0.2083333333333333
 40
0.2083333333333333
 40
0.2083333333333333
 40
0.2083333333333333
 40
0.25
 40
0.25
 40
0.25
 40
0.25
 40
0.2916666666666667
 40
0.2916666666666667
 40
0.2916666666666667
 40
0.2916666666666667
 40
0.3333333333333333
 40
0.3333333333333333
 40
0.3333333333333333
 40
0.3333333333333333
 40
0.375
 40
0.375
 40
0.375
 40
0.375
 40
0.4166666666666667
 40
0.4166666666666667
 40
0.4166666666666667
 40
0.4166666666666667
 40
0.4583333333333333
 40
0.4583333333333333
 40
0.4583333333333333
 40
0.4583333333333333
 40
0.5
 40
0.5
 40
0.5
 40
0.5
 40
0.5416666666666666
 40
0.5416666666666666
 40
0.5416666666666666
 40
0.5416666666666666
 40
0.5833333333333334
 40
0.5833333333333334
 40
0.5833333333333334
 40
0.5833333333333334
 40
0.625
 40
0.625
 40
0.625
 40
0.625
 40
0.6666666666666666
 40
0.6666666666666666
 40
0.6666666666666666
 40
0.6666666666666666
 40
0.7083333333333334
 40
0.7083333333333334
 40
0.7083333333333334
 40
0.7083333333333334
 40
0.75
 40
0.75
 40
0.75
 40
0.75
 40
0.7916666666666666
 40
0.7916666666666666
 40
0.7916666666666666
 40
0.7916666666666666
 40
0.8333333333333334
 40
0.8333333333333334
 40
0.8333333333333334
 40
0.8333333333333334
 40
0.875
 40
0.875
 40
0.875
 40
0.875
 40
0.9166666666666666
 40
0.9166666666666666
 40
0.9166666666666666
 40
0.9166666666666666
 40
1.0
 40
1.0
 40
1.0
 40
1.0
 10
-11.9471
 20
26.2446
 30
0.0
 10
-11.9471
 20
26.2446
 30
0.0
 10
-11.243
 20
26.2446
 30
0.0
 10
-11.243
 20
26.2446
 30
0.0
 10
-11.243
 20
26.2446
 30
0.0
 10
-11.243
 20
26.2446
 30
0.0
 10
18.4986
 20
26.2446
 30
0.0
 10
18.4986
 20
26.2446
 30
0.0
 10
18.4986
 20
26.2446
 30
0.0
 10
18.9299
 20
26.2446
 30
0.0
 10
19.4695
 20
26.3414
 30
0.0
 10
19.7889
 20
25.9649
 30
0.0
 10
19.7889
 20
25.9649
 30
0.0
 10
19.846
 20
25.8979
 30
0.0
 10
19.8939
 20
25.8267
 30
0.0
 10
19.9295
 20
25.7461
 30
0.0
 10
19.9295
 20
25.7461
 30
0.0
 10
19.9772
 20
25.6376
 30
0.0
 10
19.9939
 20
25.5283
 30
0.0
 10
19.9999
 20
25.4106
 30
0.0
 10
19.9999
 20
25.4106
 30
0.0
 10
19.9999
 20
25.4106
 30
0.0
 10
19.9999
 20
24.5763
 30
0.0
 10
19.9999
 20
24.5763
 30
0.0
 10
19.9999
 20
24.5763
 30
0.0
 10
19.9999
 20
24.5763
 30
0.0
 10
19.4994
 20
24.5763
 30
0.0
 10
19.4994
 20
24.5763
 30
0.0
 10
19.4994
 20
24.5763
 30
0.0
 10
19.4994
 20
24.5763
 30
0.0
 10
19.4994
 20
25.0264
 30
0.0
 10
19.4994
 20
25.0264
 30
0.0
 10
19.4994
 20
25.0264
 30
0.0
 10
19.4994
 20
25.2912
 30
0.0
 10
19.5691
 20
25.6085
 30
0.0
 10
19.2739
 20
25.7263
 30
0.0
 10
19.2739
 20
25.7263
 30
0.0
 10
19.2421
 20
25.7388
 30
0.0
 10
19.1952
 20
25.7438
 30
0.0
 10
19.1657
 20
25.7442
 30
0.0
 10
19.1657
 20
25.7442
 30
0.0
 10
19.1657
 20
25.7442
 30
0.0
 10
18.489
 20
25.7441
 30
0.0
 10
18.489
 20
25.7441
 30
0.0
 10
18.489
 20
25.7441
 30
0.0
 10
18.489
 20
25.7441
 30
0.0
 10
-12.5313
 20
25.7441
 30
0.0
 10
-12.5313
 20
25.7441
 30
0.0
 10
-12.5313
 20
25.7441
 30
0.0
 10
-12.5313
 20
25.7441
 30
0.0
 10
-13.1818
 20
25.7446
 30
0.0
 10
-13.1818
 20
25.7446
 30
0.0
 10
-13.1818
 20
25.7446
 30
0.0
 10
-13.1818
 20
25.7446
 30
0.0
 10
-13.1983
 20
25.7442
 30
0.0
 10
-13.1983
 20
25.7442
 30
0.0
 10
-13.1983
 20
25.7442
 30
0.0
 10
-13.2538
 20
25.7382
 30
0.0
 10
-13.289
 20
25.7355
 30
0.0
 10
-13.3384
 20
25.7133
 30
0.0
 10
-13.3384
 20
25.7133
 30
0.0
 10
-13.6026
 20
25.5944
 30
0.0
 10
-13.532
 20
25.2506
 30
0.0
 10
-13.532
 20
25.0264
 30
0.0
 10
-13.532
 20
25.0264
 30
0.0
 10
-13.532
 20
25.0264
 30
0.0
 10
-13.532
 20
24.5763
 30
0.0
 10
-13.532
 20
24.5763
 30
0.0
 10
-13.532
 20
24.5763
 30
0.0
 10
-13.532
 20
24.5763
 30
0.0
 10
-14.0326
 20
24.5763
 30
0.0
 10
-14.0326
 20
24.5763
 30
0.0
 10
-14.0326
 20
24.5763
 30
0.0
 10
-14.0326
 20
24.5763
 30
0.0
 10
-14.0326
 20
25.4106
 30
0.0
 10
-14.0326
 20
25.4106
 30
0.0
 10
-14.0326
 20
25.4106
 30
0.0
 10
-14.0264
 20
25.5283
 30
0.0
 10
-14.0096
 20
25.6376
 30
0.0
 10
-13.962
 20
25.7461
 30
0.0
 10
-13.962
 20
25.7461
 30
0.0
 10
-13.9266
 20
25.8267
 30
0.0
 10
-13.8786
 20
25.898
 30
0.0
 10
-13.8217
 20
25.9649
 30
0.0
 10
-13.8217
 20
25.9649
 30
0.0
 10
-13.503
 20
26.34
 30
0.0
 10
-12.9608
 20
26.2446
 30
0.0
 10
-12.5312
 20
26.2446
 30
0.0
 10
-12.5312
 20
26.2446
 30
0.0
 10
-12.5312
 20
26.2446
 30
0.0
 10
-11.9471
 20
26.2446
 30
0.0
 10
-11.9471
 20
26.2446
 30
0.0
  0
SPLINE
  5
BA
330
1F
100
AcDbEntity
  8
DEFAULT_1
 62
   250
100
AcDbSpline
210
0.0
220
0.0
230
1.0
 70
    24
 71
     3
 72
     8
 73
     4
 74
     0
 42
0.0000000001
 43
0.0000000001
 40
0.0
 40
0.0
 40
0.0
 40
0.0
 40
1.0
 40
1.0
 40
1.0
 40
1.0
 10
1.5658
 20
25.0768
 30
0.0
 10
1.5658
 20
25.0768
 30
0.0
 10
-10.9463
 20
25.0768
 30
0.0
 10
-10.9463
 20
25.0768
 30
0.0
  0
SPLINE
  5
BB
330
1F
100
AcDbEntity
  8
DEFAULT_1
 62
   250
100
AcDbSpline
210
0.0
220
0.0
230
1.0
 70
    24
 71
     3
 72
     8
 73
     4
 74
     0
 42
0.0000000001
 43
0.0000000001
 40
0.0
 40
0.0
 40
0.0
 40
0.0
 40
1.0
 40
1.0
 40
1.0
 40
1.0
 10
16.9136
 20
25.0768
 30
0.0
 10
16.9136
 20
25.0768
 30
0.0
 10
13.744
 20
25.0768
 30
0.0
 10
13.744
 20
25.0768
 30
0.0
  0
SPLINE
  5
BC
330
1F
100
AcDbEntity
  8
DEFAULT_1
 62
   250
100
AcDbSpline
210
0.0
220
0.0
230
1.0
 70
    24
 71
     3
 72
     8
 73
     4
 74
     0
 42
0.0000000001
 43
0.0000000001
 40
0.0
 40
0.0
 40
0.0
 40
0.0
 40
1.0
 40
1.0
 40
1.0
 40
1.0
 10
12.2425
 20
25.0768
 30
0.0
 10
12.2425
 20
25.0768
 30
0.0
 10
9.0729
 20
25.0768
 30
0.0
 10
9.0729
 20
25.0768
 30
0.0
  0
SPLINE
  5
BD
330
1F
100
AcDbEntity
  8
DEFAULT_1
 62
   250
100
AcDbSpline
210
0.0
220
0.0
230
1.0
 70
    24
 71
     3
 72
     8
 73
     4
 74
     0
 42
0.0000000001
 43
0.0000000001
 40
0.0
 40
0.0
 40
0.0
 40
0.0
 40
1.0
 40
1.0
 40
1.0
 40
1.0
 10
7.5713
 20
25.0768
 30
0.0
 10
7.5713
 20
25.0768
 30
0.0
 10
4.4018
 20
25.0768
 30
0.0
 10
4.4018
 20
25.0768
 30
0.0
  0
SPLINE
  5
BE
330
1F
100
AcDbEntity
  8
DEFAULT_1
 62
   250
100
AcDbSpline
210
0.0
220
0.0
230
1.0
 70
     8
 71
     3
 72
    12
 73
     8
 74
     0
 42
0.0000000001
 43
0.0000000001
 40
0.0
 40
0.0
 40
0.0
 40
0.0
 40
0.3333333333333333
 40
0.3333333333333333
 40
0.3333333333333333
 40
0.3333333333333333
 40
1.0
 40
1.0
 40
1.0
 40
1.0
 10
-10.9463
 20
25.0768
 30
0.0
 10
-10.9463
 20
25.3075
 30
0.0
 10
-10.8912
 20
25.624
 30
0.0
 10
-11.1658
 20
25.7241
 30
0.0
 10
-11.1658
 20
25.7241
 30
0.0
 10
-11.2031
 20
25.7376
 30
0.0
 10
-11.2406
 20
25.7423
 30
0.0
 10
-11.2799
 20
25.7441
 30
0.0
  0
SPLINE
  5
BF
330
1F
100
AcDbEntity
  8
DEFAULT_1
 62
   250
100
AcDbSpline
210
0.0
220
0.0
230
1.0
 70
     8
 71
     3
 72
    12
 73
     8
 74
     0
 42
0.0000000001
 43
0.0000000001
 40
0.0
 40
0.0
 40
0.0
 40
0.0
 40
0.3333333333333333
 40
0.3333333333333333
 40
0.3333333333333333
 40
0.3333333333333333
 40
1.0
 40
1.0
 40
1.0
 40
1.0
 10
1.8994
 20
25.7441
 30
0.0
 10
1.8601
 20
25.7423
 30
0.0
 10
1.8224
 20
25.7376
 30
0.0
 10
1.7854
 20
25.7241
 30
0.0
 10
1.7854
 20
25.7241
 30
0.0
 10
1.5106
 20
25.624
 30
0.0
 10
1.5658
 20
25.3075
 30
0.0
 10
1.5658
 20
25.0768
 30
0.0
  0
SPLINE
  5
C0
330
1F
100
AcDbEntity
  8
DEFAULT_1
 62
   250
100
AcDbSpline
210
0.0
220
0.0
230
1.0
 70
     8
 71
     3
 72
    12
 73
     8
 74
     0
 42
0.0000000001
 43
0.0000000001
 40
0.0
 40
0.0
 40
0.0
 40
0.0
 40
0.3333333333333333
 40
0.3333333333333333
 40
0.3333333333333333
 40
0.3333333333333333
 40
1.0
 40
1.0
 40
1.0
 40
1.0
 10
16.9136
 20
25.0768
 30
0.0
 10
16.9136
 20
25.3075
 30
0.0
 10
16.8584
 20
25.624
 30
0.0
 10
17.1331
 20
25.7241
 30
0.0
 10
17.1331
 20
25.7241
 30
0.0
 10
17.1704
 20
25.7376
 30
0.0
 10
17.2079
 20
25.7423
 30
0.0
 10
17.2474
 20
25.7441
 30
0.0
  0
SPLINE
  5
C1
330
1F
100
AcDbEntity
  8
DEFAULT_1
 62
   250
100
AcDbSpline
210
0.0
220
0.0
230
1.0
 70
     8
 71
     3
 72
    12
 73
     8
 74
     0
 42
0.0000000001
 43
0.0000000001
 40
0.0
 40
0.0
 40
0.0
 40
0.0
 40
0.3333333333333333
 40
0.3333333333333333
 40
0.3333333333333333
 40
0.3333333333333333
 40
1.0
 40
1.0
 40
1.0
 40
1.0
 10
13.4103
 20
25.7441
 30
0.0
 10
13.4498
 20
25.7423
 30
0.0
 10
13.4871
 20
25.7376
 30
0.0
 10
13.5244
 20
25.7241
 30
0.0
 10
13.5244
 20
25.7241
 30
0.0
 10
13.7993
 20
25.624
 30
0.0
 10
13.744
 20
25.3075
 30
0.0
 10
13.744
 20
25.0768
 30
0.0
  0
SPLINE
  5
C2
330
1F
100
AcDbEntity
  8
DEFAULT_1
 62
   250
100
AcDbSpline
210
0.0
220
0.0
230
1.0
 70
     8
 71
     3
 72
    12
 73
     8
 74
     0
 42
0.0000000001
 43
0.0000000001
 40
0.0
 40
0.0
 40
0.0
 40
0.0
 40
0.3333333333333333
 40
0.3333333333333333
 40
0.3333333333333333
 40
0.3333333333333333
 40
1.0
 40
1.0
 40
1.0
 40
1.0
 10
12.2425
 20
25.0768
 30
0.0
 10
12.2425
 20
25.3075
 30
0.0
 10
12.1873
 20
25.624
 30
0.0
 10
12.462
 20
25.7241
 30
0.0
 10
12.462
 20
25.7241
 30
0.0
 10
12.4993
 20
25.7376
 30
0.0
 10
12.5367
 20
25.7423
 30
0.0
 10
12.5763
 20
25.7441
 30
0.0
  0
SPLINE
  5
C3
330
1F
100
AcDbEntity
  8
DEFAULT_1
 62
   250
100
AcDbSpline
210
0.0
220
0.0
230
1.0
 70
     8
 71
     3
 72
    12
 73
     8
 74
     0
 42
0.0000000001
 43
0.0000000001
 40
0.0
 40
0.0
 40
0.0
 40
0.0
 40
0.3333333333333333
 40
0.3333333333333333
 40
0.3333333333333333
 40
0.3333333333333333
 40
1.0
 40
1.0
 40
1.0
 40
1.0
 10
8.7392
 20
25.7441
 30
0.0
 10
8.7787
 20
25.7423
 30
0.0
 10
8.816
 20
25.7376
 30
0.0
 10
8.8533
 20
25.7241
 30
0.0
 10
8.8533
 20
25.7241
 30
0.0
 10
9.128
 20
25.624
 30
0.0
 10
9.0729
 20
25.3075
 30
0.0
 10
9.0729
 20
25.0768
 30
0.0
  0
SPLINE
  5
C4
330
1F
100
AcDbEntity
  8
DEFAULT_1
 62
   250
100
AcDbSpline
210
0.0
220
0.0
230
1.0
 70
     8
 71
     3
 72
    12
 73
     8
 74
     0
 42
0.0000000001
 43
0.0000000001
 40
0.0
 40
0.0
 40
0.0
 40
0.0
 40
0.3333333333333333
 40
0.3333333333333333
 40
0.3333333333333333
 40
0.3333333333333333
 40
1.0
 40
1.0
 40
1.0
 40
1.0
 10
7.5713
 20
25.0768
 30
0.0
 10
7.5713
 20
25.3075
 30
0.0
 10
7.5161
 20
25.624
 30
0.0
 10
7.7909
 20
25.7241
 30
0.0
 10
7.7909
 20
25.7241
 30
0.0
 10
7.8282
 20
25.7376
 30
0.0
 10
7.8656
 20
25.7423
 30
0.0
 10
7.9052
 20
25.7441
 30
0.0
  0
SPLINE
  5
C5
330
1F
100
AcDbEntity
  8
DEFAULT_1
 62
   250
100
AcDbSpline
210
0.0
220
0.0
230
1.0
 70
     8
 71
     3
 72
    12
 73
     8
 74
     0
 42
0.0000000001
 43
0.0000000001
 40
0.0
 40
0.0
 40
0.0
 40
0.0
 40
0.3333333333333333
 40
0.3333333333333333
 40
0.3333333333333333
 40
0.3333333333333333
 40
1.0
 40
1.0
 40
1.0
 40
1.0
 10
4.0681
 20
25.7441
 30
0.0
 10
4.1075
 20
25.7423
 30
0.0
 10
4.1448
 20
25.7376
 30
0.0
 10
4.1822
 20
25.7241
 30
0.0
 10
4.1822
 20
25.7241
 30
0.0
 10
4.4569
 20
25.624
 30
0.0
 10
4.4018
 20
25.3075
 30
0.0
 10
4.4018
 20
25.0768
 30
0.0
  0
SPLINE
  5
C6
330
1F
100
AcDbEntity
  8
DEFAULT_1
 62
   250
100
AcDbSpline
210
0.0
220
0.0
230
1.0
 70
    24
 71
     3
 72
     8
 73
     4
 74
     0
 42
0.0000000001
 43
0.0000000001
 40
0.0
 40
0.0
 40
0.0
 40
0.0
 40
1.0
 40
1.0
 40
1.0
 40
1.0
 10
-14.6998
 20
26.2913
 30
0.0
 10
-14.6998
 20
26.2913
 30
0.0
 10
20.6674
 20
26.2913
 30
0.0
 10
20.6674
 20
26.2913
 30
0.0
  0
SPLINE
  5
C7
330
1F
100
AcDbEntity
  8
DEFAULT_1
 62
   250
100
AcDbSpline
210
0.0
220
0.0
230
1.0
 70
    24
 71
     3
 72
     8
 73
     4
 74
     0
 42
0.0000000001
 43
0.0000000001
 40
0.0
 40
0.0
 40
0.0
 40
0.0
 40
1.0
 40
1.0
 40
1.0
 40
1.0
 10
17.6678
 20
24.4566
 30
0.0
 10
17.6678
 20
24.4566
 30
0.0
 10
20.1027
 20
24.4563
 30
0.0
 10
20.1027
 20
24.4563
 30
0.0
  0
SPLINE
  5
C8
330
1F
100
AcDbEntity
  8
DEFAULT_1
 62
   250
100
AcDbSpline
210
0.0
220
0.0
230
1.0
 70
    24
 71
     3
 72
     8
 73
     4
 74
     0
 42
0.0000000001
 43
0.0000000001
 40
0.0
 40
0.0
 40
0.0
 40
0.0
 40
1.0
 40
1.0
 40
1.0
 40
1.0
 10
19.4995
 20
24.4563
 30
0.0
 10
19.4995
 20
24.4563
 30
0.0
 10
-13.532
 20
24.4563
 30
0.0
 10
-13.532
 20
24.4563
 30
0.0
  0
SPLINE
  5
C9
330
1F
100
AcDbEntity
  8
DEFAULT_1
 62
   250
100
AcDbSpline
210
0.0
220
0.0
230
1.0
 70
    24
 71
     3
 72
     8
 73
     4
 74
     0
 42
0.0000000001
 43
0.0000000001
 40
0.0
 40
0.0
 40
0.0
 40
0.0
 40
1.0
 40
1.0
 40
1.0
 40
1.0
 10
-13.4037
 20
24.4563
 30
0.0
 10
-13.4037
 20
24.4563
 30
0.0
 10
-13.312
 20
6.9397
 30
0.0
 10
-13.312
 20
6.9397
 30
0.0
  0
SPLINE
  5
CA
330
1F
100
AcDbEntity
  8
DEFAULT_1
 62
   250
100
AcDbSpline
210
0.0
220
0.0
230
1.0
 70
    24
 71
     3
 72
     8
 73
     4
 74
     0
 42
0.0000000001
 43
0.0000000001
 40
0.0
 40
0.0
 40
0.0
 40
0.0
 40
1.0
 40
1.0
 40
1.0
 40
1.0
 10
-13.8628
 20
6.9397
 30
0.0
 10
-13.8628
 20
6.9397
 30
0.0
 10
19.8305
 20
6.9397
 30
0.0
 10
19.8305
 20
6.9397
 30
0.0
  0
SPLINE
  5
CB
330
1F
100
AcDbEntity
  8
DEFAULT_1
 62
   250
100
AcDbSpline
210
0.0
220
0.0
230
1.0
 70
    24
 71
     3
 72
     8
 73
     4
 74
     0
 42
0.0000000001
 43
0.0000000001
 40
0.0
 40
0.0
 40
0.0
 40
0.0
 40
1.0
 40
1.0
 40
1.0
 40
1.0
 10
19.8291
 20
9.275
 30
0.0
 10
19.8291
 20
9.275
 30
0.0
 10
20.2809
 20
9.275
 30
0.0
 10
20.2809
 20
9.275
 30
0.0
  0
SPLINE
  5
CC
330
1F
100
AcDbEntity
  8
DEFAULT_1
 62
   250
100
AcDbSpline
210
0.0
220
0.0
230
1.0
 70
    24
 71
     3
 72
     8
 73
     4
 74
     0
 42
0.0000000001
 43
0.0000000001
 40
0.0
 40
0.0
 40
0.0
 40
0.0
 40
1.0
 40
1.0
 40
1.0
 40
1.0
 10
19.8333
 20
11.9444
 30
0.0
 10
19.8333
 20
11.9444
 30
0.0
 10
20.2809
 20
11.9444
 30
0.0
 10
20.2809
 20
11.9444
 30
0.0
  0
SPLINE
  5
CD
330
1F
100
AcDbEntity
  8
DEFAULT_1
 62
   250
100
AcDbSpline
210
0.0
220
0.0
230
1.0
 70
    24
 71
     3
 72
     8
 73
     4
 74
     0
 42
0.0000000001
 43
0.0000000001
 40
0.0
 40
0.0
 40
0.0
 40
0.0
 40
1.0
 40
1.0
 40
1.0
 40
1.0
 10
19.8228
 20
14.6135
 30
0.0
 10
19.8228
 20
14.6135
 30
0.0
 10
20.281
 20
14.6135
 30
0.0
 10
20.281
 20
14.6135
 30
0.0
  0
SPLINE
  5
CE
330
1F
100
AcDbEntity
  8
DEFAULT_1
 62
   250
100
AcDbSpline
210
0.0
220
0.0
230
1.0
 70
    24
 71
     3
 72
     8
 73
     4
 74
     0
 42
0.0000000001
 43
0.0000000001
 40
0.0
 40
0.0
 40
0.0
 40
0.0
 40
1.0
 40
1.0
 40
1.0
 40
1.0
 10
19.8316
 20
17.2828
 30
0.0
 10
19.8316
 20
17.2828
 30
0.0
 10
20.281
 20
17.2828
 30
0.0
 10
20.281
 20
17.2828
 30
0.0
  0
SPLINE
  5
CF
330
1F
100
AcDbEntity
  8
DEFAULT_1
 62
   250
100
AcDbSpline
210
0.0
220
0.0
230
1.0
 70
    24
 71
     3
 72
     8
 73
     4
 74
     0
 42
0.0000000001
 43
0.0000000001
 40
0.0
 40
0.0
 40
0.0
 40
0.0
 40
1.0
 40
1.0
 40
1.0
 40
1.0
 10
20.2757
 20
23.8207
 30
0.0
 10
20.2757
 20
23.8207
 30
0.0
 10
20.6511
 20
23.8207
 30
0.0
 10
20.6511
 20
23.8207
 30
0.0
  0
SPLINE
  5
D0
330
1F
100
AcDbEntity
  8
DEFAULT_1
 62
   250
100
AcDbSpline
210
0.0
220
0.0
230
1.0
 70
    24
 71
     3
 72
     8
 73
     4
 74
     0
 42
0.0000000001
 43
0.0000000001
 40
0.0
 40
0.0
 40
0.0
 40
0.0
 40
1.0
 40
1.0
 40
1.0
 40
1.0
 10
19.8317
 20
19.952
 30
0.0
 10
19.8317
 20
19.952
 30
0.0
 10
20.2809
 20
19.952
 30
0.0
 10
20.2809
 20
19.952
 30
0.0
  0
SPLINE
  5
D1
330
1F
100
AcDbEntity
  8
DEFAULT_1
 62
   250
100
AcDbSpline
210
0.0
220
0.0
230
1.0
 70
    24
 71
     3
 72
     8
 73
     4
 74
     0
 42
0.0000000001
 43
0.0000000001
 40
0.0
 40
0.0
 40
0.0
 40
0.0
 40
1.0
 40
1.0
 40
1.0
 40
1.0
 10
19.2796
 20
6.9397
 30
0.0
 10
19.2796
 20
6.9397
 30
0.0
 10
19.3712
 20
24.4563
 30
0.0
 10
19.3712
 20
24.4563
 30
0.0
  0
SPLINE
  5
D2
330
1F
100
AcDbEntity
  8
DEFAULT_1
 62
   250
100
AcDbSpline
210
0.0
220
0.0
230
1.0
 70
    24
 71
     3
 72
     8
 73
     4
 74
     0
 42
0.0000000001
 43
0.0000000001
 40
0.0
 40
0.0
 40
0.0
 40
0.0
 40
1.0
 40
1.0
 40
1.0
 40
1.0
 10
20.3279
 20
26.2913
 30
0.0
 10
20.3279
 20
26.2913
 30
0.0
 10
20.2507
 20
26.2725
 30
0.0
 10
20.2507
 20
26.2725
 30
0.0
  0
SPLINE
  5
D3
330
1F
100
AcDbEntity
  8
DEFAULT_1
 62
   250
100
AcDbSpline
210
0.0
220
0.0
230
1.0
 70
     8
 71
     3
 72
     8
 73
     4
 74
     0
 42
0.0000000001
 43
0.0000000001
 40
0.0
 40
0.0
 40
0.0
 40
0.0
 40
1.0
 40
1.0
 40
1.0
 40
1.0
 10
20.2507
 20
26.2725
 30
0.0
 10
20.1349
 20
26.2051
 30
0.0
 10
20.159
 20
26.0698
 30
0.0
 10
20.1552
 20
25.9573
 30
0.0
  0
SPLINE
  5
D4
330
1F
100
AcDbEntity
  8
DEFAULT_1
 62
   250
100
AcDbSpline
210
0.0
220
0.0
230
1.0
 70
     8
 71
     3
 72
     8
 73
     4
 74
     0
 42
0.0000000001
 43
0.0000000001
 40
0.0
 40
0.0
 40
0.0
 40
0.0
 40
1.0
 40
1.0
 40
1.0
 40
1.0
 10
20.1027
 20
24.4563
 30
0.0
 10
20.1201
 20
24.9515
 30
0.0
 10
20.1334
 20
25.4469
 30
0.0
 10
20.1547
 20
25.942
 30
0.0
  0
SPLINE
  5
D5
330
1F
100
AcDbEntity
  8
DEFAULT_1
 62
   250
100
AcDbSpline
210
0.0
220
0.0
230
1.0
 70
     8
 71
     3
 72
     8
 73
     4
 74
     0
 42
0.0000000001
 43
0.0000000001
 40
0.0
 40
0.0
 40
0.0
 40
0.0
 40
1.0
 40
1.0
 40
1.0
 40
1.0
 10
20.2809
 20
9.275
 30
0.0
 10
20.2809
 20
9.2595
 30
0.0
 10
20.2866
 20
7.9047
 30
0.0
 10
20.2809
 20
7.8904
 30
0.0
  0
SPLINE
  5
D6
330
1F
100
AcDbEntity
  8
DEFAULT_1
 62
   250
100
AcDbSpline
210
0.0
220
0.0
230
1.0
 70
     8
 71
     3
 72
    12
 73
     8
 74
     0
 42
0.0000000001
 43
0.0000000001
 40
0.0
 40
0.0
 40
0.0
 40
0.0
 40
0.3333333333333333
 40
0.3333333333333333
 40
0.3333333333333333
 40
0.3333333333333333
 40
1.0
 40
1.0
 40
1.0
 40
1.0
 10
20.2809
 20
7.8904
 30
0.0
 10
20.2809
 20
7.8904
 30
0.0
 10
19.8305
 20
7.4402
 30
0.0
 10
19.8305
 20
7.4402
 30
0.0
 10
19.8305
 20
7.4402
 30
0.0
 10
19.8305
 20
7.4402
 30
0.0
 10
19.8305
 20
6.9397
 30
0.0
 10
19.8305
 20
6.9397
 30
0.0
  0
SPLINE
  5
D7
330
1F
100
AcDbEntity
  8
DEFAULT_1
 62
   250
100
AcDbSpline
210
0.0
220
0.0
230
1.0
 70
     8
 71
     3
 72
    24
 73
    20
 74
     0
 42
0.0000000001
 43
0.0000000001
 40
0.0
 40
0.0
 40
0.0
 40
0.0
 40
0.1666666666666667
 40
0.1666666666666667
 40
0.1666666666666667
 40
0.1666666666666667
 40
0.3333333333333333
 40
0.3333333333333333
 40
0.3333333333333333
 40
0.3333333333333333
 40
0.5
 40
0.5
 40
0.5
 40
0.5
 40
0.6666666666666666
 40
0.6666666666666666
 40
0.6666666666666666
 40
0.6666666666666666
 40
1.0
 40
1.0
 40
1.0
 40
1.0
 10
19.8305
 20
9.275
 30
0.0
 10
19.8305
 20
9.275
 30
0.0
 10
19.8305
 20
9.9423
 30
0.0
 10
19.8305
 20
9.9423
 30
0.0
 10
19.8305
 20
9.9423
 30
0.0
 10
19.8305
 20
9.9423
 30
0.0
 10
20.2809
 20
10.3928
 30
0.0
 10
20.2809
 20
10.3928
 30
0.0
 10
20.2809
 20
10.3928
 30
0.0
 10
20.2809
 20
10.3928
 30
0.0
 10
20.2809
 20
11.0602
 30
0.0
 10
20.2809
 20
11.0602
 30
0.0
 10
20.2809
 20
11.0602
 30
0.0
 10
20.2809
 20
11.0602
 30
0.0
 10
20.2809
 20
11.277
 30
0.0
 10
20.2809
 20
11.277
 30
0.0
 10
20.2809
 20
11.277
 30
0.0
 10
20.2809
 20
11.277
 30
0.0
 10
20.2809
 20
11.9444
 30
0.0
 10
20.2809
 20
11.9444
 30
0.0
  0
SPLINE
  5
D8
330
1F
100
AcDbEntity
  8
DEFAULT_1
 62
   250
100
AcDbSpline
210
0.0
220
0.0
230
1.0
 70
     8
 71
     3
 72
    24
 73
    20
 74
     0
 42
0.0000000001
 43
0.0000000001
 40
0.0
 40
0.0
 40
0.0
 40
0.0
 40
0.1666666666666667
 40
0.1666666666666667
 40
0.1666666666666667
 40
0.1666666666666667
 40
0.3333333333333333
 40
0.3333333333333333
 40
0.3333333333333333
 40
0.3333333333333333
 40
0.5
 40
0.5
 40
0.5
 40
0.5
 40
0.6666666666666666
 40
0.6666666666666666
 40
0.6666666666666666
 40
0.6666666666666666
 40
1.0
 40
1.0
 40
1.0
 40
1.0
 10
19.8305
 20
11.9444
 30
0.0
 10
19.8305
 20
11.9444
 30
0.0
 10
19.8305
 20
12.6116
 30
0.0
 10
19.8305
 20
12.6116
 30
0.0
 10
19.8305
 20
12.6116
 30
0.0
 10
19.8305
 20
12.6116
 30
0.0
 10
20.2809
 20
13.062
 30
0.0
 10
20.2809
 20
13.062
 30
0.0
 10
20.2809
 20
13.062
 30
0.0
 10
20.2809
 20
13.062
 30
0.0
 10
20.2809
 20
13.7295
 30
0.0
 10
20.2809
 20
13.7295
 30
0.0
 10
20.2809
 20
13.7295
 30
0.0
 10
20.2809
 20
13.7295
 30
0.0
 10
20.2809
 20
13.9462
 30
0.0
 10
20.2809
 20
13.9462
 30
0.0
 10
20.2809
 20
13.9462
 30
0.0
 10
20.2809
 20
13.9462
 30
0.0
 10
20.2809
 20
14.6135
 30
0.0
 10
20.2809
 20
14.6135
 30
0.0
  0
SPLINE
  5
D9
330
1F
100
AcDbEntity
  8
DEFAULT_1
 62
   250
100
AcDbSpline
210
0.0
220
0.0
230
1.0
 70
     8
 71
     3
 72
    24
 73
    20
 74
     0
 42
0.0000000001
 43
0.0000000001
 40
0.0
 40
0.0
 40
0.0
 40
0.0
 40
0.1666666666666667
 40
0.1666666666666667
 40
0.1666666666666667
 40
0.1666666666666667
 40
0.3333333333333333
 40
0.3333333333333333
 40
0.3333333333333333
 40
0.3333333333333333
 40
0.5
 40
0.5
 40
0.5
 40
0.5
 40
0.6666666666666666
 40
0.6666666666666666
 40
0.6666666666666666
 40
0.6666666666666666
 40
1.0
 40
1.0
 40
1.0
 40
1.0
 10
20.2809
 20
17.2828
 30
0.0
 10
20.2809
 20
17.2828
 30
0.0
 10
20.2809
 20
16.6155
 30
0.0
 10
20.2809
 20
16.6155
 30
0.0
 10
20.2809
 20
16.6155
 30
0.0
 10
20.2809
 20
16.6155
 30
0.0
 10
20.2809
 20
16.3986
 30
0.0
 10
20.2809
 20
16.3986
 30
0.0
 10
20.2809
 20
16.3986
 30
0.0
 10
20.2809
 20
16.3986
 30
0.0
 10
20.2809
 20
15.7313
 30
0.0
 10
20.2809
 20
15.7313
 30
0.0
 10
20.2809
 20
15.7313
 30
0.0
 10
20.2809
 20
15.7313
 30
0.0
 10
19.8305
 20
15.2809
 30
0.0
 10
19.8305
 20
15.2809
 30
0.0
 10
19.8305
 20
15.2809
 30
0.0
 10
19.8305
 20
15.2809
 30
0.0
 10
19.8305
 20
14.6135
 30
0.0
 10
19.8305
 20
14.6135
 30
0.0
  0
SPLINE
  5
DA
330
1F
100
AcDbEntity
  8
DEFAULT_1
 62
   250
100
AcDbSpline
210
0.0
220
0.0
230
1.0
 70
     8
 71
     3
 72
    24
 73
    20
 74
     0
 42
0.0000000001
 43
0.0000000001
 40
0.0
 40
0.0
 40
0.0
 40
0.0
 40
0.1666666666666667
 40
0.1666666666666667
 40
0.1666666666666667
 40
0.1666666666666667
 40
0.3333333333333333
 40
0.3333333333333333
 40
0.3333333333333333
 40
0.3333333333333333
 40
0.5
 40
0.5
 40
0.5
 40
0.5
 40
0.6666666666666666
 40
0.6666666666666666
 40
0.6666666666666666
 40
0.6666666666666666
 40
1.0
 40
1.0
 40
1.0
 40
1.0
 10
20.2809
 20
19.952
 30
0.0
 10
20.2809
 20
19.952
 30
0.0
 10
20.2809
 20
19.2847
 30
0.0
 10
20.2809
 20
19.2847
 30
0.0
 10
20.2809
 20
19.2847
 30
0.0
 10
20.2809
 20
19.2847
 30
0.0
 10
20.2809
 20
19.0679
 30
0.0
 10
20.2809
 20
19.0679
 30
0.0
 10
20.2809
 20
19.0679
 30
0.0
 10
20.2809
 20
19.0679
 30
0.0
 10
20.2809
 20
18.4005
 30
0.0
 10
20.2809
 20
18.4005
 30
0.0
 10
20.2809
 20
18.4005
 30
0.0
 10
20.2809
 20
18.4005
 30
0.0
 10
19.8305
 20
17.9502
 30
0.0
 10
19.8305
 20
17.9502
 30
0.0
 10
19.8305
 20
17.9502
 30
0.0
 10
19.8305
 20
17.9502
 30
0.0
 10
19.8305
 20
17.2828
 30
0.0
 10
19.8305
 20
17.2828
 30
0.0
  0
SPLINE
  5
DB
330
1F
100
AcDbEntity
  8
DEFAULT_1
 62
   250
100
AcDbSpline
210
0.0
220
0.0
230
1.0
 70
     8
 71
     3
 72
    24
 73
    20
 74
     0
 42
0.0000000001
 43
0.0000000001
 40
0.0
 40
0.0
 40
0.0
 40
0.0
 40
0.1666666666666667
 40
0.1666666666666667
 40
0.1666666666666667
 40
0.1666666666666667
 40
0.3333333333333333
 40
0.3333333333333333
 40
0.3333333333333333
 40
0.3333333333333333
 40
0.5
 40
0.5
 40
0.5
 40
0.5
 40
0.6666666666666666
 40
0.6666666666666666
 40
0.6666666666666666
 40
0.6666666666666666
 40
1.0
 40
1.0
 40
1.0
 40
1.0
 10
19.8305
 20
19.952
 30
0.0
 10
19.8305
 20
19.952
 30
0.0
 10
19.8305
 20
20.6193
 30
0.0
 10
19.8305
 20
20.6193
 30
0.0
 10
19.8305
 20
20.6193
 30
0.0
 10
19.8305
 20
20.6193
 30
0.0
 10
20.2809
 20
21.0697
 30
0.0
 10
20.2809
 20
21.0697
 30
0.0
 10
20.2809
 20
21.0697
 30
0.0
 10
20.2809
 20
21.0697
 30
0.0
 10
20.2809
 20
21.737
 30
0.0
 10
20.2809
 20
21.737
 30
0.0
 10
20.2809
 20
21.737
 30
0.0
 10
20.2809
 20
21.737
 30
0.0
 10
20.2809
 20
23.1217
 30
0.0
 10
20.2809
 20
23.1217
 30
0.0
 10
20.2809
 20
23.1217
 30
0.0
 10
20.2809
 20
23.1217
 30
0.0
 10
20.2809
 20
23.7889
 30
0.0
 10
20.2809
 20
23.7889
 30
0.0
  0
SPLINE
  5
DC
330
1F
100
AcDbEntity
  8
DEFAULT_1
 62
   250
100
AcDbSpline
210
0.0
220
0.0
230
1.0
 70
    24
 71
     3
 72
    16
 73
    12
 74
     0
 42
0.0000000001
 43
0.0000000001
 40
0.0
 40
0.0
 40
0.0
 40
0.0
 40
0.25
 40
0.25
 40
0.25
 40
0.25
 40
0.5
 40
0.5
 40
0.5
 40
0.5
 40
1.0
 40
1.0
 40
1.0
 40
1.0
 10
20.6674
 20
23.8302
 30
0.0
 10
20.6674
 20
23.8302
 30
0.0
 10
20.6674
 20
24.5333
 30
0.0
 10
20.6674
 20
24.5333
 30
0.0
 10
20.6674
 20
24.5333
 30
0.0
 10
20.6674
 20
24.5333
 30
0.0
 10
20.6674
 20
25.5882
 30
0.0
 10
20.6674
 20
25.5882
 30
0.0
 10
20.6674
 20
25.5882
 30
0.0
 10
20.6674
 20
25.5882
 30
0.0
 10
20.6674
 20
26.2913
 30
0.0
 10
20.6674
 20
26.2913
 30
0.0
  0
SPLINE
  5
DD
330
1F
100
AcDbEntity
  8
DEFAULT_1
 62
   250
100
AcDbSpline
210
0.0
220
0.0
230
1.0
 70
    24
 71
     3
 72
    16
 73
    12
 74
     0
 42
0.0000000001
 43
0.0000000001
 40
0.0
 40
0.0
 40
0.0
 40
0.0
 40
0.25
 40
0.25
 40
0.25
 40
0.25
 40
0.5
 40
0.5
 40
0.5
 40
0.5
 40
1.0
 40
1.0
 40
1.0
 40
1.0
 10
-14.6998
 20
26.2913
 30
0.0
 10
-14.6998
 20
26.2913
 30
0.0
 10
-14.6998
 20
25.5886
 30
0.0
 10
-14.6998
 20
25.5886
 30
0.0
 10
-14.6998
 20
25.5886
 30
0.0
 10
-14.6998
 20
25.5886
 30
0.0
 10
-14.6998
 20
24.5346
 30
0.0
 10
-14.6998
 20
24.5346
 30
0.0
 10
-14.6998
 20
24.5346
 30
0.0
 10
-14.6998
 20
24.5346
 30
0.0
 10
-14.6998
 20
23.8319
 30
0.0
 10
-14.6998
 20
23.8319
 30
0.0
  0
SPLINE
  5
DE
330
1F
100
AcDbEntity
  8
DEFAULT_1
 62
   250
100
AcDbSpline
210
0.0
220
0.0
230
1.0
 70
     8
 71
     3
 72
    12
 73
     8
 74
     0
 42
0.0000000001
 43
0.0000000001
 40
0.0
 40
0.0
 40
0.0
 40
0.0
 40
0.3333333333333333
 40
0.3333333333333333
 40
0.3333333333333333
 40
0.3333333333333333
 40
1.0
 40
1.0
 40
1.0
 40
1.0
 10
-14.1352
 20
24.4563
 30
0.0
 10
-14.1352
 20
24.4563
 30
0.0
 10
-14.1585
 20
25.1231
 30
0.0
 10
-14.1585
 20
25.1231
 30
0.0
 10
-14.1585
 20
25.1231
 30
0.0
 10
-14.1585
 20
25.1231
 30
0.0
 10
-14.1704
 20
25.4634
 30
0.0
 10
-14.1704
 20
25.4634
 30
0.0
  0
SPLINE
  5
DF
330
1F
100
AcDbEntity
  8
DEFAULT_1
 62
   250
100
AcDbSpline
210
0.0
220
0.0
230
1.0
 70
     8
 71
     3
 72
     8
 73
     4
 74
     0
 42
0.0000000001
 43
0.0000000001
 40
0.0
 40
0.0
 40
0.0
 40
0.0
 40
1.0
 40
1.0
 40
1.0
 40
1.0
 10
-14.1704
 20
25.4634
 30
0.0
 10
-14.177
 20
25.6484
 30
0.0
 10
-14.0392
 20
26.2106
 30
0.0
 10
-14.358
 20
26.2913
 30
0.0
  0
SPLINE
  5
E0
330
1F
100
AcDbEntity
  8
DEFAULT_1
 62
   250
100
AcDbSpline
210
0.0
220
0.0
230
1.0
 70
     8
 71
     3
 72
     8
 73
     4
 74
     0
 42
0.0000000001
 43
0.0000000001
 40
0.0
 40
0.0
 40
0.0
 40
0.0
 40
1.0
 40
1.0
 40
1.0
 40
1.0
 10
-14.1352
 20
24.4563
 30
0.0
 10
-13.3236
 20
24.4563
 30
0.0
 10
-12.5119
 20
24.4564
 30
0.0
 10
-11.7004
 20
24.4564
 30
0.0
  0
SPLINE
  5
E1
330
1F
100
AcDbEntity
  8
DEFAULT_1
 62
   250
100
AcDbSpline
210
0.0
220
0.0
230
1.0
 70
    24
 71
     3
 72
     8
 73
     4
 74
     0
 42
0.0000000001
 43
0.0000000001
 40
0.0
 40
0.0
 40
0.0
 40
0.0
 40
1.0
 40
1.0
 40
1.0
 40
1.0
 10
-13.8535
 20
9.275
 30
0.0
 10
-13.8535
 20
9.275
 30
0.0
 10
-14.3053
 20
9.275
 30
0.0
 10
-14.3053
 20
9.275
 30
0.0
  0
SPLINE
  5
E2
330
1F
100
AcDbEntity
  8
DEFAULT_1
 62
   250
100
AcDbSpline
210
0.0
220
0.0
230
1.0
 70
    24
 71
     3
 72
     8
 73
     4
 74
     0
 42
0.0000000001
 43
0.0000000001
 40
0.0
 40
0.0
 40
0.0
 40
0.0
 40
1.0
 40
1.0
 40
1.0
 40
1.0
 10
-13.8577
 20
11.9444
 30
0.0
 10
-13.8577
 20
11.9444
 30
0.0
 10
-14.3053
 20
11.9444
 30
0.0
 10
-14.3053
 20
11.9444
 30
0.0
  0
SPLINE
  5
E3
330
1F
100
AcDbEntity
  8
DEFAULT_1
 62
   250
100
AcDbSpline
210
0.0
220
0.0
230
1.0
 70
    24
 71
     3
 72
     8
 73
     4
 74
     0
 42
0.0000000001
 43
0.0000000001
 40
0.0
 40
0.0
 40
0.0
 40
0.0
 40
1.0
 40
1.0
 40
1.0
 40
1.0
 10
-13.8472
 20
14.6135
 30
0.0
 10
-13.8472
 20
14.6135
 30
0.0
 10
-14.3054
 20
14.6135
 30
0.0
 10
-14.3054
 20
14.6135
 30
0.0
  0
SPLINE
  5
E4
330
1F
100
AcDbEntity
  8
DEFAULT_1
 62
   250
100
AcDbSpline
210
0.0
220
0.0
230
1.0
 70
    24
 71
     3
 72
     8
 73
     4
 74
     0
 42
0.0000000001
 43
0.0000000001
 40
0.0
 40
0.0
 40
0.0
 40
0.0
 40
1.0
 40
1.0
 40
1.0
 40
1.0
 10
-13.856
 20
17.2828
 30
0.0
 10
-13.856
 20
17.2828
 30
0.0
 10
-14.3054
 20
17.2828
 30
0.0
 10
-14.3054
 20
17.2828
 30
0.0
  0
SPLINE
  5
E5
330
1F
100
AcDbEntity
  8
DEFAULT_1
 62
   250
100
AcDbSpline
210
0.0
220
0.0
230
1.0
 70
    24
 71
     3
 72
     8
 73
     4
 74
     0
 42
0.0000000001
 43
0.0000000001
 40
0.0
 40
0.0
 40
0.0
 40
0.0
 40
1.0
 40
1.0
 40
1.0
 40
1.0
 10
-13.8561
 20
19.952
 30
0.0
 10
-13.8561
 20
19.952
 30
0.0
 10
-14.3053
 20
19.952
 30
0.0
 10
-14.3053
 20
19.952
 30
0.0
  0
SPLINE
  5
E6
330
1F
100
AcDbEntity
  8
DEFAULT_1
 62
   250
100
AcDbSpline
210
0.0
220
0.0
230
1.0
 70
    24
 71
     3
 72
     8
 73
     4
 74
     0
 42
0.0000000001
 43
0.0000000001
 40
0.0
 40
0.0
 40
0.0
 40
0.0
 40
1.0
 40
1.0
 40
1.0
 40
1.0
 10
-14.3132
 20
23.811
 30
0.0
 10
-14.3132
 20
23.811
 30
0.0
 10
-14.708
 20
23.811
 30
0.0
 10
-14.708
 20
23.811
 30
0.0
  0
SPLINE
  5
E7
330
1F
100
AcDbEntity
  8
DEFAULT_1
 62
   250
100
AcDbSpline
210
0.0
220
0.0
230
1.0
 70
     8
 71
     3
 72
     8
 73
     4
 74
     0
 42
0.0000000001
 43
0.0000000001
 40
0.0
 40
0.0
 40
0.0
 40
0.0
 40
1.0
 40
1.0
 40
1.0
 40
1.0
 10
-14.3053
 20
9.275
 30
0.0
 10
-14.3053
 20
9.2595
 30
0.0
 10
-14.311
 20
7.9047
 30
0.0
 10
-14.3053
 20
7.8904
 30
0.0
  0
SPLINE
  5
E8
330
1F
100
AcDbEntity
  8
DEFAULT_1
 62
   250
100
AcDbSpline
210
0.0
220
0.0
230
1.0
 70
     8
 71
     3
 72
    12
 73
     8
 74
     0
 42
0.0000000001
 43
0.0000000001
 40
0.0
 40
0.0
 40
0.0
 40
0.0
 40
0.3333333333333333
 40
0.3333333333333333
 40
0.3333333333333333
 40
0.3333333333333333
 40
1.0
 40
1.0
 40
1.0
 40
1.0
 10
-14.3053
 20
7.8904
 30
0.0
 10
-14.3053
 20
7.8904
 30
0.0
 10
-13.8549
 20
7.4402
 30
0.0
 10
-13.8549
 20
7.4402
 30
0.0
 10
-13.8549
 20
7.4402
 30
0.0
 10
-13.8549
 20
7.4402
 30
0.0
 10
-13.8549
 20
6.9397
 30
0.0
 10
-13.8549
 20
6.9397
 30
0.0
  0
SPLINE
  5
E9
330
1F
100
AcDbEntity
  8
DEFAULT_1
 62
   250
100
AcDbSpline
210
0.0
220
0.0
230
1.0
 70
     8
 71
     3
 72
    24
 73
    20
 74
     0
 42
0.0000000001
 43
0.0000000001
 40
0.0
 40
0.0
 40
0.0
 40
0.0
 40
0.1666666666666667
 40
0.1666666666666667
 40
0.1666666666666667
 40
0.1666666666666667
 40
0.3333333333333333
 40
0.3333333333333333
 40
0.3333333333333333
 40
0.3333333333333333
 40
0.5
 40
0.5
 40
0.5
 40
0.5
 40
0.6666666666666666
 40
0.6666666666666666
 40
0.6666666666666666
 40
0.6666666666666666
 40
1.0
 40
1.0
 40
1.0
 40
1.0
 10
-13.8549
 20
9.275
 30
0.0
 10
-13.8549
 20
9.275
 30
0.0
 10
-13.8549
 20
9.9423
 30
0.0
 10
-13.8549
 20
9.9423
 30
0.0
 10
-13.8549
 20
9.9423
 30
0.0
 10
-13.8549
 20
9.9423
 30
0.0
 10
-14.3053
 20
10.3928
 30
0.0
 10
-14.3053
 20
10.3928
 30
0.0
 10
-14.3053
 20
10.3928
 30
0.0
 10
-14.3053
 20
10.3928
 30
0.0
 10
-14.3053
 20
11.0602
 30
0.0
 10
-14.3053
 20
11.0602
 30
0.0
 10
-14.3053
 20
11.0602
 30
0.0
 10
-14.3053
 20
11.0602
 30
0.0
 10
-14.3053
 20
11.277
 30
0.0
 10
-14.3053
 20
11.277
 30
0.0
 10
-14.3053
 20
11.277
 30
0.0
 10
-14.3053
 20
11.277
 30
0.0
 10
-14.3053
 20
11.9444
 30
0.0
 10
-14.3053
 20
11.9444
 30
0.0
  0
SPLINE
  5
EA
330
1F
100
AcDbEntity
  8
DEFAULT_1
 62
   250
100
AcDbSpline
210
0.0
220
0.0
230
1.0
 70
     8
 71
     3
 72
    24
 73
    20
 74
     0
 42
0.0000000001
 43
0.0000000001
 40
0.0
 40
0.0
 40
0.0
 40
0.0
 40
0.1666666666666667
 40
0.1666666666666667
 40
0.1666666666666667
 40
0.1666666666666667
 40
0.3333333333333333
 40
0.3333333333333333
 40
0.3333333333333333
 40
0.3333333333333333
 40
0.5
 40
0.5
 40
0.5
 40
0.5
 40
0.6666666666666666
 40
0.6666666666666666
 40
0.6666666666666666
 40
0.6666666666666666
 40
1.0
 40
1.0
 40
1.0
 40
1.0
 10
-13.8549
 20
11.9444
 30
0.0
 10
-13.8549
 20
11.9444
 30
0.0
 10
-13.8549
 20
12.6116
 30
0.0
 10
-13.8549
 20
12.6116
 30
0.0
 10
-13.8549
 20
12.6116
 30
0.0
 10
-13.8549
 20
12.6116
 30
0.0
 10
-14.3053
 20
13.062
 30
0.0
 10
-14.3053
 20
13.062
 30
0.0
 10
-14.3053
 20
13.062
 30
0.0
 10
-14.3053
 20
13.062
 30
0.0
 10
-14.3053
 20
13.7295
 30
0.0
 10
-14.3053
 20
13.7295
 30
0.0
 10
-14.3053
 20
13.7295
 30
0.0
 10
-14.3053
 20
13.7295
 30
0.0
 10
-14.3053
 20
13.9462
 30
0.0
 10
-14.3053
 20
13.9462
 30
0.0
 10
-14.3053
 20
13.9462
 30
0.0
 10
-14.3053
 20
13.9462
 30
0.0
 10
-14.3053
 20
14.6135
 30
0.0
 10
-14.3053
 20
14.6135
 30
0.0
  0
SPLINE
  5
EB
330
1F
100
AcDbEntity
  8
DEFAULT_1
 62
   250
100
AcDbSpline
210
0.0
220
0.0
230
1.0
 70
     8
 71
     3
 72
    24
 73
    20
 74
     0
 42
0.0000000001
 43
0.0000000001
 40
0.0
 40
0.0
 40
0.0
 40
0.0
 40
0.1666666666666667
 40
0.1666666666666667
 40
0.1666666666666667
 40
0.1666666666666667
 40
0.3333333333333333
 40
0.3333333333333333
 40
0.3333333333333333
 40
0.3333333333333333
 40
0.5
 40
0.5
 40
0.5
 40
0.5
 40
0.6666666666666666
 40
0.6666666666666666
 40
0.6666666666666666
 40
0.6666666666666666
 40
1.0
 40
1.0
 40
1.0
 40
1.0
 10
-14.3053
 20
17.2828
 30
0.0
 10
-14.3053
 20
17.2828
 30
0.0
 10
-14.3053
 20
16.6155
 30
0.0
 10
-14.3053
 20
16.6155
 30
0.0
 10
-14.3053
 20
16.6155
 30
0.0
 10
-14.3053
 20
16.6155
 30
0.0
 10
-14.3053
 20
16.3986
 30
0.0
 10
-14.3053
 20
16.3986
 30
0.0
 10
-14.3053
 20
16.3986
 30
0.0
 10
-14.3053
 20
16.3986
 30
0.0
 10
-14.3053
 20
15.7313
 30
0.0
 10
-14.3053
 20
15.7313
 30
0.0
 10
-14.3053
 20
15.7313
 30
0.0
 10
-14.3053
 20
15.7313
 30
0.0
 10
-13.8549
 20
15.2809
 30
0.0
 10
-13.8549
 20
15.2809
 30
0.0
 10
-13.8549
 20
15.2809
 30
0.0
 10
-13.8549
 20
15.2809
 30
0.0
 10
-13.8549
 20
14.6135
 30
0.0
 10
-13.8549
 20
14.6135
 30
0.0
  0
SPLINE
  5
EC
330
1F
100
AcDbEntity
  8
DEFAULT_1
 62
   250
100
AcDbSpline
210
0.0
220
0.0
230
1.0
 70
     8
 71
     3
 72
    24
 73
    20
 74
     0
 42
0.0000000001
 43
0.0000000001
 40
0.0
 40
0.0
 40
0.0
 40
0.0
 40
0.1666666666666667
 40
0.1666666666666667
 40
0.1666666666666667
 40
0.1666666666666667
 40
0.3333333333333333
 40
0.3333333333333333
 40
0.3333333333333333
 40
0.3333333333333333
 40
0.5
 40
0.5
 40
0.5
 40
0.5
 40
0.6666666666666666
 40
0.6666666666666666
 40
0.6666666666666666
 40
0.6666666666666666
 40
1.0
 40
1.0
 40
1.0
 40
1.0
 10
-14.3053
 20
19.952
 30
0.0
 10
-14.3053
 20
19.952
 30
0.0
 10
-14.3053
 20
19.2847
 30
0.0
 10
-14.3053
 20
19.2847
 30
0.0
 10
-14.3053
 20
19.2847
 30
0.0
 10
-14.3053
 20
19.2847
 30
0.0
 10
-14.3053
 20
19.0679
 30
0.0
 10
-14.3053
 20
19.0679
 30
0.0
 10
-14.3053
 20
19.0679
 30
0.0
 10
-14.3053
 20
19.0679
 30
0.0
 10
-14.3053
 20
18.4005
 30
0.0
 10
-14.3053
 20
18.4005
 30
0.0
 10
-14.3053
 20
18.4005
 30
0.0
 10
-14.3053
 20
18.4005
 30
0.0
 10
-13.8549
 20
17.9502
 30
0.0
 10
-13.8549
 20
17.9502
 30
0.0
 10
-13.8549
 20
17.9502
 30
0.0
 10
-13.8549
 20
17.9502
 30
0.0
 10
-13.8549
 20
17.2828
 30
0.0
 10
-13.8549
 20
17.2828
 30
0.0
  0
SPLINE
  5
ED
330
1F
100
AcDbEntity
  8
DEFAULT_1
 62
   250
100
AcDbSpline
210
0.0
220
0.0
230
1.0
 70
     8
 71
     3
 72
    24
 73
    20
 74
     0
 42
0.0000000001
 43
0.0000000001
 40
0.0
 40
0.0
 40
0.0
 40
0.0
 40
0.1666666666666667
 40
0.1666666666666667
 40
0.1666666666666667
 40
0.1666666666666667
 40
0.3333333333333333
 40
0.3333333333333333
 40
0.3333333333333333
 40
0.3333333333333333
 40
0.5
 40
0.5
 40
0.5
 40
0.5
 40
0.6666666666666666
 40
0.6666666666666666
 40
0.6666666666666666
 40
0.6666666666666666
 40
1.0
 40
1.0
 40
1.0
 40
1.0
 10
-13.8549
 20
19.952
 30
0.0
 10
-13.8549
 20
19.952
 30
0.0
 10
-13.8549
 20
20.6193
 30
0.0
 10
-13.8549
 20
20.6193
 30
0.0
 10
-13.8549
 20
20.6193
 30
0.0
 10
-13.8549
 20
20.6193
 30
0.0
 10
-14.3053
 20
21.0697
 30
0.0
 10
-14.3053
 20
21.0697
 30
0.0
 10
-14.3053
 20
21.0697
 30
0.0
 10
-14.3053
 20
21.0697
 30
0.0
 10
-14.3053
 20
21.737
 30
0.0
 10
-14.3053
 20
21.737
 30
0.0
 10
-14.3053
 20
21.737
 30
0.0
 10
-14.3053
 20
21.737
 30
0.0
 10
-14.3053
 20
23.1217
 30
0.0
 10
-14.3053
 20
23.1217
 30
0.0
 10
-14.3053
 20
23.1217
 30
0.0
 10
-14.3053
 20
23.1217
 30
0.0
 10
-14.3053
 20
23.7889
 30
0.0
 10
-14.3053
 20
23.7889
 30
0.0
  0
SPLINE
  5
EE
330
1F
100
AcDbEntity
  8
DEFAULT_1
 62
   250
100
AcDbSpline
210
0.0
220
0.0
230
1.0
 70
    24
 71
     3
 72
     8
 73
     4
 74
     0
 42
0.0000000001
 43
0.0000000001
 40
0.0
 40
0.0
 40
0.0
 40
0.0
 40
1.0
 40
1.0
 40
1.0
 40
1.0
 10
-13.7242
 20
6.8914
 30
0.0
 10
-13.7242
 20
6.8914
 30
0.0
 10
-13.345
 20
7.2706
 30
0.0
 10
-13.345
 20
7.2706
 30
0.0
  0
SPLINE
  5
EF
330
1F
100
AcDbEntity
  8
DEFAULT_1
 62
   250
100
AcDbSpline
210
0.0
220
0.0
230
1.0
 70
    24
 71
     3
 72
     8
 73
     4
 74
     0
 42
0.0000000001
 43
0.0000000001
 40
0.0
 40
0.0
 40
0.0
 40
0.0
 40
1.0
 40
1.0
 40
1.0
 40
1.0
 10
-13.9406
 20
7.675
 30
0.0
 10
-13.9406
 20
7.675
 30
0.0
 10
-13.2792
 20
8.3364
 30
0.0
 10
-13.2792
 20
8.3364
 30
0.0
  0
SPLINE
  5
F0
330
1F
100
AcDbEntity
  8
DEFAULT_1
 62
   250
100
AcDbSpline
210
0.0
220
0.0
230
1.0
 70
    24
 71
     3
 72
     8
 73
     4
 74
     0
 42
0.0000000001
 43
0.0000000001
 40
0.0
 40
0.0
 40
0.0
 40
0.0
 40
1.0
 40
1.0
 40
1.0
 40
1.0
 10
-14.3044
 20
8.3112
 30
0.0
 10
-14.3044
 20
8.3112
 30
0.0
 10
-13.3288
 20
9.2868
 30
0.0
 10
-13.3288
 20
9.2868
 30
0.0
  0
SPLINE
  5
F1
330
1F
100
AcDbEntity
  8
DEFAULT_1
 62
   250
100
AcDbSpline
210
0.0
220
0.0
230
1.0
 70
    24
 71
     3
 72
     8
 73
     4
 74
     0
 42
0.0000000001
 43
0.0000000001
 40
0.0
 40
0.0
 40
0.0
 40
0.0
 40
1.0
 40
1.0
 40
1.0
 40
1.0
 10
-13.7595
 20
9.8561
 30
0.0
 10
-13.7595
 20
9.8561
 30
0.0
 10
-13.246
 20
10.3696
 30
0.0
 10
-13.246
 20
10.3696
 30
0.0
  0
SPLINE
  5
F2
330
1F
100
AcDbEntity
  8
DEFAULT_1
 62
   250
100
AcDbSpline
210
0.0
220
0.0
230
1.0
 70
    24
 71
     3
 72
     8
 73
     4
 74
     0
 42
0.0000000001
 43
0.0000000001
 40
0.0
 40
0.0
 40
0.0
 40
0.0
 40
1.0
 40
1.0
 40
1.0
 40
1.0
 10
-14.1311
 20
10.4845
 30
0.0
 10
-14.1311
 20
10.4845
 30
0.0
 10
-13.3287
 20
11.2869
 30
0.0
 10
-13.3287
 20
11.2869
 30
0.0
  0
SPLINE
  5
F3
330
1F
100
AcDbEntity
  8
DEFAULT_1
 62
   250
100
AcDbSpline
210
0.0
220
0.0
230
1.0
 70
    24
 71
     3
 72
     8
 73
     4
 74
     0
 42
0.0000000001
 43
0.0000000001
 40
0.0
 40
0.0
 40
0.0
 40
0.0
 40
1.0
 40
1.0
 40
1.0
 40
1.0
 10
-14.2382
 20
11.3774
 30
0.0
 10
-14.2382
 20
11.3774
 30
0.0
 10
-13.3452
 20
12.2704
 30
0.0
 10
-13.3452
 20
12.2704
 30
0.0
  0
SPLINE
  5
F4
330
1F
100
AcDbEntity
  8
DEFAULT_1
 62
   250
100
AcDbSpline
210
0.0
220
0.0
230
1.0
 70
    24
 71
     3
 72
     8
 73
     4
 74
     0
 42
0.0000000001
 43
0.0000000001
 40
0.0
 40
0.0
 40
0.0
 40
0.0
 40
1.0
 40
1.0
 40
1.0
 40
1.0
 10
-13.8987
 20
12.7169
 30
0.0
 10
-13.8987
 20
12.7169
 30
0.0
 10
-13.3618
 20
13.2538
 30
0.0
 10
-13.3618
 20
13.2538
 30
0.0
  0
SPLINE
  5
F5
330
1F
100
AcDbEntity
  8
DEFAULT_1
 62
   250
100
AcDbSpline
210
0.0
220
0.0
230
1.0
 70
    24
 71
     3
 72
     8
 73
     4
 74
     0
 42
0.0000000001
 43
0.0000000001
 40
0.0
 40
0.0
 40
0.0
 40
0.0
 40
1.0
 40
1.0
 40
1.0
 40
1.0
 10
-14.4026
 20
13.213
 30
0.0
 10
-14.4026
 20
13.213
 30
0.0
 10
-13.3287
 20
14.2869
 30
0.0
 10
-13.3287
 20
14.2869
 30
0.0
  0
SPLINE
  5
F6
330
1F
100
AcDbEntity
  8
DEFAULT_1
 62
   250
100
AcDbSpline
210
0.0
220
0.0
230
1.0
 70
    24
 71
     3
 72
     8
 73
     4
 74
     0
 42
0.0000000001
 43
0.0000000001
 40
0.0
 40
0.0
 40
0.0
 40
0.0
 40
1.0
 40
1.0
 40
1.0
 40
1.0
 10
-13.8743
 20
14.7413
 30
0.0
 10
-13.8743
 20
14.7413
 30
0.0
 10
-13.2955
 20
15.3201
 30
0.0
 10
-13.2955
 20
15.3201
 30
0.0
  0
SPLINE
  5
F7
330
1F
100
AcDbEntity
  8
DEFAULT_1
 62
   250
100
AcDbSpline
210
0.0
220
0.0
230
1.0
 70
    24
 71
     3
 72
     8
 73
     4
 74
     0
 42
0.0000000001
 43
0.0000000001
 40
0.0
 40
0.0
 40
0.0
 40
0.0
 40
1.0
 40
1.0
 40
1.0
 40
1.0
 10
-14.1227
 20
15.4929
 30
0.0
 10
-14.1227
 20
15.4929
 30
0.0
 10
-13.3782
 20
16.2374
 30
0.0
 10
-13.3782
 20
16.2374
 30
0.0
  0
SPLINE
  5
F8
330
1F
100
AcDbEntity
  8
DEFAULT_1
 62
   250
100
AcDbSpline
210
0.0
220
0.0
230
1.0
 70
    24
 71
     3
 72
     8
 73
     4
 74
     0
 42
0.0000000001
 43
0.0000000001
 40
0.0
 40
0.0
 40
0.0
 40
0.0
 40
1.0
 40
1.0
 40
1.0
 40
1.0
 10
-14.3124
 20
16.3032
 30
0.0
 10
-14.3124
 20
16.3032
 30
0.0
 10
-13.3782
 20
17.2374
 30
0.0
 10
-13.3782
 20
17.2374
 30
0.0
  0
SPLINE
  5
F9
330
1F
100
AcDbEntity
  8
DEFAULT_1
 62
   250
100
AcDbSpline
210
0.0
220
0.0
230
1.0
 70
    24
 71
     3
 72
     8
 73
     4
 74
     0
 42
0.0000000001
 43
0.0000000001
 40
0.0
 40
0.0
 40
0.0
 40
0.0
 40
1.0
 40
1.0
 40
1.0
 40
1.0
 10
-13.8738
 20
17.7418
 30
0.0
 10
-13.8738
 20
17.7418
 30
0.0
 10
-13.3782
 20
18.2374
 30
0.0
 10
-13.3782
 20
18.2374
 30
0.0
  0
SPLINE
  5
FA
330
1F
100
AcDbEntity
  8
DEFAULT_1
 62
   250
100
AcDbSpline
210
0.0
220
0.0
230
1.0
 70
    24
 71
     3
 72
     8
 73
     4
 74
     0
 42
0.0000000001
 43
0.0000000001
 40
0.0
 40
0.0
 40
0.0
 40
0.0
 40
1.0
 40
1.0
 40
1.0
 40
1.0
 10
-14.2288
 20
18.3868
 30
0.0
 10
-14.2288
 20
18.3868
 30
0.0
 10
-13.3947
 20
19.2209
 30
0.0
 10
-13.3947
 20
19.2209
 30
0.0
  0
SPLINE
  5
FB
330
1F
100
AcDbEntity
  8
DEFAULT_1
 62
   250
100
AcDbSpline
210
0.0
220
0.0
230
1.0
 70
    24
 71
     3
 72
     8
 73
     4
 74
     0
 42
0.0000000001
 43
0.0000000001
 40
0.0
 40
0.0
 40
0.0
 40
0.0
 40
1.0
 40
1.0
 40
1.0
 40
1.0
 10
-14.2696
 20
19.346
 30
0.0
 10
-14.2696
 20
19.346
 30
0.0
 10
-13.3535
 20
20.2621
 30
0.0
 10
-13.3535
 20
20.2621
 30
0.0
  0
SPLINE
  5
FC
330
1F
100
AcDbEntity
  8
DEFAULT_1
 62
   250
100
AcDbSpline
210
0.0
220
0.0
230
1.0
 70
    24
 71
     3
 72
     8
 73
     4
 74
     0
 42
0.0000000001
 43
0.0000000001
 40
0.0
 40
0.0
 40
0.0
 40
0.0
 40
1.0
 40
1.0
 40
1.0
 40
1.0
 10
-13.9158
 20
20.6998
 30
0.0
 10
-13.9158
 20
20.6998
 30
0.0
 10
-13.337
 20
21.2786
 30
0.0
 10
-13.337
 20
21.2786
 30
0.0
  0
SPLINE
  5
FD
330
1F
100
AcDbEntity
  8
DEFAULT_1
 62
   250
100
AcDbSpline
210
0.0
220
0.0
230
1.0
 70
    24
 71
     3
 72
     8
 73
     4
 74
     0
 42
0.0000000001
 43
0.0000000001
 40
0.0
 40
0.0
 40
0.0
 40
0.0
 40
1.0
 40
1.0
 40
1.0
 40
1.0
 10
-14.2855
 20
21.3301
 30
0.0
 10
-14.2855
 20
21.3301
 30
0.0
 10
-13.3866
 20
22.229
 30
0.0
 10
-13.3866
 20
22.229
 30
0.0
  0
SPLINE
  5
FE
330
1F
100
AcDbEntity
  8
DEFAULT_1
 62
   250
100
AcDbSpline
210
0.0
220
0.0
230
1.0
 70
    24
 71
     3
 72
     8
 73
     4
 74
     0
 42
0.0000000001
 43
0.0000000001
 40
0.0
 40
0.0
 40
0.0
 40
0.0
 40
1.0
 40
1.0
 40
1.0
 40
1.0
 10
-14.3126
 20
22.303
 30
0.0
 10
-14.3126
 20
22.303
 30
0.0
 10
-13.37
 20
23.2456
 30
0.0
 10
-13.37
 20
23.2456
 30
0.0
  0
SPLINE
  5
FF
330
1F
100
AcDbEntity
  8
DEFAULT_1
 62
   250
100
AcDbSpline
210
0.0
220
0.0
230
1.0
 70
    24
 71
     3
 72
     8
 73
     4
 74
     0
 42
0.0000000001
 43
0.0000000001
 40
0.0
 40
0.0
 40
0.0
 40
0.0
 40
1.0
 40
1.0
 40
1.0
 40
1.0
 10
-14.3177
 20
23.2979
 30
0.0
 10
-14.3177
 20
23.2979
 30
0.0
 10
-13.4197
 20
24.1959
 30
0.0
 10
-13.4197
 20
24.1959
 30
0.0
  0
SPLINE
  5
100
330
1F
100
AcDbEntity
  8
DEFAULT_1
 62
   250
100
AcDbSpline
210
0.0
220
0.0
230
1.0
 70
    24
 71
     3
 72
     8
 73
     4
 74
     0
 42
0.0000000001
 43
0.0000000001
 40
0.0
 40
0.0
 40
0.0
 40
0.0
 40
1.0
 40
1.0
 40
1.0
 40
1.0
 10
-14.7095
 20
23.9061
 30
0.0
 10
-14.7095
 20
23.9061
 30
0.0
 10
-14.127
 20
24.4886
 30
0.0
 10
-14.127
 20
24.4886
 30
0.0
  0
SPLINE
  5
101
330
1F
100
AcDbEntity
  8
DEFAULT_1
 62
   250
100
AcDbSpline
210
0.0
220
0.0
230
1.0
 70
    24
 71
     3
 72
     8
 73
     4
 74
     0
 42
0.0000000001
 43
0.0000000001
 40
0.0
 40
0.0
 40
0.0
 40
0.0
 40
1.0
 40
1.0
 40
1.0
 40
1.0
 10
-14.6599
 20
24.9557
 30
0.0
 10
-14.6599
 20
24.9557
 30
0.0
 10
-14.2631
 20
25.3525
 30
0.0
 10
-14.2631
 20
25.3525
 30
0.0
  0
SPLINE
  5
102
330
1F
100
AcDbEntity
  8
DEFAULT_1
 62
   250
100
AcDbSpline
210
0.0
220
0.0
230
1.0
 70
    24
 71
     3
 72
     8
 73
     4
 74
     0
 42
0.0000000001
 43
0.0000000001
 40
0.0
 40
0.0
 40
0.0
 40
0.0
 40
1.0
 40
1.0
 40
1.0
 40
1.0
 10
19.3758
 20
6.8914
 30
0.0
 10
19.3758
 20
6.8914
 30
0.0
 10
19.755
 20
7.2706
 30
0.0
 10
19.755
 20
7.2706
 30
0.0
  0
SPLINE
  5
103
330
1F
100
AcDbEntity
  8
DEFAULT_1
 62
   250
100
AcDbSpline
210
0.0
220
0.0
230
1.0
 70
    24
 71
     3
 72
     8
 73
     4
 74
     0
 42
0.0000000001
 43
0.0000000001
 40
0.0
 40
0.0
 40
0.0
 40
0.0
 40
1.0
 40
1.0
 40
1.0
 40
1.0
 10
19.2522
 20
7.7678
 30
0.0
 10
19.2522
 20
7.7678
 30
0.0
 10
20.2341
 20
8.7497
 30
0.0
 10
20.2341
 20
8.7497
 30
0.0
  0
SPLINE
  5
104
330
1F
100
AcDbEntity
  8
DEFAULT_1
 62
   250
100
AcDbSpline
210
0.0
220
0.0
230
1.0
 70
    24
 71
     3
 72
     8
 73
     4
 74
     0
 42
0.0000000001
 43
0.0000000001
 40
0.0
 40
0.0
 40
0.0
 40
0.0
 40
1.0
 40
1.0
 40
1.0
 40
1.0
 10
19.2522
 20
8.7678
 30
0.0
 10
19.2522
 20
8.7678
 30
0.0
 10
19.7712
 20
9.2868
 30
0.0
 10
19.7712
 20
9.2868
 30
0.0
  0
SPLINE
  5
105
330
1F
100
AcDbEntity
  8
DEFAULT_1
 62
   250
100
AcDbSpline
210
0.0
220
0.0
230
1.0
 70
    24
 71
     3
 72
     8
 73
     4
 74
     0
 42
0.0000000001
 43
0.0000000001
 40
0.0
 40
0.0
 40
0.0
 40
0.0
 40
1.0
 40
1.0
 40
1.0
 40
1.0
 10
19.3405
 20
9.8561
 30
0.0
 10
19.3405
 20
9.8561
 30
0.0
 10
20.2474
 20
10.763
 30
0.0
 10
20.2474
 20
10.763
 30
0.0
  0
SPLINE
  5
106
330
1F
100
AcDbEntity
  8
DEFAULT_1
 62
   250
100
AcDbSpline
210
0.0
220
0.0
230
1.0
 70
    24
 71
     3
 72
     8
 73
     4
 74
     0
 42
0.0000000001
 43
0.0000000001
 40
0.0
 40
0.0
 40
0.0
 40
0.0
 40
1.0
 40
1.0
 40
1.0
 40
1.0
 10
19.2895
 20
10.8051
 30
0.0
 10
19.2895
 20
10.8051
 30
0.0
 10
20.1983
 20
11.7139
 30
0.0
 10
20.1983
 20
11.7139
 30
0.0
  0
SPLINE
  5
107
330
1F
100
AcDbEntity
  8
DEFAULT_1
 62
   250
100
AcDbSpline
210
0.0
220
0.0
230
1.0
 70
    24
 71
     3
 72
     8
 73
     4
 74
     0
 42
0.0000000001
 43
0.0000000001
 40
0.0
 40
0.0
 40
0.0
 40
0.0
 40
1.0
 40
1.0
 40
1.0
 40
1.0
 10
19.2978
 20
11.8134
 30
0.0
 10
19.2978
 20
11.8134
 30
0.0
 10
19.7548
 20
12.2704
 30
0.0
 10
19.7548
 20
12.2704
 30
0.0
  0
SPLINE
  5
108
330
1F
100
AcDbEntity
  8
DEFAULT_1
 62
   250
100
AcDbSpline
210
0.0
220
0.0
230
1.0
 70
    24
 71
     3
 72
     8
 73
     4
 74
     0
 42
0.0000000001
 43
0.0000000001
 40
0.0
 40
0.0
 40
0.0
 40
0.0
 40
1.0
 40
1.0
 40
1.0
 40
1.0
 10
19.2977
 20
12.8133
 30
0.0
 10
19.2977
 20
12.8133
 30
0.0
 10
20.2571
 20
13.7727
 30
0.0
 10
20.2571
 20
13.7727
 30
0.0
  0
SPLINE
  5
109
330
1F
100
AcDbEntity
  8
DEFAULT_1
 62
   250
100
AcDbSpline
210
0.0
220
0.0
230
1.0
 70
    24
 71
     3
 72
     8
 73
     4
 74
     0
 42
0.0000000001
 43
0.0000000001
 40
0.0
 40
0.0
 40
0.0
 40
0.0
 40
1.0
 40
1.0
 40
1.0
 40
1.0
 10
19.3225
 20
13.8381
 30
0.0
 10
19.3225
 20
13.8381
 30
0.0
 10
20.084
 20
14.5996
 30
0.0
 10
20.084
 20
14.5996
 30
0.0
  0
SPLINE
  5
10A
330
1F
100
AcDbEntity
  8
DEFAULT_1
 62
   250
100
AcDbSpline
210
0.0
220
0.0
230
1.0
 70
    24
 71
     3
 72
     8
 73
     4
 74
     0
 42
0.0000000001
 43
0.0000000001
 40
0.0
 40
0.0
 40
0.0
 40
0.0
 40
1.0
 40
1.0
 40
1.0
 40
1.0
 10
19.2257
 20
14.7413
 30
0.0
 10
19.2257
 20
14.7413
 30
0.0
 10
19.8045
 20
15.3201
 30
0.0
 10
19.8045
 20
15.3201
 30
0.0
  0
SPLINE
  5
10B
330
1F
100
AcDbEntity
  8
DEFAULT_1
 62
   250
100
AcDbSpline
210
0.0
220
0.0
230
1.0
 70
    24
 71
     3
 72
     8
 73
     4
 74
     0
 42
0.0000000001
 43
0.0000000001
 40
0.0
 40
0.0
 40
0.0
 40
0.0
 40
1.0
 40
1.0
 40
1.0
 40
1.0
 10
19.3226
 20
15.8382
 30
0.0
 10
19.3226
 20
15.8382
 30
0.0
 10
20.2833
 20
16.7989
 30
0.0
 10
20.2833
 20
16.7989
 30
0.0
  0
SPLINE
  5
10C
330
1F
100
AcDbEntity
  8
DEFAULT_1
 62
   250
100
AcDbSpline
210
0.0
220
0.0
230
1.0
 70
    24
 71
     3
 72
     8
 73
     4
 74
     0
 42
0.0000000001
 43
0.0000000001
 40
0.0
 40
0.0
 40
0.0
 40
0.0
 40
1.0
 40
1.0
 40
1.0
 40
1.0
 10
19.3392
 20
16.8548
 30
0.0
 10
19.3392
 20
16.8548
 30
0.0
 10
19.7877
 20
17.3033
 30
0.0
 10
19.7877
 20
17.3033
 30
0.0
  0
SPLINE
  5
10D
330
1F
100
AcDbEntity
  8
DEFAULT_1
 62
   250
100
AcDbSpline
210
0.0
220
0.0
230
1.0
 70
    24
 71
     3
 72
     8
 73
     4
 74
     0
 42
0.0000000001
 43
0.0000000001
 40
0.0
 40
0.0
 40
0.0
 40
0.0
 40
1.0
 40
1.0
 40
1.0
 40
1.0
 10
19.3557
 20
17.8713
 30
0.0
 10
19.3557
 20
17.8713
 30
0.0
 10
20.3008
 20
18.8164
 30
0.0
 10
20.3008
 20
18.8164
 30
0.0
  0
SPLINE
  5
10E
330
1F
100
AcDbEntity
  8
DEFAULT_1
 62
   250
100
AcDbSpline
210
0.0
220
0.0
230
1.0
 70
    24
 71
     3
 72
     8
 73
     4
 74
     0
 42
0.0000000001
 43
0.0000000001
 40
0.0
 40
0.0
 40
0.0
 40
0.0
 40
1.0
 40
1.0
 40
1.0
 40
1.0
 10
19.3889
 20
18.9045
 30
0.0
 10
19.3889
 20
18.9045
 30
0.0
 10
20.2654
 20
19.781
 30
0.0
 10
20.2654
 20
19.781
 30
0.0
  0
SPLINE
  5
10F
330
1F
100
AcDbEntity
  8
DEFAULT_1
 62
   250
100
AcDbSpline
210
0.0
220
0.0
230
1.0
 70
    24
 71
     3
 72
     8
 73
     4
 74
     0
 42
0.0000000001
 43
0.0000000001
 40
0.0
 40
0.0
 40
0.0
 40
0.0
 40
1.0
 40
1.0
 40
1.0
 40
1.0
 10
19.3476
 20
19.8632
 30
0.0
 10
19.3476
 20
19.8632
 30
0.0
 10
19.7465
 20
20.2621
 30
0.0
 10
19.7465
 20
20.2621
 30
0.0
  0
SPLINE
  5
110
330
1F
100
AcDbEntity
  8
DEFAULT_1
 62
   250
100
AcDbSpline
210
0.0
220
0.0
230
1.0
 70
    24
 71
     3
 72
     8
 73
     4
 74
     0
 42
0.0000000001
 43
0.0000000001
 40
0.0
 40
0.0
 40
0.0
 40
0.0
 40
1.0
 40
1.0
 40
1.0
 40
1.0
 10
19.3972
 20
20.9128
 30
0.0
 10
19.3972
 20
20.9128
 30
0.0
 10
20.2113
 20
21.7269
 30
0.0
 10
20.2113
 20
21.7269
 30
0.0
  0
SPLINE
  5
111
330
1F
100
AcDbEntity
  8
DEFAULT_1
 62
   250
100
AcDbSpline
210
0.0
220
0.0
230
1.0
 70
    24
 71
     3
 72
     8
 73
     4
 74
     0
 42
0.0000000001
 43
0.0000000001
 40
0.0
 40
0.0
 40
0.0
 40
0.0
 40
1.0
 40
1.0
 40
1.0
 40
1.0
 10
19.4055
 20
21.9211
 30
0.0
 10
19.4055
 20
21.9211
 30
0.0
 10
20.2366
 20
22.7522
 30
0.0
 10
20.2366
 20
22.7522
 30
0.0
  0
SPLINE
  5
112
330
1F
100
AcDbEntity
  8
DEFAULT_1
 62
   250
100
AcDbSpline
210
0.0
220
0.0
230
1.0
 70
    24
 71
     3
 72
     8
 73
     4
 74
     0
 42
0.0000000001
 43
0.0000000001
 40
0.0
 40
0.0
 40
0.0
 40
0.0
 40
1.0
 40
1.0
 40
1.0
 40
1.0
 10
19.3559
 20
22.8715
 30
0.0
 10
19.3559
 20
22.8715
 30
0.0
 10
20.204
 20
23.7196
 30
0.0
 10
20.204
 20
23.7196
 30
0.0
  0
SPLINE
  5
113
330
1F
100
AcDbEntity
  8
DEFAULT_1
 62
   250
100
AcDbSpline
210
0.0
220
0.0
230
1.0
 70
    24
 71
     3
 72
     8
 73
     4
 74
     0
 42
0.0000000001
 43
0.0000000001
 40
0.0
 40
0.0
 40
0.0
 40
0.0
 40
1.0
 40
1.0
 40
1.0
 40
1.0
 10
19.3889
 20
23.9045
 30
0.0
 10
19.3889
 20
23.9045
 30
0.0
 10
19.94
 20
24.4556
 30
0.0
 10
19.94
 20
24.4556
 30
0.0
  0
SPLINE
  5
114
330
1F
100
AcDbEntity
  8
DEFAULT_1
 62
   250
100
AcDbSpline
210
0.0
220
0.0
230
1.0
 70
    24
 71
     3
 72
     8
 73
     4
 74
     0
 42
0.0000000001
 43
0.0000000001
 40
0.0
 40
0.0
 40
0.0
 40
0.0
 40
1.0
 40
1.0
 40
1.0
 40
1.0
 10
20.1743
 20
25.6899
 30
0.0
 10
20.1743
 20
25.6899
 30
0.0
 10
20.5771
 20
26.0927
 30
0.0
 10
20.5771
 20
26.0927
 30
0.0
  0
SPLINE
  5
115
330
1F
100
AcDbEntity
  8
DEFAULT_1
 62
   250
100
AcDbSpline
210
0.0
220
0.0
230
1.0
 70
    24
 71
     3
 72
     8
 73
     4
 74
     0
 42
0.0000000001
 43
0.0000000001
 40
0.0
 40
0.0
 40
0.0
 40
0.0
 40
1.0
 40
1.0
 40
1.0
 40
1.0
 10
20.0999
 20
24.6155
 30
0.0
 10
20.0999
 20
24.6155
 30
0.0
 10
20.6345
 20
25.1501
 30
0.0
 10
20.6345
 20
25.1501
 30
0.0
  0
SPLINE
  5
116
330
1F
100
AcDbEntity
  8
DEFAULT_1
 62
   250
100
AcDbSpline
210
0.0
220
0.0
230
1.0
 70
    24
 71
     3
 72
     8
 73
     4
 74
     0
 42
0.0000000001
 43
0.0000000001
 40
0.0
 40
0.0
 40
0.0
 40
0.0
 40
1.0
 40
1.0
 40
1.0
 40
1.0
 10
-14.4162
 20
-1.8817
 30
0.0
 10
-14.4162
 20
-1.8817
 30
0.0
 10
-14.4162
 20
7.5231
 30
0.0
 10
-14.4162
 20
7.5231
 30
0.0
  0
SPLINE
  5
117
330
1F
100
AcDbEntity
  8
DEFAULT_1
 62
   250
100
AcDbSpline
210
0.0
220
0.0
230
1.0
 70
    24
 71
     3
 72
     8
 73
     4
 74
     0
 42
0.0000000001
 43
0.0000000001
 40
0.0
 40
0.0
 40
0.0
 40
0.0
 40
1.0
 40
1.0
 40
1.0
 40
1.0
 10
20.3484
 20
-1.6748
 30
0.0
 10
20.3484
 20
-1.6748
 30
0.0
 10
20.3484
 20
7.4937
 30
0.0
 10
20.3484
 20
7.4937
 30
0.0
  0
SPLINE
  5
118
330
1F
100
AcDbEntity
  8
DEFAULT_1
 62
   250
100
AcDbSpline
210
0.0
220
0.0
230
1.0
 70
    24
 71
     3
 72
     8
 73
     4
 74
     0
 42
0.0000000001
 43
0.0000000001
 40
0.0
 40
0.0
 40
0.0
 40
0.0
 40
1.0
 40
1.0
 40
1.0
 40
1.0
 10
20.0579
 20
-1.3736
 30
0.0
 10
20.0579
 20
-1.3736
 30
0.0
 10
-14.1392
 20
-1.3736
 30
0.0
 10
-14.1392
 20
-1.3736
 30
0.0
  0
SPLINE
  5
119
330
1F
100
AcDbEntity
  8
DEFAULT_1
 62
   250
100
AcDbSpline
210
0.0
220
0.0
230
1.0
 70
    11
 71
     3
 72
    84
 73
    80
 74
     0
 42
0.0000000001
 43
0.0000000001
 40
0.0
 40
0.0
 40
0.0
 40
0.0
 40
0.0476190476190476
 40
0.0476190476190476
 40
0.0476190476190476
 40
0.0476190476190476
 40
0.0952380952380952
 40
0.0952380952380952
 40
0.0952380952380952
 40
0.0952380952380952
 40
0.1428571428571428
 40
0.1428571428571428
 40
0.1428571428571428
 40
0.1428571428571428
 40
0.1904761904761905
 40
0.1904761904761905
 40
0.1904761904761905
 40
0.1904761904761905
 40
0.2380952380952381
 40
0.2380952380952381
 40
0.2380952380952381
 40
0.2380952380952381
 40
0.2857142857142857
 40
0.2857142857142857
 40
0.2857142857142857
 40
0.2857142857142857
 40
0.3333333333333333
 40
0.3333333333333333
 40
0.3333333333333333
 40
0.3333333333333333
 40
0.3809523809523809
 40
0.3809523809523809
 40
0.3809523809523809
 40
0.3809523809523809
 40
0.4285714285714285
 40
0.4285714285714285
 40
0.4285714285714285
 40
0.4285714285714285
 40
0.4761904761904762
 40
0.4761904761904762
 40
0.4761904761904762
 40
0.4761904761904762
 40
0.5238095238095238
 40
0.5238095238095238
 40
0.5238095238095238
 40
0.5238095238095238
 40
0.5714285714285714
 40
0.5714285714285714
 40
0.5714285714285714
 40
0.5714285714285714
 40
0.6190476190476191
 40
0.6190476190476191
 40
0.6190476190476191
 40
0.6190476190476191
 40
0.6666666666666666
 40
0.6666666666666666
 40
0.6666666666666666
 40
0.6666666666666666
 40
0.7142857142857143
 40
0.7142857142857143
 40
0.7142857142857143
 40
0.7142857142857143
 40
0.7619047619047619
 40
0.7619047619047619
 40
0.7619047619047619
 40
0.7619047619047619
 40
0.8095238095238095
 40
0.8095238095238095
 40
0.8095238095238095
 40
0.8095238095238095
 40
0.8571428571428571
 40
0.8571428571428571
 40
0.8571428571428571
 40
0.8571428571428571
 40
0.9047619047619048
 40
0.9047619047619048
 40
0.9047619047619048
 40
0.9047619047619048
 40
1.0
 40
1.0
 40
1.0
 40
1.0
 10
0.9363
 20
1.1142
 30
0.0
 10
0.9363
 20
1.1142
 30
0.0
 10
1.1677
 20
1.3733
 30
0.0
 10
1.1677
 20
1.3733
 30
0.0
 10
1.1677
 20
1.3733
 30
0.0
 10
1.1677
 20
1.3733
 30
0.0
 10
1.3041
 20
1.2576
 30
0.0
 10
1.3041
 20
1.2576
 30
0.0
 10
1.3041
 20
1.2576
 30
0.0
 10
1.3041
 20
1.2576
 30
0.0
 10
1.0619
 20
0.9848
 30
0.0
 10
1.0619
 20
0.9848
 30
0.0
 10
1.0619
 20
0.9848
 30
0.0
 10
1.1409
 20
0.8672
 30
0.0
 10
1.194
 20
0.7642
 30
0.0
 10
1.2218
 20
0.6763
 30
0.0
 10
1.2218
 20
0.6763
 30
0.0
 10
1.2585
 20
0.5605
 30
0.0
 10
1.2768
 20
0.4307
 30
0.0
 10
1.2768
 20
0.2877
 30
0.0
 10
1.2768
 20
0.2877
 30
0.0
 10
1.2768
 20
0.0808
 30
0.0
 10
1.235
 20
-0.1036
 30
0.0
 10
1.1512
 20
-0.2649
 30
0.0
 10
1.1512
 20
-0.2649
 30
0.0
 10
1.0675
 20
-0.4268
 30
0.0
 10
0.9504
 20
-0.549
 30
0.0
 10
0.7994
 20
-0.6318
 30
0.0
 10
0.7994
 20
-0.6318
 30
0.0
 10
0.6479
 20
-0.7141
 30
0.0
 10
0.4876
 20
-0.7555
 30
0.0
 10
0.3178
 20
-0.7555
 30
0.0
 10
0.3178
 20
-0.7555
 30
0.0
 10
0.1908
 20
-0.7555
 30
0.0
 10
0.076
 20
-0.7377
 30
0.0
 10
-0.027
 20
-0.7019
 30
0.0
 10
-0.027
 20
-0.7019
 30
0.0
 10
-0.106
 20
-0.6742
 30
0.0
 10
-0.1982
 20
-0.6215
 30
0.0
 10
-0.3041
 20
-0.5434
 30
0.0
 10
-0.3041
 20
-0.5434
 30
0.0
 10
-0.3041
 20
-0.5434
 30
0.0
 10
-0.5355
 20
-0.8026
 30
0.0
 10
-0.5355
 20
-0.8026
 30
0.0
 10
-0.5355
 20
-0.8026
 30
0.0
 10
-0.5355
 20
-0.8026
 30
0.0
 10
-0.6719
 20
-0.6869
 30
0.0
 10
-0.6719
 20
-0.6869
 30
0.0
 10
-0.6719
 20
-0.6869
 30
0.0
 10
-0.6719
 20
-0.6869
 30
0.0
 10
-0.4292
 20
-0.4155
 30
0.0
 10
-0.4292
 20
-0.4155
 30
0.0
 10
-0.4292
 20
-0.4155
 30
0.0
 10
-0.5195
 20
-0.2786
 30
0.0
 10
-0.5797
 20
-0.1615
 30
0.0
 10
-0.6098
 20
-0.0646
 30
0.0
 10
-0.6098
 20
-0.0646
 30
0.0
 10
-0.6399
 20
0.0323
 30
0.0
 10
-0.6554
 20
0.149
 30
0.0
 10
-0.6554
 20
0.2849
 30
0.0
 10
-0.6554
 20
0.2849
 30
0.0
 10
-0.6554
 20
0.4923
 30
0.0
 10
-0.614
 20
0.6772
 30
0.0
 10
-0.5313
 20
0.8395
 30
0.0
 10
-0.5313
 20
0.8395
 30
0.0
 10
-0.4485
 20
1.0018
 30
0.0
 10
-0.3328
 20
1.1245
 30
0.0
 10
-0.1832
 20
1.2082
 30
0.0
 10
-0.1832
 20
1.2082
 30
0.0
 10
-0.0341
 20
1.2915
 30
0.0
 10
0.132
 20
1.3334
 30
0.0
 10
0.3149
 20
1.3334
 30
0.0
 10
0.3149
 20
1.3334
 30
0.0
 10
0.4382
 20
1.3334
 30
0.0
 10
0.5459
 20
1.3174
 30
0.0
 10
0.6381
 20
1.2844
 30
0.0
 10
0.6381
 20
1.2844
 30
0.0
 10
0.7303
 20
1.252
 30
0.0
 10
0.83
 20
1.1951
 30
0.0
 10
0.9363
 20
1.1142
 30
0.0
  0
SPLINE
  5
11A
330
1F
100
AcDbEntity
  8
DEFAULT_1
 62
   250
100
AcDbSpline
210
0.0
220
0.0
230
1.0
 70
    11
 71
     3
 72
    32
 73
    28
 74
     0
 42
0.0000000001
 43
0.0000000001
 40
0.0
 40
0.0
 40
0.0
 40
0.0
 40
0.125
 40
0.125
 40
0.125
 40
0.125
 40
0.25
 40
0.25
 40
0.25
 40
0.25
 40
0.375
 40
0.375
 40
0.375
 40
0.375
 40
0.5
 40
0.5
 40
0.5
 40
0.5
 40
0.625
 40
0.625
 40
0.625
 40
0.625
 40
0.75
 40
0.75
 40
0.75
 40
0.75
 40
1.0
 40
1.0
 40
1.0
 40
1.0
 10
0.7712
 20
0.9284
 30
0.0
 10
0.6846
 20
0.9961
 30
0.0
 10
0.6089
 20
1.0427
 30
0.0
 10
0.5445
 20
1.0676
 30
0.0
 10
0.5445
 20
1.0676
 30
0.0
 10
0.4796
 20
1.0921
 30
0.0
 10
0.4034
 20
1.1048
 30
0.0
 10
0.3163
 20
1.1048
 30
0.0
 10
0.3163
 20
1.1048
 30
0.0
 10
0.115
 20
1.1048
 30
0.0
 10
-0.051
 20
1.0366
 30
0.0
 10
-0.1827
 20
0.9002
 30
0.0
 10
-0.1827
 20
0.9002
 30
0.0
 10
-0.314
 20
0.7637
 30
0.0
 10
-0.3798
 20
0.5601
 30
0.0
 10
-0.3798
 20
0.2887
 30
0.0
 10
-0.3798
 20
0.2887
 30
0.0
 10
-0.3798
 20
0.1824
 30
0.0
 10
-0.3695
 20
0.0878
 30
0.0
 10
-0.3492
 20
0.005
 30
0.0
 10
-0.3492
 20
0.005
 30
0.0
 10
-0.3346
 20
-0.0566
 30
0.0
 10
-0.3041
 20
-0.1323
 30
0.0
 10
-0.257
 20
-0.2221
 30
0.0
 10
-0.257
 20
-0.2221
 30
0.0
 10
-0.257
 20
-0.2221
 30
0.0
 10
0.7712
 20
0.9284
 30
0.0
 10
0.7712
 20
0.9284
 30
0.0
  0
SPLINE
  5
11B
330
1F
100
AcDbEntity
  8
DEFAULT_1
 62
   250
100
AcDbSpline
210
0.0
220
0.0
230
1.0
 70
    11
 71
     3
 72
    28
 73
    24
 74
     0
 42
0.0000000001
 43
0.0000000001
 40
0.0
 40
0.0
 40
0.0
 40
0.0
 40
0.1428571428571428
 40
0.1428571428571428
 40
0.1428571428571428
 40
0.1428571428571428
 40
0.2857142857142857
 40
0.2857142857142857
 40
0.2857142857142857
 40
0.2857142857142857
 40
0.4285714285714285
 40
0.4285714285714285
 40
0.4285714285714285
 40
0.4285714285714285
 40
0.5714285714285714
 40
0.5714285714285714
 40
0.5714285714285714
 40
0.5714285714285714
 40
0.7142857142857143
 40
0.7142857142857143
 40
0.7142857142857143
 40
0.7142857142857143
 40
1.0
 40
1.0
 40
1.0
 40
1.0
 10
0.8841
 20
0.7863
 30
0.0
 10
0.8841
 20
0.7863
 30
0.0
 10
-0.1399
 20
-0.36
 30
0.0
 10
-0.1399
 20
-0.36
 30
0.0
 10
-0.1399
 20
-0.36
 30
0.0
 10
-0.0694
 20
-0.4178
 30
0.0
 10
-0.004
 20
-0.4583
 30
0.0
 10
0.0558
 20
-0.4813
 30
0.0
 10
0.0558
 20
-0.4813
 30
0.0
 10
0.1338
 20
-0.5119
 30
0.0
 10
0.2185
 20
-0.5269
 30
0.0
 10
0.3093
 20
-0.5269
 30
0.0
 10
0.3093
 20
-0.5269
 30
0.0
 10
0.5097
 20
-0.5269
 30
0.0
 10
0.6748
 20
-0.4564
 30
0.0
 10
0.8055
 20
-0.3148
 30
0.0
 10
0.8055
 20
-0.3148
 30
0.0
 10
0.9358
 20
-0.1732
 30
0.0
 10
1.0012
 20
0.0253
 30
0.0
 10
1.0012
 20
0.2807
 30
0.0
 10
1.0012
 20
0.2807
 30
0.0
 10
1.0012
 20
0.4716
 30
0.0
 10
0.9622
 20
0.6405
 30
0.0
 10
0.8841
 20
0.7863
 30
0.0
  0
SPLINE
  5
11C
330
1F
100
AcDbEntity
  8
DEFAULT_1
 62
   250
100
AcDbSpline
210
0.0
220
0.0
230
1.0
 70
    11
 71
     3
 72
    40
 73
    36
 74
     0
 42
0.0000000001
 43
0.0000000001
 40
0.0
 40
0.0
 40
0.0
 40
0.0
 40
0.1
 40
0.1
 40
0.1
 40
0.1
 40
0.2
 40
0.2
 40
0.2
 40
0.2
 40
0.3
 40
0.3
 40
0.3
 40
0.3
 40
0.4
 40
0.4
 40
0.4
 40
0.4
 40
0.5
 40
0.5
 40
0.5
 40
0.5
 40
0.6
 40
0.6
 40
0.6
 40
0.6
 40
0.7
 40
0.7
 40
0.7
 40
0.7
 40
0.8
 40
0.8
 40
0.8
 40
0.8
 40
1.0
 40
1.0
 40
1.0
 40
1.0
 10
2.4603
 20
-0.7212
 30
0.0
 10
2.4603
 20
-0.7212
 30
0.0
 10
2.2124
 20
-0.7212
 30
0.0
 10
2.2124
 20
-0.7212
 30
0.0
 10
2.2124
 20
-0.7212
 30
0.0
 10
2.2124
 20
-0.7212
 30
0.0
 10
2.2124
 20
0.8592
 30
0.0
 10
2.2124
 20
0.8592
 30
0.0
 10
2.2124
 20
0.8592
 30
0.0
 10
2.1526
 20
0.8023
 30
0.0
 10
2.0746
 20
0.7454
 30
0.0
 10
1.9777
 20
0.6885
 30
0.0
 10
1.9777
 20
0.6885
 30
0.0
 10
1.8803
 20
0.6316
 30
0.0
 10
1.7933
 20
0.5888
 30
0.0
 10
1.7161
 20
0.5605
 30
0.0
 10
1.7161
 20
0.5605
 30
0.0
 10
1.7161
 20
0.5605
 30
0.0
 10
1.7161
 20
0.8
 30
0.0
 10
1.7161
 20
0.8
 30
0.0
 10
1.7161
 20
0.8
 30
0.0
 10
1.8549
 20
0.8653
 30
0.0
 10
1.9763
 20
0.9444
 30
0.0
 10
2.0802
 20
1.037
 30
0.0
 10
2.0802
 20
1.037
 30
0.0
 10
2.1837
 20
1.1302
 30
0.0
 10
2.2575
 20
1.22
 30
0.0
 10
2.3008
 20
1.3075
 30
0.0
 10
2.3008
 20
1.3075
 30
0.0
 10
2.3008
 20
1.3075
 30
0.0
 10
2.4603
 20
1.3075
 30
0.0
 10
2.4603
 20
1.3075
 30
0.0
 10
2.4603
 20
1.3075
 30
0.0
 10
2.4603
 20
1.3075
 30
0.0
 10
2.4603
 20
-0.7212
 30
0.0
 10
2.4603
 20
-0.7212
 30
0.0
  0
SPLINE
  5
11D
330
1F
100
AcDbEntity
  8
DEFAULT_1
 62
   250
100
AcDbSpline
210
0.0
220
0.0
230
1.0
 70
    11
 71
     3
 72
    52
 73
    48
 74
     0
 42
0.0000000001
 43
0.0000000001
 40
0.0
 40
0.0
 40
0.0
 40
0.0
 40
0.0769230769230769
 40
0.0769230769230769
 40
0.0769230769230769
 40
0.0769230769230769
 40
0.1538461538461539
 40
0.1538461538461539
 40
0.1538461538461539
 40
0.1538461538461539
 40
0.2307692307692308
 40
0.2307692307692308
 40
0.2307692307692308
 40
0.2307692307692308
 40
0.3076923076923077
 40
0.3076923076923077
 40
0.3076923076923077
 40
0.3076923076923077
 40
0.3846153846153846
 40
0.3846153846153846
 40
0.3846153846153846
 40
0.3846153846153846
 40
0.4615384615384616
 40
0.4615384615384616
 40
0.4615384615384616
 40
0.4615384615384616
 40
0.5384615384615384
 40
0.5384615384615384
 40
0.5384615384615384
 40
0.5384615384615384
 40
0.6153846153846154
 40
0.6153846153846154
 40
0.6153846153846154
 40
0.6153846153846154
 40
0.6923076923076923
 40
0.6923076923076923
 40
0.6923076923076923
 40
0.6923076923076923
 40
0.7692307692307693
 40
0.7692307692307693
 40
0.7692307692307693
 40
0.7692307692307693
 40
0.8461538461538461
 40
0.8461538461538461
 40
0.8461538461538461
 40
0.8461538461538461
 40
1.0
 40
1.0
 40
1.0
 40
1.0
 10
3.0957
 20
0.275
 30
0.0
 10
3.0957
 20
0.514
 30
0.0
 10
3.1202
 20
0.7064
 30
0.0
 10
3.1696
 20
0.8517
 30
0.0
 10
3.1696
 20
0.8517
 30
0.0
 10
3.2185
 20
0.9975
 30
0.0
 10
3.2919
 20
1.1099
 30
0.0
 10
3.3888
 20
1.189
 30
0.0
 10
3.3888
 20
1.189
 30
0.0
 10
3.4857
 20
1.268
 30
0.0
 10
3.6075
 20
1.3075
 30
0.0
 10
3.7542
 20
1.3075
 30
0.0
 10
3.7542
 20
1.3075
 30
0.0
 10
3.8629
 20
1.3075
 30
0.0
 10
3.9579
 20
1.2854
 30
0.0
 10
4.0397
 20
1.2416
 30
0.0
 10
4.0397
 20
1.2416
 30
0.0
 10
4.1216
 20
1.1984
 30
0.0
 10
4.1889
 20
1.1353
 30
0.0
 10
4.2425
 20
1.053
 30
0.0
 10
4.2425
 20
1.053
 30
0.0
 10
4.2956
 20
0.9707
 30
0.0
 10
4.3375
 20
0.8705
 30
0.0
 10
4.3676
 20
0.7525
 30
0.0
 10
4.3676
 20
0.7525
 30
0.0
 10
4.3982
 20
0.6344
 30
0.0
 10
4.4132
 20
0.4754
 30
0.0
 10
4.4132
 20
0.275
 30
0.0
 10
4.4132
 20
0.275
 30
0.0
 10
4.4132
 20
0.038
 30
0.0
 10
4.3888
 20
-0.153
 30
0.0
 10
4.3403
 20
-0.2988
 30
0.0
 10
4.3403
 20
-0.2988
 30
0.0
 10
4.2914
 20
-0.4446
 30
0.0
 10
4.2185
 20
-0.557
 30
0.0
 10
4.1216
 20
-0.6365
 30
0.0
 10
4.1216
 20
-0.6365
 30
0.0
 10
4.0247
 20
-0.716
 30
0.0
 10
3.9024
 20
-0.7555
 30
0.0
 10
3.7542
 20
-0.7555
 30
0.0
 10
3.7542
 20
-0.7555
 30
0.0
 10
3.5595
 20
-0.7555
 30
0.0
 10
3.4066
 20
-0.6859
 30
0.0
 10
3.2956
 20
-0.5462
 30
0.0
 10
3.2956
 20
-0.5462
 30
0.0
 10
3.1625
 20
-0.3783
 30
0.0
 10
3.0957
 20
-0.1041
 30
0.0
 10
3.0957
 20
0.275
 30
0.0
  0
SPLINE
  5
11E
330
1F
100
AcDbEntity
  8
DEFAULT_1
 62
   250
100
AcDbSpline
210
0.0
220
0.0
230
1.0
 70
    11
 71
     3
 72
    36
 73
    32
 74
     0
 42
0.0000000001
 43
0.0000000001
 40
0.0
 40
0.0
 40
0.0
 40
0.0
 40
0.1111111111111111
 40
0.1111111111111111
 40
0.1111111111111111
 40
0.1111111111111111
 40
0.2222222222222222
 40
0.2222222222222222
 40
0.2222222222222222
 40
0.2222222222222222
 40
0.3333333333333333
 40
0.3333333333333333
 40
0.3333333333333333
 40
0.3333333333333333
 40
0.4444444444444444
 40
0.4444444444444444
 40
0.4444444444444444
 40
0.4444444444444444
 40
0.5555555555555556
 40
0.5555555555555556
 40
0.5555555555555556
 40
0.5555555555555556
 40
0.6666666666666666
 40
0.6666666666666666
 40
0.6666666666666666
 40
0.6666666666666666
 40
0.7777777777777778
 40
0.7777777777777778
 40
0.7777777777777778
 40
0.7777777777777778
 40
1.0
 40
1.0
 40
1.0
 40
1.0
 10
3.3507
 20
0.275
 30
0.0
 10
3.3507
 20
-0.0566
 30
0.0
 10
3.3897
 20
-0.2772
 30
0.0
 10
3.4673
 20
-0.3872
 30
0.0
 10
3.4673
 20
-0.3872
 30
0.0
 10
3.5449
 20
-0.4968
 30
0.0
 10
3.6404
 20
-0.5519
 30
0.0
 10
3.7542
 20
-0.5519
 30
0.0
 10
3.7542
 20
-0.5519
 30
0.0
 10
3.8685
 20
-0.5519
 30
0.0
 10
3.964
 20
-0.4964
 30
0.0
 10
4.0416
 20
-0.3863
 30
0.0
 10
4.0416
 20
-0.3863
 30
0.0
 10
4.1192
 20
-0.2762
 30
0.0
 10
4.1583
 20
-0.0556
 30
0.0
 10
4.1583
 20
0.275
 30
0.0
 10
4.1583
 20
0.275
 30
0.0
 10
4.1583
 20
0.6076
 30
0.0
 10
4.1192
 20
0.8287
 30
0.0
 10
4.0416
 20
0.9378
 30
0.0
 10
4.0416
 20
0.9378
 30
0.0
 10
3.964
 20
1.0474
 30
0.0
 10
3.8676
 20
1.1019
 30
0.0
 10
3.7519
 20
1.1019
 30
0.0
 10
3.7519
 20
1.1019
 30
0.0
 10
3.6376
 20
1.1019
 30
0.0
 10
3.5468
 20
1.0535
 30
0.0
 10
3.4786
 20
0.9571
 30
0.0
 10
3.4786
 20
0.9571
 30
0.0
 10
3.3935
 20
0.8343
 30
0.0
 10
3.3507
 20
0.6066
 30
0.0
 10
3.3507
 20
0.275
 30
0.0
  0
SPLINE
  5
11F
330
1F
100
AcDbEntity
  8
DEFAULT_1
 62
   250
100
AcDbSpline
210
0.0
220
0.0
230
1.0
 70
    11
 71
     3
 72
    48
 73
    44
 74
     0
 42
0.0000000001
 43
0.0000000001
 40
0.0
 40
0.0
 40
0.0
 40
0.0
 40
0.0833333333333333
 40
0.0833333333333333
 40
0.0833333333333333
 40
0.0833333333333333
 40
0.1666666666666667
 40
0.1666666666666667
 40
0.1666666666666667
 40
0.1666666666666667
 40
0.25
 40
0.25
 40
0.25
 40
0.25
 40
0.3333333333333333
 40
0.3333333333333333
 40
0.3333333333333333
 40
0.3333333333333333
 40
0.4166666666666667
 40
0.4166666666666667
 40
0.4166666666666667
 40
0.4166666666666667
 40
0.5
 40
0.5
 40
0.5
 40
0.5
 40
0.5833333333333334
 40
0.5833333333333334
 40
0.5833333333333334
 40
0.5833333333333334
 40
0.6666666666666666
 40
0.6666666666666666
 40
0.6666666666666666
 40
0.6666666666666666
 40
0.75
 40
0.75
 40
0.75
 40
0.75
 40
0.8333333333333334
 40
0.8333333333333334
 40
0.8333333333333334
 40
0.8333333333333334
 40
1.0
 40
1.0
 40
1.0
 40
1.0
 10
5.4602
 20
-0.7212
 30
0.0
 10
5.4602
 20
-0.7212
 30
0.0
 10
5.4602
 20
-0.2377
 30
0.0
 10
5.4602
 20
-0.2377
 30
0.0
 10
5.4602
 20
-0.2377
 30
0.0
 10
5.4602
 20
-0.2377
 30
0.0
 10
4.5839
 20
-0.2377
 30
0.0
 10
4.5839
 20
-0.2377
 30
0.0
 10
4.5839
 20
-0.2377
 30
0.0
 10
4.5839
 20
-0.2377
 30
0.0
 10
4.5839
 20
-0.01
 30
0.0
 10
4.5839
 20
-0.01
 30
0.0
 10
4.5839
 20
-0.01
 30
0.0
 10
4.5839
 20
-0.01
 30
0.0
 10
5.5059
 20
1.299
 30
0.0
 10
5.5059
 20
1.299
 30
0.0
 10
5.5059
 20
1.299
 30
0.0
 10
5.5059
 20
1.299
 30
0.0
 10
5.7086
 20
1.299
 30
0.0
 10
5.7086
 20
1.299
 30
0.0
 10
5.7086
 20
1.299
 30
0.0
 10
5.7086
 20
1.299
 30
0.0
 10
5.7086
 20
-0.01
 30
0.0
 10
5.7086
 20
-0.01
 30
0.0
 10
5.7086
 20
-0.01
 30
0.0
 10
5.7086
 20
-0.01
 30
0.0
 10
5.9814
 20
-0.01
 30
0.0
 10
5.9814
 20
-0.01
 30
0.0
 10
5.9814
 20
-0.01
 30
0.0
 10
5.9814
 20
-0.01
 30
0.0
 10
5.9814
 20
-0.2377
 30
0.0
 10
5.9814
 20
-0.2377
 30
0.0
 10
5.9814
 20
-0.2377
 30
0.0
 10
5.9814
 20
-0.2377
 30
0.0
 10
5.7086
 20
-0.2377
 30
0.0
 10
5.7086
 20
-0.2377
 30
0.0
 10
5.7086
 20
-0.2377
 30
0.0
 10
5.7086
 20
-0.2377
 30
0.0
 10
5.7086
 20
-0.7212
 30
0.0
 10
5.7086
 20
-0.7212
 30
0.0
 10
5.7086
 20
-0.7212
 30
0.0
 10
5.7086
 20
-0.7212
 30
0.0
 10
5.4602
 20
-0.7212
 30
0.0
 10
5.4602
 20
-0.7212
 30
0.0
  0
SPLINE
  5
120
330
1F
100
AcDbEntity
  8
DEFAULT_1
 62
   250
100
AcDbSpline
210
0.0
220
0.0
230
1.0
 70
    11
 71
     3
 72
    16
 73
    12
 74
     0
 42
0.0000000001
 43
0.0000000001
 40
0.0
 40
0.0
 40
0.0
 40
0.0
 40
0.25
 40
0.25
 40
0.25
 40
0.25
 40
0.5
 40
0.5
 40
0.5
 40
0.5
 40
1.0
 40
1.0
 40
1.0
 40
1.0
 10
5.4602
 20
-0.01
 30
0.0
 10
5.4602
 20
-0.01
 30
0.0
 10
5.4602
 20
0.9006
 30
0.0
 10
5.4602
 20
0.9006
 30
0.0
 10
5.4602
 20
0.9006
 30
0.0
 10
5.4602
 20
0.9006
 30
0.0
 10
4.8281
 20
-0.01
 30
0.0
 10
4.8281
 20
-0.01
 30
0.0
 10
4.8281
 20
-0.01
 30
0.0
 10
4.8281
 20
-0.01
 30
0.0
 10
5.4602
 20
-0.01
 30
0.0
 10
5.4602
 20
-0.01
 30
0.0
  0
SPLINE
  5
121
330
1F
100
AcDbEntity
  8
DEFAULT_1
 62
   250
100
AcDbSpline
210
0.0
220
0.0
230
1.0
 70
    11
 71
     3
 72
    20
 73
    16
 74
     0
 42
0.0000000001
 43
0.0000000001
 40
0.0
 40
0.0
 40
0.0
 40
0.0
 40
0.2
 40
0.2
 40
0.2
 40
0.2
 40
0.4
 40
0.4
 40
0.4
 40
0.4
 40
0.6
 40
0.6
 40
0.6
 40
0.6
 40
1.0
 40
1.0
 40
1.0
 40
1.0
 10
17.7742
 20
-0.9608
 30
0.0
 10
17.7742
 20
-0.9608
 30
0.0
 10
20.2742
 20
-1.3137
 30
0.0
 10
20.2742
 20
-1.3137
 30
0.0
 10
20.2742
 20
-1.3137
 30
0.0
 10
20.2742
 20
-1.3137
 30
0.0
 10
20.2742
 20
-1.392
 30
0.0
 10
20.2742
 20
-1.392
 30
0.0
 10
20.2742
 20
-1.392
 30
0.0
 10
20.2742
 20
-1.392
 30
0.0
 10
17.7742
 20
-1.7683
 30
0.0
 10
17.7742
 20
-1.7683
 30
0.0
 10
17.7742
 20
-1.7683
 30
0.0
 10
17.7742
 20
-1.7683
 30
0.0
 10
17.7742
 20
-0.9608
 30
0.0
 10
17.7742
 20
-0.9608
 30
0.0
  0
SPLINE
  5
122
330
1F
100
AcDbEntity
  8
DEFAULT_1
 62
   250
100
AcDbSpline
210
0.0
220
0.0
230
1.0
 70
    11
 71
     3
 72
    20
 73
    16
 74
     0
 42
0.0000000001
 43
0.0000000001
 40
0.0
 40
0.0
 40
0.0
 40
0.0
 40
0.2
 40
0.2
 40
0.2
 40
0.2
 40
0.4
 40
0.4
 40
0.4
 40
0.4
 40
0.6
 40
0.6
 40
0.6
 40
0.6
 40
1.0
 40
1.0
 40
1.0
 40
1.0
 10
-11.8319
 20
-1.7505
 30
0.0
 10
-11.8319
 20
-1.7505
 30
0.0
 10
-14.3319
 20
-1.3976
 30
0.0
 10
-14.3319
 20
-1.3976
 30
0.0
 10
-14.3319
 20
-1.3976
 30
0.0
 10
-14.3319
 20
-1.3976
 30
0.0
 10
-14.3319
 20
-1.3193
 30
0.0
 10
-14.3319
 20
-1.3193
 30
0.0
 10
-14.3319
 20
-1.3193
 30
0.0
 10
-14.3319
 20
-1.3193
 30
0.0
 10
-11.8319
 20
-0.943
 30
0.0
 10
-11.8319
 20
-0.943
 30
0.0
 10
-11.8319
 20
-0.943
 30
0.0
 10
-11.8319
 20
-0.943
 30
0.0
 10
-11.8319
 20
-1.7505
 30
0.0
 10
-11.8319
 20
-1.7505
 30
0.0
  0
SPLINE
  5
123
330
1F
100
AcDbEntity
  8
DEFAULT_1
 62
   250
100
AcDbSpline
210
0.0
220
0.0
230
1.0
 70
    24
 71
     3
 72
     8
 73
     4
 74
     0
 42
0.0000000001
 43
0.0000000001
 40
0.0
 40
0.0
 40
0.0
 40
0.0
 40
1.0
 40
1.0
 40
1.0
 40
1.0
 10
-20.2393
 20
25.96
 30
0.0
 10
-20.2393
 20
25.96
 30
0.0
 10
-20.2393
 20
7.0854
 30
0.0
 10
-20.2393
 20
7.0854
 30
0.0
  0
SPLINE
  5
124
330
1F
100
AcDbEntity
  8
DEFAULT_1
 62
   250
100
AcDbSpline
210
0.0
220
0.0
230
1.0
 70
    11
 71
     3
 72
    92
 73
    88
 74
     0
 42
0.0000000001
 43
0.0000000001
 40
0.0
 40
0.0
 40
0.0
 40
0.0
 40
0.0434782608695652
 40
0.0434782608695652
 40
0.0434782608695652
 40
0.0434782608695652
 40
0.0869565217391304
 40
0.0869565217391304
 40
0.0869565217391304
 40
0.0869565217391304
 40
0.1304347826086956
 40
0.1304347826086956
 40
0.1304347826086956
 40
0.1304347826086956
 40
0.1739130434782609
 40
0.1739130434782609
 40
0.1739130434782609
 40
0.1739130434782609
 40
0.2173913043478261
 40
0.2173913043478261
 40
0.2173913043478261
 40
0.2173913043478261
 40
0.2608695652173913
 40
0.2608695652173913
 40
0.2608695652173913
 40
0.2608695652173913
 40
0.3043478260869565
 40
0.3043478260869565
 40
0.3043478260869565
 40
0.3043478260869565
 40
0.3478260869565217
 40
0.3478260869565217
 40
0.3478260869565217
 40
0.3478260869565217
 40
0.391304347826087
 40
0.391304347826087
 40
0.391304347826087
 40
0.391304347826087
 40
0.4347826086956522
 40
0.4347826086956522
 40
0.4347826086956522
 40
0.4347826086956522
 40
0.4782608695652174
 40
0.4782608695652174
 40
0.4782608695652174
 40
0.4782608695652174
 40
0.5217391304347826
 40
0.5217391304347826
 40
0.5217391304347826
 40
0.5217391304347826
 40
0.5652173913043478
 40
0.5652173913043478
 40
0.5652173913043478
 40
0.5652173913043478
 40
0.6086956521739131
 40
0.6086956521739131
 40
0.6086956521739131
 40
0.6086956521739131
 40
0.6521739130434783
 40
0.6521739130434783
 40
0.6521739130434783
 40
0.6521739130434783
 40
0.6956521739130435
 40
0.6956521739130435
 40
0.6956521739130435
 40
0.6956521739130435
 40
0.7391304347826086
 40
0.7391304347826086
 40
0.7391304347826086
 40
0.7391304347826086
 40
0.782608695652174
 40
0.782608695652174
 40
0.782608695652174
 40
0.782608695652174
 40
0.8260869565217391
 40
0.8260869565217391
 40
0.8260869565217391
 40
0.8260869565217391
 40
0.8695652173913043
 40
0.8695652173913043
 40
0.8695652173913043
 40
0.8695652173913043
 40
0.9130434782608695
 40
0.9130434782608695
 40
0.9130434782608695
 40
0.9130434782608695
 40
1.0
 40
1.0
 40
1.0
 40
1.0
 10
-21.2137
 20
14.5797
 30
0.0
 10
-21.2137
 20
14.5797
 30
0.0
 10
-21.2358
 20
14.8403
 30
0.0
 10
-21.2358
 20
14.8403
 30
0.0
 10
-21.2358
 20
14.8403
 30
0.0
 10
-21.1088
 20
14.8596
 30
0.0
 10
-21.0138
 20
14.9043
 30
0.0
 10
-20.9498
 20
14.9744
 30
0.0
 10
-20.9498
 20
14.9744
 30
0.0
 10
-20.8858
 20
15.0449
 30
0.0
 10
-20.8538
 20
15.1296
 30
0.0
 10
-20.8538
 20
15.2288
 30
0.0
 10
-20.8538
 20
15.2288
 30
0.0
 10
-20.8538
 20
15.3483
 30
0.0
 10
-20.899
 20
15.4494
 30
0.0
 10
-20.9888
 20
15.5317
 30
0.0
 10
-20.9888
 20
15.5317
 30
0.0
 10
-21.0791
 20
15.6145
 30
0.0
 10
-21.1986
 20
15.6559
 30
0.0
 10
-21.3472
 20
15.6559
 30
0.0
 10
-21.3472
 20
15.6559
 30
0.0
 10
-21.4888
 20
15.6559
 30
0.0
 10
-21.6003
 20
15.6164
 30
0.0
 10
-21.6821
 20
15.5369
 30
0.0
 10
-21.6821
 20
15.5369
 30
0.0
 10
-21.764
 20
15.4574
 30
0.0
 10
-21.8049
 20
15.3535
 30
0.0
 10
-21.8049
 20
15.2246
 30
0.0
 10
-21.8049
 20
15.2246
 30
0.0
 10
-21.8049
 20
15.1446
 30
0.0
 10
-21.7866
 20
15.0727
 30
0.0
 10
-21.7504
 20
15.0082
 30
0.0
 10
-21.7504
 20
15.0082
 30
0.0
 10
-21.7141
 20
14.9438
 30
0.0
 10
-21.6671
 20
14.8935
 30
0.0
 10
-21.6092
 20
14.8568
 30
0.0
 10
-21.6092
 20
14.8568
 30
0.0
 10
-21.6092
 20
14.8568
 30
0.0
 10
-21.6393
 20
14.6239
 30
0.0
 10
-21.6393
 20
14.6239
 30
0.0
 10
-21.6393
 20
14.6239
 30
0.0
 10
-21.6393
 20
14.6239
 30
0.0
 10
-22.677
 20
14.8196
 30
0.0
 10
-22.677
 20
14.8196
 30
0.0
 10
-22.677
 20
14.8196
 30
0.0
 10
-22.677
 20
14.8196
 30
0.0
 10
-22.677
 20
15.8243
 30
0.0
 10
-22.677
 20
15.8243
 30
0.0
 10
-22.677
 20
15.8243
 30
0.0
 10
-22.677
 20
15.8243
 30
0.0
 10
-22.4399
 20
15.8243
 30
0.0
 10
-22.4399
 20
15.8243
 30
0.0
 10
-22.4399
 20
15.8243
 30
0.0
 10
-22.4399
 20
15.8243
 30
0.0
 10
-22.4399
 20
15.0181
 30
0.0
 10
-22.4399
 20
15.0181
 30
0.0
 10
-22.4399
 20
15.0181
 30
0.0
 10
-22.4399
 20
15.0181
 30
0.0
 10
-21.8971
 20
14.909
 30
0.0
 10
-21.8971
 20
14.909
 30
0.0
 10
-21.8971
 20
14.909
 30
0.0
 10
-21.9818
 20
15.0303
 30
0.0
 10
-22.0241
 20
15.1578
 30
0.0
 10
-22.0241
 20
15.2909
 30
0.0
 10
-22.0241
 20
15.2909
 30
0.0
 10
-22.0241
 20
15.4673
 30
0.0
 10
-21.963
 20
15.6159
 30
0.0
 10
-21.8407
 20
15.7373
 30
0.0
 10
-21.8407
 20
15.7373
 30
0.0
 10
-21.7184
 20
15.8586
 30
0.0
 10
-21.5613
 20
15.9193
 30
0.0
 10
-21.3694
 20
15.9193
 30
0.0
 10
-21.3694
 20
15.9193
 30
0.0
 10
-21.1864
 20
15.9193
 30
0.0
 10
-21.0283
 20
15.8657
 30
0.0
 10
-20.8952
 20
15.7594
 30
0.0
 10
-20.8952
 20
15.7594
 30
0.0
 10
-20.732
 20
15.6296
 30
0.0
 10
-20.6502
 20
15.4527
 30
0.0
 10
-20.6502
 20
15.2288
 30
0.0
 10
-20.6502
 20
15.2288
 30
0.0
 10
-20.6502
 20
15.0449
 30
0.0
 10
-20.7014
 20
14.8949
 30
0.0
 10
-20.8044
 20
14.7787
 30
0.0
 10
-20.8044
 20
14.7787
 30
0.0
 10
-20.9075
 20
14.6625
 30
0.0
 10
-21.0439
 20
14.5962
 30
0.0
 10
-21.2137
 20
14.5797
 30
0.0
  0
SPLINE
  5
125
330
1F
100
AcDbEntity
  8
DEFAULT_1
 62
   250
100
AcDbSpline
210
0.0
220
0.0
230
1.0
 70
    11
 71
     3
 72
    68
 73
    64
 74
     0
 42
0.0000000001
 43
0.0000000001
 40
0.0
 40
0.0
 40
0.0
 40
0.0
 40
0.0588235294117647
 40
0.0588235294117647
 40
0.0588235294117647
 40
0.0588235294117647
 40
0.1176470588235294
 40
0.1176470588235294
 40
0.1176470588235294
 40
0.1176470588235294
 40
0.1764705882352941
 40
0.1764705882352941
 40
0.1764705882352941
 40
0.1764705882352941
 40
0.2352941176470588
 40
0.2352941176470588
 40
0.2352941176470588
 40
0.2352941176470588
 40
0.2941176470588235
 40
0.2941176470588235
 40
0.2941176470588235
 40
0.2941176470588235
 40
0.3529411764705883
 40
0.3529411764705883
 40
0.3529411764705883
 40
0.3529411764705883
 40
0.4117647058823529
 40
0.4117647058823529
 40
0.4117647058823529
 40
0.4117647058823529
 40
0.4705882352941176
 40
0.4705882352941176
 40
0.4705882352941176
 40
0.4705882352941176
 40
0.5294117647058824
 40
0.5294117647058824
 40
0.5294117647058824
 40
0.5294117647058824
 40
0.5882352941176471
 40
0.5882352941176471
 40
0.5882352941176471
 40
0.5882352941176471
 40
0.6470588235294118
 40
0.6470588235294118
 40
0.6470588235294118
 40
0.6470588235294118
 40
0.7058823529411765
 40
0.7058823529411765
 40
0.7058823529411765
 40
0.7058823529411765
 40
0.7647058823529411
 40
0.7647058823529411
 40
0.7647058823529411
 40
0.7647058823529411
 40
0.8235294117647058
 40
0.8235294117647058
 40
0.8235294117647058
 40
0.8235294117647058
 40
0.8823529411764706
 40
0.8823529411764706
 40
0.8823529411764706
 40
0.8823529411764706
 40
1.0
 40
1.0
 40
1.0
 40
1.0
 10
-21.78
 20
16.5313
 30
0.0
 10
-21.8176
 20
16.4282
 30
0.0
 10
-21.8712
 20
16.352
 30
0.0
 10
-21.9413
 20
16.3022
 30
0.0
 10
-21.9413
 20
16.3022
 30
0.0
 10
-22.0109
 20
16.2528
 30
0.0
 10
-22.0947
 20
16.2279
 30
0.0
 10
-22.192
 20
16.2279
 30
0.0
 10
-22.192
 20
16.2279
 30
0.0
 10
-22.3392
 20
16.2279
 30
0.0
 10
-22.4625
 20
16.2806
 30
0.0
 10
-22.5627
 20
16.3864
 30
0.0
 10
-22.5627
 20
16.3864
 30
0.0
 10
-22.6629
 20
16.4922
 30
0.0
 10
-22.7132
 20
16.6324
 30
0.0
 10
-22.7132
 20
16.8078
 30
0.0
 10
-22.7132
 20
16.8078
 30
0.0
 10
-22.7132
 20
16.9842
 30
0.0
 10
-22.6619
 20
17.1263
 30
0.0
 10
-22.5594
 20
17.234
 30
0.0
 10
-22.5594
 20
17.234
 30
0.0
 10
-22.4568
 20
17.3412
 30
0.0
 10
-22.3322
 20
17.3949
 30
0.0
 10
-22.185
 20
17.3949
 30
0.0
 10
-22.185
 20
17.3949
 30
0.0
 10
-22.0914
 20
17.3949
 30
0.0
 10
-22.01
 20
17.3704
 30
0.0
 10
-21.9404
 20
17.3215
 30
0.0
 10
-21.9404
 20
17.3215
 30
0.0
 10
-21.8712
 20
17.2721
 30
0.0
 10
-21.8176
 20
17.1978
 30
0.0
 10
-21.78
 20
17.0976
 30
0.0
 10
-21.78
 20
17.0976
 30
0.0
 10
-21.7395
 20
17.2213
 30
0.0
 10
-21.6746
 20
17.3158
 30
0.0
 10
-21.5843
 20
17.3807
 30
0.0
 10
-21.5843
 20
17.3807
 30
0.0
 10
-21.4945
 20
17.4452
 30
0.0
 10
-21.3868
 20
17.4776
 30
0.0
 10
-21.2621
 20
17.4776
 30
0.0
 10
-21.2621
 20
17.4776
 30
0.0
 10
-21.089
 20
17.4776
 30
0.0
 10
-20.9441
 20
17.4165
 30
0.0
 10
-20.8266
 20
17.2947
 30
0.0
 10
-20.8266
 20
17.2947
 30
0.0
 10
-20.709
 20
17.1724
 30
0.0
 10
-20.6502
 20
17.0115
 30
0.0
 10
-20.6502
 20
16.8121
 30
0.0
 10
-20.6502
 20
16.8121
 30
0.0
 10
-20.6502
 20
16.6126
 30
0.0
 10
-20.709
 20
16.4522
 30
0.0
 10
-20.827
 20
16.3299
 30
0.0
 10
-20.827
 20
16.3299
 30
0.0
 10
-20.9451
 20
16.2076
 30
0.0
 10
-21.0923
 20
16.1465
 30
0.0
 10
-21.2687
 20
16.1465
 30
0.0
 10
-21.2687
 20
16.1465
 30
0.0
 10
-21.3999
 20
16.1465
 30
0.0
 10
-21.51
 20
16.1799
 30
0.0
 10
-21.5989
 20
16.2467
 30
0.0
 10
-21.5989
 20
16.2467
 30
0.0
 10
-21.6873
 20
16.313
 30
0.0
 10
-21.748
 20
16.408
 30
0.0
 10
-21.78
 20
16.5313
 30
0.0
  0
SPLINE
  5
126
330
1F
100
AcDbEntity
  8
DEFAULT_1
 62
   250
100
AcDbSpline
210
0.0
220
0.0
230
1.0
 70
    11
 71
     3
 72
    36
 73
    32
 74
     0
 42
0.0000000001
 43
0.0000000001
 40
0.0
 40
0.0
 40
0.0
 40
0.0
 40
0.1111111111111111
 40
0.1111111111111111
 40
0.1111111111111111
 40
0.1111111111111111
 40
0.2222222222222222
 40
0.2222222222222222
 40
0.2222222222222222
 40
0.2222222222222222
 40
0.3333333333333333
 40
0.3333333333333333
 40
0.3333333333333333
 40
0.3333333333333333
 40
0.4444444444444444
 40
0.4444444444444444
 40
0.4444444444444444
 40
0.4444444444444444
 40
0.5555555555555556
 40
0.5555555555555556
 40
0.5555555555555556
 40
0.5555555555555556
 40
0.6666666666666666
 40
0.6666666666666666
 40
0.6666666666666666
 40
0.6666666666666666
 40
0.7777777777777778
 40
0.7777777777777778
 40
0.7777777777777778
 40
0.7777777777777778
 40
1.0
 40
1.0
 40
1.0
 40
1.0
 10
-22.2005
 20
16.4814
 30
0.0
 10
-22.105
 20
16.4814
 30
0.0
 10
-22.0269
 20
16.5124
 30
0.0
 10
-21.9662
 20
16.5736
 30
0.0
 10
-21.9662
 20
16.5736
 30
0.0
 10
-21.9056
 20
16.6352
 30
0.0
 10
-21.875
 20
16.7152
 30
0.0
 10
-21.875
 20
16.8135
 30
0.0
 10
-21.875
 20
16.8135
 30
0.0
 10
-21.875
 20
16.909
 30
0.0
 10
-21.9051
 20
16.9875
 30
0.0
 10
-21.9653
 20
17.0487
 30
0.0
 10
-21.9653
 20
17.0487
 30
0.0
 10
-22.0255
 20
17.1098
 30
0.0
 10
-22.0994
 20
17.1399
 30
0.0
 10
-22.1864
 20
17.1399
 30
0.0
 10
-22.1864
 20
17.1399
 30
0.0
 10
-22.2776
 20
17.1399
 30
0.0
 10
-22.3538
 20
17.1089
 30
0.0
 10
-22.4159
 20
17.0458
 30
0.0
 10
-22.4159
 20
17.0458
 30
0.0
 10
-22.478
 20
16.9828
 30
0.0
 10
-22.5091
 20
16.9047
 30
0.0
 10
-22.5091
 20
16.8107
 30
0.0
 10
-22.5091
 20
16.8107
 30
0.0
 10
-22.5091
 20
16.7161
 30
0.0
 10
-22.4785
 20
16.6376
 30
0.0
 10
-22.4183
 20
16.575
 30
0.0
 10
-22.4183
 20
16.575
 30
0.0
 10
-22.3576
 20
16.5124
 30
0.0
 10
-22.2847
 20
16.4814
 30
0.0
 10
-22.2005
 20
16.4814
 30
0.0
  0
SPLINE
  5
127
330
1F
100
AcDbEntity
  8
DEFAULT_1
 62
   250
100
AcDbSpline
210
0.0
220
0.0
230
1.0
 70
    11
 71
     3
 72
    40
 73
    36
 74
     0
 42
0.0000000001
 43
0.0000000001
 40
0.0
 40
0.0
 40
0.0
 40
0.0
 40
0.1
 40
0.1
 40
0.1
 40
0.1
 40
0.2
 40
0.2
 40
0.2
 40
0.2
 40
0.3
 40
0.3
 40
0.3
 40
0.3
 40
0.4
 40
0.4
 40
0.4
 40
0.4
 40
0.5
 40
0.5
 40
0.5
 40
0.5
 40
0.6
 40
0.6
 40
0.6
 40
0.6
 40
0.7
 40
0.7
 40
0.7
 40
0.7
 40
0.8
 40
0.8
 40
0.8
 40
0.8
 40
1.0
 40
1.0
 40
1.0
 40
1.0
 10
-21.2673
 20
16.4014
 30
0.0
 10
-21.1967
 20
16.4014
 30
0.0
 10
-21.1281
 20
16.4184
 30
0.0
 10
-21.0622
 20
16.4518
 30
0.0
 10
-21.0622
 20
16.4518
 30
0.0
 10
-20.9959
 20
16.4852
 30
0.0
 10
-20.9446
 20
16.535
 30
0.0
 10
-20.9084
 20
16.6013
 30
0.0
 10
-20.9084
 20
16.6013
 30
0.0
 10
-20.8722
 20
16.6677
 30
0.0
 10
-20.8538
 20
16.7387
 30
0.0
 10
-20.8538
 20
16.8149
 30
0.0
 10
-20.8538
 20
16.8149
 30
0.0
 10
-20.8538
 20
16.9334
 30
0.0
 10
-20.8919
 20
17.0313
 30
0.0
 10
-20.9686
 20
17.1084
 30
0.0
 10
-20.9686
 20
17.1084
 30
0.0
 10
-21.0448
 20
17.1855
 30
0.0
 10
-21.1417
 20
17.2241
 30
0.0
 10
-21.2593
 20
17.2241
 30
0.0
 10
-21.2593
 20
17.2241
 30
0.0
 10
-21.3788
 20
17.2241
 30
0.0
 10
-21.4775
 20
17.1846
 30
0.0
 10
-21.5556
 20
17.1051
 30
0.0
 10
-21.5556
 20
17.1051
 30
0.0
 10
-21.6337
 20
17.0256
 30
0.0
 10
-21.6727
 20
16.9259
 30
0.0
 10
-21.6727
 20
16.8064
 30
0.0
 10
-21.6727
 20
16.8064
 30
0.0
 10
-21.6727
 20
16.6898
 30
0.0
 10
-21.6342
 20
16.5933
 30
0.0
 10
-21.557
 20
16.5167
 30
0.0
 10
-21.557
 20
16.5167
 30
0.0
 10
-21.4794
 20
16.44
 30
0.0
 10
-21.383
 20
16.4014
 30
0.0
 10
-21.2673
 20
16.4014
 30
0.0
  0
SPLINE
  5
128
330
1F
100
AcDbEntity
  8
DEFAULT_1
 62
   250
100
AcDbSpline
210
0.0
220
0.0
230
1.0
 70
    11
 71
     3
 72
    20
 73
    16
 74
     0
 42
0.0000000001
 43
0.0000000001
 40
0.0
 40
0.0
 40
0.0
 40
0.0
 40
0.2
 40
0.2
 40
0.2
 40
0.2
 40
0.4
 40
0.4
 40
0.4
 40
0.4
 40
0.6
 40
0.6
 40
0.6
 40
0.6
 40
1.0
 40
1.0
 40
1.0
 40
1.0
 10
-20.6462
 20
23.5648
 30
0.0
 10
-20.6462
 20
23.5648
 30
0.0
 10
-20.2933
 20
26.0648
 30
0.0
 10
-20.2933
 20
26.0648
 30
0.0
 10
-20.2933
 20
26.0648
 30
0.0
 10
-20.2933
 20
26.0648
 30
0.0
 10
-20.215
 20
26.0648
 30
0.0
 10
-20.215
 20
26.0648
 30
0.0
 10
-20.215
 20
26.0648
 30
0.0
 10
-20.215
 20
26.0648
 30
0.0
 10
-19.8387
 20
23.5648
 30
0.0
 10
-19.8387
 20
23.5648
 30
0.0
 10
-19.8387
 20
23.5648
 30
0.0
 10
-19.8387
 20
23.5648
 30
0.0
 10
-20.6462
 20
23.5648
 30
0.0
 10
-20.6462
 20
23.5648
 30
0.0
  0
SPLINE
  5
129
330
1F
100
AcDbEntity
  8
DEFAULT_1
 62
   250
100
AcDbSpline
210
0.0
220
0.0
230
1.0
 70
    11
 71
     3
 72
    20
 73
    16
 74
     0
 42
0.0000000001
 43
0.0000000001
 40
0.0
 40
0.0
 40
0.0
 40
0.0
 40
0.2
 40
0.2
 40
0.2
 40
0.2
 40
0.4
 40
0.4
 40
0.4
 40
0.4
 40
0.6
 40
0.6
 40
0.6
 40
0.6
 40
1.0
 40
1.0
 40
1.0
 40
1.0
 10
-19.8331
 20
9.4402
 30
0.0
 10
-19.8331
 20
9.4402
 30
0.0
 10
-20.186
 20
6.9402
 30
0.0
 10
-20.186
 20
6.9402
 30
0.0
 10
-20.186
 20
6.9402
 30
0.0
 10
-20.186
 20
6.9402
 30
0.0
 10
-20.2643
 20
6.9402
 30
0.0
 10
-20.2643
 20
6.9402
 30
0.0
 10
-20.2643
 20
6.9402
 30
0.0
 10
-20.2643
 20
6.9402
 30
0.0
 10
-20.6406
 20
9.4402
 30
0.0
 10
-20.6406
 20
9.4402
 30
0.0
 10
-20.6406
 20
9.4402
 30
0.0
 10
-20.6406
 20
9.4402
 30
0.0
 10
-19.8331
 20
9.4402
 30
0.0
 10
-19.8331
 20
9.4402
 30
0.0
  0
SPLINE
  5
12A
330
1F
100
AcDbEntity
  8
DEFAULT_1
 62
   250
100
AcDbSpline
210
0.0
220
0.0
230
1.0
 70
    24
 71
     3
 72
     8
 73
     4
 74
     0
 42
0.0000000001
 43
0.0000000001
 40
0.0
 40
0.0
 40
0.0
 40
0.0
 40
1.0
 40
1.0
 40
1.0
 40
1.0
 10
-14.0193
 20
-25.9396
 30
0.0
 10
-14.0193
 20
-25.9396
 30
0.0
 10
-14.0193
 20
-22.187
 30
0.0
 10
-14.0193
 20
-22.187
 30
0.0
  0
SPLINE
  5
12B
330
1F
100
AcDbEntity
  8
DEFAULT_1
 62
   250
100
AcDbSpline
210
0.0
220
0.0
230
1.0
 70
    24
 71
     3
 72
     8
 73
     4
 74
     0
 42
0.0000000001
 43
0.0000000001
 40
0.0
 40
0.0
 40
0.0
 40
0.0
 40
1.0
 40
1.0
 40
1.0
 40
1.0
 10
-16.2954
 20
-24.1392
 30
0.0
 10
-16.2954
 20
-24.1392
 30
0.0
 10
-16.2954
 20
-20.1392
 30
0.0
 10
-16.2954
 20
-20.1392
 30
0.0
  0
SPLINE
  5
12C
330
1F
100
AcDbEntity
  8
DEFAULT_1
 62
   250
100
AcDbSpline
210
0.0
220
0.0
230
1.0
 70
    24
 71
     3
 72
     8
 73
     4
 74
     0
 42
0.0000000001
 43
0.0000000001
 40
0.0
 40
0.0
 40
0.0
 40
0.0
 40
1.0
 40
1.0
 40
1.0
 40
1.0
 10
19.9846
 20
-25.8073
 30
0.0
 10
19.9846
 20
-25.8073
 30
0.0
 10
19.9846
 20
-22.1912
 30
0.0
 10
19.9846
 20
-22.1912
 30
0.0
  0
SPLINE
  5
12D
330
1F
100
AcDbEntity
  8
DEFAULT_1
 62
   250
100
AcDbSpline
210
0.0
220
0.0
230
1.0
 70
    24
 71
     3
 72
     8
 73
     4
 74
     0
 42
0.0000000001
 43
0.0000000001
 40
0.0
 40
0.0
 40
0.0
 40
0.0
 40
1.0
 40
1.0
 40
1.0
 40
1.0
 10
20.0579
 20
-25.3736
 30
0.0
 10
20.0579
 20
-25.3736
 30
0.0
 10
-14.1392
 20
-25.3736
 30
0.0
 10
-14.1392
 20
-25.3736
 30
0.0
  0
SPLINE
  5
12E
330
1F
100
AcDbEntity
  8
DEFAULT_1
 62
   250
100
AcDbSpline
210
0.0
220
0.0
230
1.0
 70
    11
 71
     3
 72
    40
 73
    36
 74
     0
 42
0.0000000001
 43
0.0000000001
 40
0.0
 40
0.0
 40
0.0
 40
0.0
 40
0.1
 40
0.1
 40
0.1
 40
0.1
 40
0.2
 40
0.2
 40
0.2
 40
0.2
 40
0.3
 40
0.3
 40
0.3
 40
0.3
 40
0.4
 40
0.4
 40
0.4
 40
0.4
 40
0.5
 40
0.5
 40
0.5
 40
0.5
 40
0.6
 40
0.6
 40
0.6
 40
0.6
 40
0.7
 40
0.7
 40
0.7
 40
0.7
 40
0.8
 40
0.8
 40
0.8
 40
0.8
 40
1.0
 40
1.0
 40
1.0
 40
1.0
 10
0.8935
 20
-24.9527
 30
0.0
 10
0.8935
 20
-24.9527
 30
0.0
 10
0.6456
 20
-24.9527
 30
0.0
 10
0.6456
 20
-24.9527
 30
0.0
 10
0.6456
 20
-24.9527
 30
0.0
 10
0.6456
 20
-24.9527
 30
0.0
 10
0.6456
 20
-23.3723
 30
0.0
 10
0.6456
 20
-23.3723
 30
0.0
 10
0.6456
 20
-23.3723
 30
0.0
 10
0.5858
 20
-23.4292
 30
0.0
 10
0.5078
 20
-23.4861
 30
0.0
 10
0.4109
 20
-23.543
 30
0.0
 10
0.4109
 20
-23.543
 30
0.0
 10
0.3135
 20
-23.5999
 30
0.0
 10
0.2265
 20
-23.6427
 30
0.0
 10
0.1493
 20
-23.671
 30
0.0
 10
0.1493
 20
-23.671
 30
0.0
 10
0.1493
 20
-23.671
 30
0.0
 10
0.1493
 20
-23.4315
 30
0.0
 10
0.1493
 20
-23.4315
 30
0.0
 10
0.1493
 20
-23.4315
 30
0.0
 10
0.2881
 20
-23.3662
 30
0.0
 10
0.4095
 20
-23.2871
 30
0.0
 10
0.5134
 20
-23.1945
 30
0.0
 10
0.5134
 20
-23.1945
 30
0.0
 10
0.6169
 20
-23.1013
 30
0.0
 10
0.6907
 20
-23.0115
 30
0.0
 10
0.734
 20
-22.924
 30
0.0
 10
0.734
 20
-22.924
 30
0.0
 10
0.734
 20
-22.924
 30
0.0
 10
0.8935
 20
-22.924
 30
0.0
 10
0.8935
 20
-22.924
 30
0.0
 10
0.8935
 20
-22.924
 30
0.0
 10
0.8935
 20
-22.924
 30
0.0
 10
0.8935
 20
-24.9527
 30
0.0
 10
0.8935
 20
-24.9527
 30
0.0
  0
SPLINE
  5
12F
330
1F
100
AcDbEntity
  8
DEFAULT_1
 62
   250
100
AcDbSpline
210
0.0
220
0.0
230
1.0
 70
    11
 71
     3
 72
    52
 73
    48
 74
     0
 42
0.0000000001
 43
0.0000000001
 40
0.0
 40
0.0
 40
0.0
 40
0.0
 40
0.0769230769230769
 40
0.0769230769230769
 40
0.0769230769230769
 40
0.0769230769230769
 40
0.1538461538461539
 40
0.1538461538461539
 40
0.1538461538461539
 40
0.1538461538461539
 40
0.2307692307692308
 40
0.2307692307692308
 40
0.2307692307692308
 40
0.2307692307692308
 40
0.3076923076923077
 40
0.3076923076923077
 40
0.3076923076923077
 40
0.3076923076923077
 40
0.3846153846153846
 40
0.3846153846153846
 40
0.3846153846153846
 40
0.3846153846153846
 40
0.4615384615384616
 40
0.4615384615384616
 40
0.4615384615384616
 40
0.4615384615384616
 40
0.5384615384615384
 40
0.5384615384615384
 40
0.5384615384615384
 40
0.5384615384615384
 40
0.6153846153846154
 40
0.6153846153846154
 40
0.6153846153846154
 40
0.6153846153846154
 40
0.6923076923076923
 40
0.6923076923076923
 40
0.6923076923076923
 40
0.6923076923076923
 40
0.7692307692307693
 40
0.7692307692307693
 40
0.7692307692307693
 40
0.7692307692307693
 40
0.8461538461538461
 40
0.8461538461538461
 40
0.8461538461538461
 40
0.8461538461538461
 40
1.0
 40
1.0
 40
1.0
 40
1.0
 10
1.5289
 20
-23.9565
 30
0.0
 10
1.5289
 20
-23.7175
 30
0.0
 10
1.5534
 20
-23.5251
 30
0.0
 10
1.6028
 20
-23.3798
 30
0.0
 10
1.6028
 20
-23.3798
 30
0.0
 10
1.6517
 20
-23.234
 30
0.0
 10
1.7251
 20
-23.1216
 30
0.0
 10
1.822
 20
-23.0425
 30
0.0
 10
1.822
 20
-23.0425
 30
0.0
 10
1.9189
 20
-22.9635
 30
0.0
 10
2.0407
 20
-22.924
 30
0.0
 10
2.1874
 20
-22.924
 30
0.0
 10
2.1874
 20
-22.924
 30
0.0
 10
2.2961
 20
-22.924
 30
0.0
 10
2.3911
 20
-22.9461
 30
0.0
 10
2.4729
 20
-22.9899
 30
0.0
 10
2.4729
 20
-22.9899
 30
0.0
 10
2.5548
 20
-23.0331
 30
0.0
 10
2.6221
 20
-23.0962
 30
0.0
 10
2.6757
 20
-23.1785
 30
0.0
 10
2.6757
 20
-23.1785
 30
0.0
 10
2.7288
 20
-23.2608
 30
0.0
 10
2.7707
 20
-23.361
 30
0.0
 10
2.8008
 20
-23.479
 30
0.0
 10
2.8008
 20
-23.479
 30
0.0
 10
2.8314
 20
-23.5971
 30
0.0
 10
2.8464
 20
-23.7561
 30
0.0
 10
2.8464
 20
-23.9565
 30
0.0
 10
2.8464
 20
-23.9565
 30
0.0
 10
2.8464
 20
-24.1935
 30
0.0
 10
2.822
 20
-24.3845
 30
0.0
 10
2.7735
 20
-24.5303
 30
0.0
 10
2.7735
 20
-24.5303
 30
0.0
 10
2.7246
 20
-24.6761
 30
0.0
 10
2.6517
 20
-24.7885
 30
0.0
 10
2.5548
 20
-24.868
 30
0.0
 10
2.5548
 20
-24.868
 30
0.0
 10
2.4579
 20
-24.9475
 30
0.0
 10
2.3356
 20
-24.987
 30
0.0
 10
2.1874
 20
-24.987
 30
0.0
 10
2.1874
 20
-24.987
 30
0.0
 10
1.9927
 20
-24.987
 30
0.0
 10
1.8398
 20
-24.9174
 30
0.0
 10
1.7288
 20
-24.7777
 30
0.0
 10
1.7288
 20
-24.7777
 30
0.0
 10
1.5957
 20
-24.6098
 30
0.0
 10
1.5289
 20
-24.3356
 30
0.0
 10
1.5289
 20
-23.9565
 30
0.0
  0
SPLINE
  5
130
330
1F
100
AcDbEntity
  8
DEFAULT_1
 62
   250
100
AcDbSpline
210
0.0
220
0.0
230
1.0
 70
    11
 71
     3
 72
    36
 73
    32
 74
     0
 42
0.0000000001
 43
0.0000000001
 40
0.0
 40
0.0
 40
0.0
 40
0.0
 40
0.1111111111111111
 40
0.1111111111111111
 40
0.1111111111111111
 40
0.1111111111111111
 40
0.2222222222222222
 40
0.2222222222222222
 40
0.2222222222222222
 40
0.2222222222222222
 40
0.3333333333333333
 40
0.3333333333333333
 40
0.3333333333333333
 40
0.3333333333333333
 40
0.4444444444444444
 40
0.4444444444444444
 40
0.4444444444444444
 40
0.4444444444444444
 40
0.5555555555555556
 40
0.5555555555555556
 40
0.5555555555555556
 40
0.5555555555555556
 40
0.6666666666666666
 40
0.6666666666666666
 40
0.6666666666666666
 40
0.6666666666666666
 40
0.7777777777777778
 40
0.7777777777777778
 40
0.7777777777777778
 40
0.7777777777777778
 40
1.0
 40
1.0
 40
1.0
 40
1.0
 10
1.7839
 20
-23.9565
 30
0.0
 10
1.7839
 20
-24.2881
 30
0.0
 10
1.8229
 20
-24.5087
 30
0.0
 10
1.9005
 20
-24.6187
 30
0.0
 10
1.9005
 20
-24.6187
 30
0.0
 10
1.9781
 20
-24.7283
 30
0.0
 10
2.0736
 20
-24.7834
 30
0.0
 10
2.1874
 20
-24.7834
 30
0.0
 10
2.1874
 20
-24.7834
 30
0.0
 10
2.3017
 20
-24.7834
 30
0.0
 10
2.3972
 20
-24.7279
 30
0.0
 10
2.4748
 20
-24.6178
 30
0.0
 10
2.4748
 20
-24.6178
 30
0.0
 10
2.5524
 20
-24.5077
 30
0.0
 10
2.5915
 20
-24.2871
 30
0.0
 10
2.5915
 20
-23.9565
 30
0.0
 10
2.5915
 20
-23.9565
 30
0.0
 10
2.5915
 20
-23.6239
 30
0.0
 10
2.5524
 20
-23.4028
 30
0.0
 10
2.4748
 20
-23.2937
 30
0.0
 10
2.4748
 20
-23.2937
 30
0.0
 10
2.3972
 20
-23.1841
 30
0.0
 10
2.3008
 20
-23.1296
 30
0.0
 10
2.1851
 20
-23.1296
 30
0.0
 10
2.1851
 20
-23.1296
 30
0.0
 10
2.0708
 20
-23.1296
 30
0.0
 10
1.98
 20
-23.178
 30
0.0
 10
1.9118
 20
-23.2744
 30
0.0
 10
1.9118
 20
-23.2744
 30
0.0
 10
1.8267
 20
-23.3972
 30
0.0
 10
1.7839
 20
-23.6249
 30
0.0
 10
1.7839
 20
-23.9565
 30
0.0
  0
SPLINE
  5
131
330
1F
100
AcDbEntity
  8
DEFAULT_1
 62
   250
100
AcDbSpline
210
0.0
220
0.0
230
1.0
 70
    11
 71
     3
 72
    92
 73
    88
 74
     0
 42
0.0000000001
 43
0.0000000001
 40
0.0
 40
0.0
 40
0.0
 40
0.0
 40
0.0434782608695652
 40
0.0434782608695652
 40
0.0434782608695652
 40
0.0434782608695652
 40
0.0869565217391304
 40
0.0869565217391304
 40
0.0869565217391304
 40
0.0869565217391304
 40
0.1304347826086956
 40
0.1304347826086956
 40
0.1304347826086956
 40
0.1304347826086956
 40
0.1739130434782609
 40
0.1739130434782609
 40
0.1739130434782609
 40
0.1739130434782609
 40
0.2173913043478261
 40
0.2173913043478261
 40
0.2173913043478261
 40
0.2173913043478261
 40
0.2608695652173913
 40
0.2608695652173913
 40
0.2608695652173913
 40
0.2608695652173913
 40
0.3043478260869565
 40
0.3043478260869565
 40
0.3043478260869565
 40
0.3043478260869565
 40
0.3478260869565217
 40
0.3478260869565217
 40
0.3478260869565217
 40
0.3478260869565217
 40
0.391304347826087
 40
0.391304347826087
 40
0.391304347826087
 40
0.391304347826087
 40
0.4347826086956522
 40
0.4347826086956522
 40
0.4347826086956522
 40
0.4347826086956522
 40
0.4782608695652174
 40
0.4782608695652174
 40
0.4782608695652174
 40
0.4782608695652174
 40
0.5217391304347826
 40
0.5217391304347826
 40
0.5217391304347826
 40
0.5217391304347826
 40
0.5652173913043478
 40
0.5652173913043478
 40
0.5652173913043478
 40
0.5652173913043478
 40
0.6086956521739131
 40
0.6086956521739131
 40
0.6086956521739131
 40
0.6086956521739131
 40
0.6521739130434783
 40
0.6521739130434783
 40
0.6521739130434783
 40
0.6521739130434783
 40
0.6956521739130435
 40
0.6956521739130435
 40
0.6956521739130435
 40
0.6956521739130435
 40
0.7391304347826086
 40
0.7391304347826086
 40
0.7391304347826086
 40
0.7391304347826086
 40
0.782608695652174
 40
0.782608695652174
 40
0.782608695652174
 40
0.782608695652174
 40
0.8260869565217391
 40
0.8260869565217391
 40
0.8260869565217391
 40
0.8260869565217391
 40
0.8695652173913043
 40
0.8695652173913043
 40
0.8695652173913043
 40
0.8695652173913043
 40
0.9130434782608695
 40
0.9130434782608695
 40
0.9130434782608695
 40
0.9130434782608695
 40
1.0
 40
1.0
 40
1.0
 40
1.0
 10
4.4024
 20
-24.7142
 30
0.0
 10
4.4024
 20
-24.7142
 30
0.0
 10
4.4024
 20
-24.9527
 30
0.0
 10
4.4024
 20
-24.9527
 30
0.0
 10
4.4024
 20
-24.9527
 30
0.0
 10
4.4024
 20
-24.9527
 30
0.0
 10
3.067
 20
-24.9527
 30
0.0
 10
3.067
 20
-24.9527
 30
0.0
 10
3.067
 20
-24.9527
 30
0.0
 10
3.0651
 20
-24.893
 30
0.0
 10
3.0745
 20
-24.8356
 30
0.0
 10
3.0957
 20
-24.7805
 30
0.0
 10
3.0957
 20
-24.7805
 30
0.0
 10
3.1296
 20
-24.6893
 30
0.0
 10
3.1841
 20
-24.5999
 30
0.0
 10
3.2589
 20
-24.5115
 30
0.0
 10
3.2589
 20
-24.5115
 30
0.0
 10
3.3342
 20
-24.4235
 30
0.0
 10
3.4424
 20
-24.3215
 30
0.0
 10
3.5835
 20
-24.2058
 30
0.0
 10
3.5835
 20
-24.2058
 30
0.0
 10
3.8031
 20
-24.0256
 30
0.0
 10
3.9518
 20
-23.8831
 30
0.0
 10
4.0289
 20
-23.7777
 30
0.0
 10
4.0289
 20
-23.7777
 30
0.0
 10
4.106
 20
-23.6728
 30
0.0
 10
4.1446
 20
-23.5731
 30
0.0
 10
4.1446
 20
-23.4795
 30
0.0
 10
4.1446
 20
-23.4795
 30
0.0
 10
4.1446
 20
-23.3812
 30
0.0
 10
4.1093
 20
-23.2984
 30
0.0
 10
4.0393
 20
-23.2307
 30
0.0
 10
4.0393
 20
-23.2307
 30
0.0
 10
3.9687
 20
-23.1634
 30
0.0
 10
3.877
 20
-23.1296
 30
0.0
 10
3.7641
 20
-23.1296
 30
0.0
 10
3.7641
 20
-23.1296
 30
0.0
 10
3.6446
 20
-23.1296
 30
0.0
 10
3.5491
 20
-23.1653
 30
0.0
 10
3.4776
 20
-23.2373
 30
0.0
 10
3.4776
 20
-23.2373
 30
0.0
 10
3.4057
 20
-23.3088
 30
0.0
 10
3.3695
 20
-23.408
 30
0.0
 10
3.3685
 20
-23.5345
 30
0.0
 10
3.3685
 20
-23.5345
 30
0.0
 10
3.3685
 20
-23.5345
 30
0.0
 10
3.1136
 20
-23.5087
 30
0.0
 10
3.1136
 20
-23.5087
 30
0.0
 10
3.1136
 20
-23.5087
 30
0.0
 10
3.131
 20
-23.3182
 30
0.0
 10
3.1968
 20
-23.1733
 30
0.0
 10
3.3107
 20
-23.0736
 30
0.0
 10
3.3107
 20
-23.0736
 30
0.0
 10
3.4245
 20
-22.9739
 30
0.0
 10
3.5778
 20
-22.924
 30
0.0
 10
3.7697
 20
-22.924
 30
0.0
 10
3.7697
 20
-22.924
 30
0.0
 10
3.9635
 20
-22.924
 30
0.0
 10
4.1169
 20
-22.9781
 30
0.0
 10
4.2298
 20
-23.0853
 30
0.0
 10
4.2298
 20
-23.0853
 30
0.0
 10
4.3431
 20
-23.1931
 30
0.0
 10
4.3996
 20
-23.3262
 30
0.0
 10
4.3996
 20
-23.4852
 30
0.0
 10
4.3996
 20
-23.4852
 30
0.0
 10
4.3996
 20
-23.5661
 30
0.0
 10
4.3831
 20
-23.6456
 30
0.0
 10
4.3497
 20
-23.7236
 30
0.0
 10
4.3497
 20
-23.7236
 30
0.0
 10
4.3168
 20
-23.8017
 30
0.0
 10
4.2617
 20
-23.884
 30
0.0
 10
4.1851
 20
-23.9701
 30
0.0
 10
4.1851
 20
-23.9701
 30
0.0
 10
4.1084
 20
-24.0567
 30
0.0
 10
3.9809
 20
-24.1752
 30
0.0
 10
3.8027
 20
-24.3257
 30
0.0
 10
3.8027
 20
-24.3257
 30
0.0
 10
3.654
 20
-24.4508
 30
0.0
 10
3.5585
 20
-24.5355
 30
0.0
 10
3.5162
 20
-24.5802
 30
0.0
 10
3.5162
 20
-24.5802
 30
0.0
 10
3.4739
 20
-24.6244
 30
0.0
 10
3.4391
 20
-24.6691
 30
0.0
 10
3.4113
 20
-24.7142
 30
0.0
 10
3.4113
 20
-24.7142
 30
0.0
 10
3.4113
 20
-24.7142
 30
0.0
 10
4.4024
 20
-24.7142
 30
0.0
 10
4.4024
 20
-24.7142
 30
0.0
  0
SPLINE
  5
132
330
1F
100
AcDbEntity
  8
DEFAULT_1
 62
   250
100
AcDbSpline
210
0.0
220
0.0
230
1.0
 70
    11
 71
     3
 72
    20
 73
    16
 74
     0
 42
0.0000000001
 43
0.0000000001
 40
0.0
 40
0.0
 40
0.0
 40
0.0
 40
0.2
 40
0.2
 40
0.2
 40
0.2
 40
0.4
 40
0.4
 40
0.4
 40
0.4
 40
0.6
 40
0.6
 40
0.6
 40
0.6
 40
1.0
 40
1.0
 40
1.0
 40
1.0
 10
17.4352
 20
-24.9691
 30
0.0
 10
17.4352
 20
-24.9691
 30
0.0
 10
19.9352
 20
-25.322
 30
0.0
 10
19.9352
 20
-25.322
 30
0.0
 10
19.9352
 20
-25.322
 30
0.0
 10
19.9352
 20
-25.322
 30
0.0
 10
19.9352
 20
-25.4003
 30
0.0
 10
19.9352
 20
-25.4003
 30
0.0
 10
19.9352
 20
-25.4003
 30
0.0
 10
19.9352
 20
-25.4003
 30
0.0
 10
17.4352
 20
-25.7766
 30
0.0
 10
17.4352
 20
-25.7766
 30
0.0
 10
17.4352
 20
-25.7766
 30
0.0
 10
17.4352
 20
-25.7766
 30
0.0
 10
17.4352
 20
-24.9691
 30
0.0
 10
17.4352
 20
-24.9691
 30
0.0
  0
SPLINE
  5
133
330
1F
100
AcDbEntity
  8
DEFAULT_1
 62
   250
100
AcDbSpline
210
0.0
220
0.0
230
1.0
 70
    11
 71
     3
 72
    20
 73
    16
 74
     0
 42
0.0000000001
 43
0.0000000001
 40
0.0
 40
0.0
 40
0.0
 40
0.0
 40
0.2
 40
0.2
 40
0.2
 40
0.2
 40
0.4
 40
0.4
 40
0.4
 40
0.4
 40
0.6
 40
0.6
 40
0.6
 40
0.6
 40
1.0
 40
1.0
 40
1.0
 40
1.0
 10
-11.4515
 20
-25.7174
 30
0.0
 10
-11.4515
 20
-25.7174
 30
0.0
 10
-13.9515
 20
-25.3645
 30
0.0
 10
-13.9515
 20
-25.3645
 30
0.0
 10
-13.9515
 20
-25.3645
 30
0.0
 10
-13.9515
 20
-25.3645
 30
0.0
 10
-13.9515
 20
-25.2862
 30
0.0
 10
-13.9515
 20
-25.2862
 30
0.0
 10
-13.9515
 20
-25.2862
 30
0.0
 10
-13.9515
 20
-25.2862
 30
0.0
 10
-11.4515
 20
-24.9099
 30
0.0
 10
-11.4515
 20
-24.9099
 30
0.0
 10
-11.4515
 20
-24.9099
 30
0.0
 10
-11.4515
 20
-24.9099
 30
0.0
 10
-11.4515
 20
-25.7174
 30
0.0
 10
-11.4515
 20
-25.7174
 30
0.0
  0
SPLINE
  5
134
330
1F
100
AcDbEntity
  8
DEFAULT_1
  6
NEW_LINE2
 62
   250
100
AcDbSpline
210
0.0
220
0.0
230
1.0
 70
    24
 71
     3
 72
     8
 73
     4
 74
     0
 42
0.0000000001
 43
0.0000000001
 40
0.0
 40
0.0
 40
0.0
 40
0.0
 40
1.0
 40
1.0
 40
1.0
 40
1.0
 10
3.0671
 20
-22.5247
 30
0.0
 10
3.0671
 20
-22.5247
 30
0.0
 10
3.0671
 20
-3.0778
 30
0.0
 10
3.0671
 20
-3.0778
 30
0.0
  0
SPLINE
  5
136
330
1F
100
AcDbEntity
  8
DEFAULT_1
  6
NEW_LINE3
 62
   250
100
AcDbSpline
210
0.0
220
0.0
230
1.0
 70
    24
 71
     3
 72
     8
 73
     4
 74
     0
 42
0.0000000001
 43
0.0000000001
 40
0.0
 40
0.0
 40
0.0
 40
0.0
 40
1.0
 40
1.0
 40
1.0
 40
1.0
 10
-20.2434
 20
-22.0887
 30
0.0
 10
-20.2434
 20
-22.0887
 30
0.0
 10
24.2463
 20
-22.0887
 30
0.0
 10
24.2463
 20
-22.0887
 30
0.0
  0
SPLINE
  5
138
330
1F
100
AcDbEntity
  8
DEFAULT_1
 62
   250
100
AcDbSpline
210
0.0
220
0.0
230
1.0
 70
    24
 71
     3
 72
     8
 73
     4
 74
     0
 42
0.0000000001
 43
0.0000000001
 40
0.0
 40
0.0
 40
0.0
 40
0.0
 40
1.0
 40
1.0
 40
1.0
 40
1.0
 10
-16.6954
 20
-24.1392
 30
0.0
 10
-16.6954
 20
-24.1392
 30
0.0
 10
-16.6954
 20
-20.1392
 30
0.0
 10
-16.6954
 20
-20.1392
 30
0.0
  0
SPLINE
  5
139
330
1F
100
AcDbEntity
  8
DEFAULT_1
 62
   250
100
AcDbSpline
210
0.0
220
0.0
230
1.0
 70
    24
 71
     3
 72
     8
 73
     4
 74
     0
 42
0.0000000001
 43
0.0000000001
 40
0.0
 40
0.0
 40
0.0
 40
0.0
 40
1.0
 40
1.0
 40
1.0
 40
1.0
 10
22.7046
 20
-24.1392
 30
0.0
 10
22.7046
 20
-24.1392
 30
0.0
 10
22.7046
 20
-20.1392
 30
0.0
 10
22.7046
 20
-20.1392
 30
0.0
  0
SPLINE
  5
13A
330
1F
100
AcDbEntity
  8
DEFAULT_1
 62
   250
100
AcDbSpline
210
0.0
220
0.0
230
1.0
 70
    24
 71
     3
 72
     8
 73
     4
 74
     0
 42
0.0000000001
 43
0.0000000001
 40
0.0
 40
0.0
 40
0.0
 40
0.0
 40
1.0
 40
1.0
 40
1.0
 40
1.0
 10
22.3046
 20
-24.1392
 30
0.0
 10
22.3046
 20
-24.1392
 30
0.0
 10
22.3046
 20
-20.1392
 30
0.0
 10
22.3046
 20
-20.1392
 30
0.0
  0
SPLINE
  5
13B
330
1F
100
AcDbEntity
  8
DEFAULT_1
 62
   250
100
AcDbSpline
210
0.0
220
0.0
230
1.0
 70
    24
 71
     3
 72
     8
 73
     4
 74
     0
 42
0.0000000001
 43
0.0000000001
 40
0.0
 40
0.0
 40
0.0
 40
0.0
 40
1.0
 40
1.0
 40
1.0
 40
1.0
 10
-14.7469
 20
-29.2442
 30
0.0
 10
-14.7469
 20
-29.2442
 30
0.0
 10
-14.7469
 20
-22.1978
 30
0.0
 10
-14.7469
 20
-22.1978
 30
0.0
  0
SPLINE
  5
13C
330
1F
100
AcDbEntity
  8
DEFAULT_1
 62
   250
100
AcDbSpline
210
0.0
220
0.0
230
1.0
 70
    24
 71
     3
 72
     8
 73
     4
 74
     0
 42
0.0000000001
 43
0.0000000001
 40
0.0
 40
0.0
 40
0.0
 40
0.0
 40
1.0
 40
1.0
 40
1.0
 40
1.0
 10
20.7447
 20
-29.3598
 30
0.0
 10
20.7447
 20
-29.3598
 30
0.0
 10
20.7447
 20
-22.2516
 30
0.0
 10
20.7447
 20
-22.2516
 30
0.0
  0
SPLINE
  5
13D
330
1F
100
AcDbEntity
  8
DEFAULT_1
 62
   250
100
AcDbSpline
210
0.0
220
0.0
230
1.0
 70
    24
 71
     3
 72
     8
 73
     4
 74
     0
 42
0.0000000001
 43
0.0000000001
 40
0.0
 40
0.0
 40
0.0
 40
0.0
 40
1.0
 40
1.0
 40
1.0
 40
1.0
 10
20.4177
 20
-28.8736
 30
0.0
 10
20.4177
 20
-28.8736
 30
0.0
 10
-14.1392
 20
-28.8736
 30
0.0
 10
-14.1392
 20
-28.8736
 30
0.0
  0
SPLINE
  5
13E
330
1F
100
AcDbEntity
  8
DEFAULT_1
 62
   250
100
AcDbSpline
210
0.0
220
0.0
230
1.0
 70
    11
 71
     3
 72
    40
 73
    36
 74
     0
 42
0.0000000001
 43
0.0000000001
 40
0.0
 40
0.0
 40
0.0
 40
0.0
 40
0.1
 40
0.1
 40
0.1
 40
0.1
 40
0.2
 40
0.2
 40
0.2
 40
0.2
 40
0.3
 40
0.3
 40
0.3
 40
0.3
 40
0.4
 40
0.4
 40
0.4
 40
0.4
 40
0.5
 40
0.5
 40
0.5
 40
0.5
 40
0.6
 40
0.6
 40
0.6
 40
0.6
 40
0.7
 40
0.7
 40
0.7
 40
0.7
 40
0.8
 40
0.8
 40
0.8
 40
0.8
 40
1.0
 40
1.0
 40
1.0
 40
1.0
 10
1.125
 20
-28.618
 30
0.0
 10
1.125
 20
-28.618
 30
0.0
 10
0.8771
 20
-28.618
 30
0.0
 10
0.8771
 20
-28.618
 30
0.0
 10
0.8771
 20
-28.618
 30
0.0
 10
0.8771
 20
-28.618
 30
0.0
 10
0.8771
 20
-27.0376
 30
0.0
 10
0.8771
 20
-27.0376
 30
0.0
 10
0.8771
 20
-27.0376
 30
0.0
 10
0.8173
 20
-27.0945
 30
0.0
 10
0.7393
 20
-27.1514
 30
0.0
 10
0.6424
 20
-27.2083
 30
0.0
 10
0.6424
 20
-27.2083
 30
0.0
 10
0.545
 20
-27.2652
 30
0.0
 10
0.458
 20
-27.308
 30
0.0
 10
0.3808
 20
-27.3363
 30
0.0
 10
0.3808
 20
-27.3363
 30
0.0
 10
0.3808
 20
-27.3363
 30
0.0
 10
0.3808
 20
-27.0968
 30
0.0
 10
0.3808
 20
-27.0968
 30
0.0
 10
0.3808
 20
-27.0968
 30
0.0
 10
0.5196
 20
-27.0315
 30
0.0
 10
0.641
 20
-26.9524
 30
0.0
 10
0.7449
 20
-26.8598
 30
0.0
 10
0.7449
 20
-26.8598
 30
0.0
 10
0.8484
 20
-26.7666
 30
0.0
 10
0.9222
 20
-26.6768
 30
0.0
 10
0.9655
 20
-26.5893
 30
0.0
 10
0.9655
 20
-26.5893
 30
0.0
 10
0.9655
 20
-26.5893
 30
0.0
 10
1.125
 20
-26.5893
 30
0.0
 10
1.125
 20
-26.5893
 30
0.0
 10
1.125
 20
-26.5893
 30
0.0
 10
1.125
 20
-26.5893
 30
0.0
 10
1.125
 20
-28.618
 30
0.0
 10
1.125
 20
-28.618
 30
0.0
  0
SPLINE
  5
13F
330
1F
100
AcDbEntity
  8
DEFAULT_1
 62
   250
100
AcDbSpline
210
0.0
220
0.0
230
1.0
 70
    11
 71
     3
 72
    52
 73
    48
 74
     0
 42
0.0000000001
 43
0.0000000001
 40
0.0
 40
0.0
 40
0.0
 40
0.0
 40
0.0769230769230769
 40
0.0769230769230769
 40
0.0769230769230769
 40
0.0769230769230769
 40
0.1538461538461539
 40
0.1538461538461539
 40
0.1538461538461539
 40
0.1538461538461539
 40
0.2307692307692308
 40
0.2307692307692308
 40
0.2307692307692308
 40
0.2307692307692308
 40
0.3076923076923077
 40
0.3076923076923077
 40
0.3076923076923077
 40
0.3076923076923077
 40
0.3846153846153846
 40
0.3846153846153846
 40
0.3846153846153846
 40
0.3846153846153846
 40
0.4615384615384616
 40
0.4615384615384616
 40
0.4615384615384616
 40
0.4615384615384616
 40
0.5384615384615384
 40
0.5384615384615384
 40
0.5384615384615384
 40
0.5384615384615384
 40
0.6153846153846154
 40
0.6153846153846154
 40
0.6153846153846154
 40
0.6153846153846154
 40
0.6923076923076923
 40
0.6923076923076923
 40
0.6923076923076923
 40
0.6923076923076923
 40
0.7692307692307693
 40
0.7692307692307693
 40
0.7692307692307693
 40
0.7692307692307693
 40
0.8461538461538461
 40
0.8461538461538461
 40
0.8461538461538461
 40
0.8461538461538461
 40
1.0
 40
1.0
 40
1.0
 40
1.0
 10
1.7604
 20
-27.6218
 30
0.0
 10
1.7604
 20
-27.3828
 30
0.0
 10
1.7849
 20
-27.1904
 30
0.0
 10
1.8343
 20
-27.0451
 30
0.0
 10
1.8343
 20
-27.0451
 30
0.0
 10
1.8832
 20
-26.8993
 30
0.0
 10
1.9566
 20
-26.7869
 30
0.0
 10
2.0535
 20
-26.7078
 30
0.0
 10
2.0535
 20
-26.7078
 30
0.0
 10
2.1504
 20
-26.6288
 30
0.0
 10
2.2722
 20
-26.5893
 30
0.0
 10
2.4189
 20
-26.5893
 30
0.0
 10
2.4189
 20
-26.5893
 30
0.0
 10
2.5276
 20
-26.5893
 30
0.0
 10
2.6226
 20
-26.6114
 30
0.0
 10
2.7044
 20
-26.6552
 30
0.0
 10
2.7044
 20
-26.6552
 30
0.0
 10
2.7863
 20
-26.6984
 30
0.0
 10
2.8536
 20
-26.7615
 30
0.0
 10
2.9072
 20
-26.8438
 30
0.0
 10
2.9072
 20
-26.8438
 30
0.0
 10
2.9603
 20
-26.9261
 30
0.0
 10
3.0022
 20
-27.0263
 30
0.0
 10
3.0323
 20
-27.1443
 30
0.0
 10
3.0323
 20
-27.1443
 30
0.0
 10
3.0629
 20
-27.2624
 30
0.0
 10
3.0779
 20
-27.4214
 30
0.0
 10
3.0779
 20
-27.6218
 30
0.0
 10
3.0779
 20
-27.6218
 30
0.0
 10
3.0779
 20
-27.8588
 30
0.0
 10
3.0535
 20
-28.0498
 30
0.0
 10
3.005
 20
-28.1956
 30
0.0
 10
3.005
 20
-28.1956
 30
0.0
 10
2.9561
 20
-28.3414
 30
0.0
 10
2.8832
 20
-28.4538
 30
0.0
 10
2.7863
 20
-28.5333
 30
0.0
 10
2.7863
 20
-28.5333
 30
0.0
 10
2.6894
 20
-28.6128
 30
0.0
 10
2.5671
 20
-28.6523
 30
0.0
 10
2.4189
 20
-28.6523
 30
0.0
 10
2.4189
 20
-28.6523
 30
0.0
 10
2.2242
 20
-28.6523
 30
0.0
 10
2.0713
 20
-28.5827
 30
0.0
 10
1.9603
 20
-28.443
 30
0.0
 10
1.9603
 20
-28.443
 30
0.0
 10
1.8272
 20
-28.2751
 30
0.0
 10
1.7604
 20
-28.0009
 30
0.0
 10
1.7604
 20
-27.6218
 30
0.0
  0
SPLINE
  5
140
330
1F
100
AcDbEntity
  8
DEFAULT_1
 62
   250
100
AcDbSpline
210
0.0
220
0.0
230
1.0
 70
    11
 71
     3
 72
    36
 73
    32
 74
     0
 42
0.0000000001
 43
0.0000000001
 40
0.0
 40
0.0
 40
0.0
 40
0.0
 40
0.1111111111111111
 40
0.1111111111111111
 40
0.1111111111111111
 40
0.1111111111111111
 40
0.2222222222222222
 40
0.2222222222222222
 40
0.2222222222222222
 40
0.2222222222222222
 40
0.3333333333333333
 40
0.3333333333333333
 40
0.3333333333333333
 40
0.3333333333333333
 40
0.4444444444444444
 40
0.4444444444444444
 40
0.4444444444444444
 40
0.4444444444444444
 40
0.5555555555555556
 40
0.5555555555555556
 40
0.5555555555555556
 40
0.5555555555555556
 40
0.6666666666666666
 40
0.6666666666666666
 40
0.6666666666666666
 40
0.6666666666666666
 40
0.7777777777777778
 40
0.7777777777777778
 40
0.7777777777777778
 40
0.7777777777777778
 40
1.0
 40
1.0
 40
1.0
 40
1.0
 10
2.0154
 20
-27.6218
 30
0.0
 10
2.0154
 20
-27.9534
 30
0.0
 10
2.0544
 20
-28.174
 30
0.0
 10
2.132
 20
-28.284
 30
0.0
 10
2.132
 20
-28.284
 30
0.0
 10
2.2096
 20
-28.3936
 30
0.0
 10
2.3051
 20
-28.4487
 30
0.0
 10
2.4189
 20
-28.4487
 30
0.0
 10
2.4189
 20
-28.4487
 30
0.0
 10
2.5332
 20
-28.4487
 30
0.0
 10
2.6287
 20
-28.3932
 30
0.0
 10
2.7063
 20
-28.2831
 30
0.0
 10
2.7063
 20
-28.2831
 30
0.0
 10
2.7839
 20
-28.173
 30
0.0
 10
2.823
 20
-27.9524
 30
0.0
 10
2.823
 20
-27.6218
 30
0.0
 10
2.823
 20
-27.6218
 30
0.0
 10
2.823
 20
-27.2892
 30
0.0
 10
2.7839
 20
-27.0681
 30
0.0
 10
2.7063
 20
-26.959
 30
0.0
 10
2.7063
 20
-26.959
 30
0.0
 10
2.6287
 20
-26.8494
 30
0.0
 10
2.5323
 20
-26.7949
 30
0.0
 10
2.4166
 20
-26.7949
 30
0.0
 10
2.4166
 20
-26.7949
 30
0.0
 10
2.3023
 20
-26.7949
 30
0.0
 10
2.2115
 20
-26.8433
 30
0.0
 10
2.1433
 20
-26.9397
 30
0.0
 10
2.1433
 20
-26.9397
 30
0.0
 10
2.0582
 20
-27.0625
 30
0.0
 10
2.0154
 20
-27.2902
 30
0.0
 10
2.0154
 20
-27.6218
 30
0.0
  0
SPLINE
  5
141
330
1F
100
AcDbEntity
  8
DEFAULT_1
 62
   250
100
AcDbSpline
210
0.0
220
0.0
230
1.0
 70
    11
 71
     3
 72
    92
 73
    88
 74
     0
 42
0.0000000001
 43
0.0000000001
 40
0.0
 40
0.0
 40
0.0
 40
0.0
 40
0.0434782608695652
 40
0.0434782608695652
 40
0.0434782608695652
 40
0.0434782608695652
 40
0.0869565217391304
 40
0.0869565217391304
 40
0.0869565217391304
 40
0.0869565217391304
 40
0.1304347826086956
 40
0.1304347826086956
 40
0.1304347826086956
 40
0.1304347826086956
 40
0.1739130434782609
 40
0.1739130434782609
 40
0.1739130434782609
 40
0.1739130434782609
 40
0.2173913043478261
 40
0.2173913043478261
 40
0.2173913043478261
 40
0.2173913043478261
 40
0.2608695652173913
 40
0.2608695652173913
 40
0.2608695652173913
 40
0.2608695652173913
 40
0.3043478260869565
 40
0.3043478260869565
 40
0.3043478260869565
 40
0.3043478260869565
 40
0.3478260869565217
 40
0.3478260869565217
 40
0.3478260869565217
 40
0.3478260869565217
 40
0.391304347826087
 40
0.391304347826087
 40
0.391304347826087
 40
0.391304347826087
 40
0.4347826086956522
 40
0.4347826086956522
 40
0.4347826086956522
 40
0.4347826086956522
 40
0.4782608695652174
 40
0.4782608695652174
 40
0.4782608695652174
 40
0.4782608695652174
 40
0.5217391304347826
 40
0.5217391304347826
 40
0.5217391304347826
 40
0.5217391304347826
 40
0.5652173913043478
 40
0.5652173913043478
 40
0.5652173913043478
 40
0.5652173913043478
 40
0.6086956521739131
 40
0.6086956521739131
 40
0.6086956521739131
 40
0.6086956521739131
 40
0.6521739130434783
 40
0.6521739130434783
 40
0.6521739130434783
 40
0.6521739130434783
 40
0.6956521739130435
 40
0.6956521739130435
 40
0.6956521739130435
 40
0.6956521739130435
 40
0.7391304347826086
 40
0.7391304347826086
 40
0.7391304347826086
 40
0.7391304347826086
 40
0.782608695652174
 40
0.782608695652174
 40
0.782608695652174
 40
0.782608695652174
 40
0.8260869565217391
 40
0.8260869565217391
 40
0.8260869565217391
 40
0.8260869565217391
 40
0.8695652173913043
 40
0.8695652173913043
 40
0.8695652173913043
 40
0.8695652173913043
 40
0.9130434782608695
 40
0.9130434782608695
 40
0.9130434782608695
 40
0.9130434782608695
 40
1.0
 40
1.0
 40
1.0
 40
1.0
 10
3.33
 20
-28.0888
 30
0.0
 10
3.33
 20
-28.0888
 30
0.0
 10
3.5906
 20
-28.0667
 30
0.0
 10
3.5906
 20
-28.0667
 30
0.0
 10
3.5906
 20
-28.0667
 30
0.0
 10
3.6099
 20
-28.1937
 30
0.0
 10
3.6546
 20
-28.2887
 30
0.0
 10
3.7247
 20
-28.3527
 30
0.0
 10
3.7247
 20
-28.3527
 30
0.0
 10
3.7952
 20
-28.4167
 30
0.0
 10
3.8799
 20
-28.4487
 30
0.0
 10
3.9791
 20
-28.4487
 30
0.0
 10
3.9791
 20
-28.4487
 30
0.0
 10
4.0986
 20
-28.4487
 30
0.0
 10
4.1997
 20
-28.4035
 30
0.0
 10
4.282
 20
-28.3137
 30
0.0
 10
4.282
 20
-28.3137
 30
0.0
 10
4.3648
 20
-28.2234
 30
0.0
 10
4.4062
 20
-28.1039
 30
0.0
 10
4.4062
 20
-27.9553
 30
0.0
 10
4.4062
 20
-27.9553
 30
0.0
 10
4.4062
 20
-27.8137
 30
0.0
 10
4.3667
 20
-27.7022
 30
0.0
 10
4.2872
 20
-27.6204
 30
0.0
 10
4.2872
 20
-27.6204
 30
0.0
 10
4.2077
 20
-27.5385
 30
0.0
 10
4.1038
 20
-27.4976
 30
0.0
 10
3.9749
 20
-27.4976
 30
0.0
 10
3.9749
 20
-27.4976
 30
0.0
 10
3.8949
 20
-27.4976
 30
0.0
 10
3.823
 20
-27.5159
 30
0.0
 10
3.7585
 20
-27.5521
 30
0.0
 10
3.7585
 20
-27.5521
 30
0.0
 10
3.6941
 20
-27.5884
 30
0.0
 10
3.6438
 20
-27.6354
 30
0.0
 10
3.6071
 20
-27.6933
 30
0.0
 10
3.6071
 20
-27.6933
 30
0.0
 10
3.6071
 20
-27.6933
 30
0.0
 10
3.3742
 20
-27.6632
 30
0.0
 10
3.3742
 20
-27.6632
 30
0.0
 10
3.3742
 20
-27.6632
 30
0.0
 10
3.3742
 20
-27.6632
 30
0.0
 10
3.5699
 20
-26.6255
 30
0.0
 10
3.5699
 20
-26.6255
 30
0.0
 10
3.5699
 20
-26.6255
 30
0.0
 10
3.5699
 20
-26.6255
 30
0.0
 10
4.5746
 20
-26.6255
 30
0.0
 10
4.5746
 20
-26.6255
 30
0.0
 10
4.5746
 20
-26.6255
 30
0.0
 10
4.5746
 20
-26.6255
 30
0.0
 10
4.5746
 20
-26.8626
 30
0.0
 10
4.5746
 20
-26.8626
 30
0.0
 10
4.5746
 20
-26.8626
 30
0.0
 10
4.5746
 20
-26.8626
 30
0.0
 10
3.7684
 20
-26.8626
 30
0.0
 10
3.7684
 20
-26.8626
 30
0.0
 10
3.7684
 20
-26.8626
 30
0.0
 10
3.7684
 20
-26.8626
 30
0.0
 10
3.6593
 20
-27.4054
 30
0.0
 10
3.6593
 20
-27.4054
 30
0.0
 10
3.6593
 20
-27.4054
 30
0.0
 10
3.7806
 20
-27.3207
 30
0.0
 10
3.9081
 20
-27.2784
 30
0.0
 10
4.0412
 20
-27.2784
 30
0.0
 10
4.0412
 20
-27.2784
 30
0.0
 10
4.2176
 20
-27.2784
 30
0.0
 10
4.3662
 20
-27.3395
 30
0.0
 10
4.4876
 20
-27.4618
 30
0.0
 10
4.4876
 20
-27.4618
 30
0.0
 10
4.6089
 20
-27.5841
 30
0.0
 10
4.6696
 20
-27.7412
 30
0.0
 10
4.6696
 20
-27.9331
 30
0.0
 10
4.6696
 20
-27.9331
 30
0.0
 10
4.6696
 20
-28.1161
 30
0.0
 10
4.616
 20
-28.2742
 30
0.0
 10
4.5097
 20
-28.4073
 30
0.0
 10
4.5097
 20
-28.4073
 30
0.0
 10
4.3799
 20
-28.5705
 30
0.0
 10
4.203
 20
-28.6523
 30
0.0
 10
3.9791
 20
-28.6523
 30
0.0
 10
3.9791
 20
-28.6523
 30
0.0
 10
3.7952
 20
-28.6523
 30
0.0
 10
3.6452
 20
-28.6011
 30
0.0
 10
3.529
 20
-28.4981
 30
0.0
 10
3.529
 20
-28.4981
 30
0.0
 10
3.4128
 20
-28.395
 30
0.0
 10
3.3465
 20
-28.2586
 30
0.0
 10
3.33
 20
-28.0888
 30
0.0
  0
SPLINE
  5
142
330
1F
100
AcDbEntity
  8
DEFAULT_1
 62
   250
100
AcDbSpline
210
0.0
220
0.0
230
1.0
 70
    11
 71
     3
 72
    20
 73
    16
 74
     0
 42
0.0000000001
 43
0.0000000001
 40
0.0
 40
0.0
 40
0.0
 40
0.0
 40
0.2
 40
0.2
 40
0.2
 40
0.2
 40
0.4
 40
0.4
 40
0.4
 40
0.4
 40
0.6
 40
0.6
 40
0.6
 40
0.6
 40
1.0
 40
1.0
 40
1.0
 40
1.0
 10
18.2124
 20
-28.4856
 30
0.0
 10
18.2124
 20
-28.4856
 30
0.0
 10
20.7124
 20
-28.8385
 30
0.0
 10
20.7124
 20
-28.8385
 30
0.0
 10
20.7124
 20
-28.8385
 30
0.0
 10
20.7124
 20
-28.8385
 30
0.0
 10
20.7124
 20
-28.9168
 30
0.0
 10
20.7124
 20
-28.9168
 30
0.0
 10
20.7124
 20
-28.9168
 30
0.0
 10
20.7124
 20
-28.9168
 30
0.0
 10
18.2124
 20
-29.2931
 30
0.0
 10
18.2124
 20
-29.2931
 30
0.0
 10
18.2124
 20
-29.2931
 30
0.0
 10
18.2124
 20
-29.2931
 30
0.0
 10
18.2124
 20
-28.4856
 30
0.0
 10
18.2124
 20
-28.4856
 30
0.0
  0
SPLINE
  5
143
330
1F
100
AcDbEntity
  8
DEFAULT_1
 62
   250
100
AcDbSpline
210
0.0
220
0.0
230
1.0
 70
    11
 71
     3
 72
    20
 73
    16
 74
     0
 42
0.0000000001
 43
0.0000000001
 40
0.0
 40
0.0
 40
0.0
 40
0.0
 40
0.2
 40
0.2
 40
0.2
 40
0.2
 40
0.4
 40
0.4
 40
0.4
 40
0.4
 40
0.6
 40
0.6
 40
0.6
 40
0.6
 40
1.0
 40
1.0
 40
1.0
 40
1.0
 10
-12.1626
 20
-29.3166
 30
0.0
 10
-12.1626
 20
-29.3166
 30
0.0
 10
-14.6626
 20
-28.9637
 30
0.0
 10
-14.6626
 20
-28.9637
 30
0.0
 10
-14.6626
 20
-28.9637
 30
0.0
 10
-14.6626
 20
-28.9637
 30
0.0
 10
-14.6626
 20
-28.8854
 30
0.0
 10
-14.6626
 20
-28.8854
 30
0.0
 10
-14.6626
 20
-28.8854
 30
0.0
 10
-14.6626
 20
-28.8854
 30
0.0
 10
-12.1626
 20
-28.5091
 30
0.0
 10
-12.1626
 20
-28.5091
 30
0.0
 10
-12.1626
 20
-28.5091
 30
0.0
 10
-12.1626
 20
-28.5091
 30
0.0
 10
-12.1626
 20
-29.3166
 30
0.0
 10
-12.1626
 20
-29.3166
 30
0.0
  0
SPLINE
  5
144
330
1F
100
AcDbEntity
  8
DEFAULT_1
 62
   250
100
AcDbSpline
210
0.0
220
0.0
230
1.0
 70
    24
 71
     3
 72
     8
 73
     4
 74
     0
 42
0.0000000001
 43
0.0000000001
 40
0.0
 40
0.0
 40
0.0
 40
0.0
 40
1.0
 40
1.0
 40
1.0
 40
1.0
 10
-18.2393
 20
-5.6793
 30
0.0
 10
-18.2393
 20
-5.6793
 30
0.0
 10
-18.2393
 20
-21.9146
 30
0.0
 10
-18.2393
 20
-21.9146
 30
0.0
  0
SPLINE
  5
145
330
1F
100
AcDbEntity
  8
DEFAULT_1
 62
   250
100
AcDbSpline
210
0.0
220
0.0
230
1.0
 70
    11
 71
     3
 72
    40
 73
    36
 74
     0
 42
0.0000000001
 43
0.0000000001
 40
0.0
 40
0.0
 40
0.0
 40
0.0
 40
0.1
 40
0.1
 40
0.1
 40
0.1
 40
0.2
 40
0.2
 40
0.2
 40
0.2
 40
0.3
 40
0.3
 40
0.3
 40
0.3
 40
0.4
 40
0.4
 40
0.4
 40
0.4
 40
0.5
 40
0.5
 40
0.5
 40
0.5
 40
0.6
 40
0.6
 40
0.6
 40
0.6
 40
0.7
 40
0.7
 40
0.7
 40
0.7
 40
0.8
 40
0.8
 40
0.8
 40
0.8
 40
1.0
 40
1.0
 40
1.0
 40
1.0
 10
-18.4861
 20
-15.4043
 30
0.0
 10
-18.4861
 20
-15.4043
 30
0.0
 10
-18.4861
 20
-15.6522
 30
0.0
 10
-18.4861
 20
-15.6522
 30
0.0
 10
-18.4861
 20
-15.6522
 30
0.0
 10
-18.4861
 20
-15.6522
 30
0.0
 10
-20.0665
 20
-15.6522
 30
0.0
 10
-20.0665
 20
-15.6522
 30
0.0
 10
-20.0665
 20
-15.6522
 30
0.0
 10
-20.0096
 20
-15.712
 30
0.0
 10
-19.9527
 20
-15.79
 30
0.0
 10
-19.8958
 20
-15.8869
 30
0.0
 10
-19.8958
 20
-15.8869
 30
0.0
 10
-19.8389
 20
-15.9843
 30
0.0
 10
-19.7961
 20
-16.0713
 30
0.0
 10
-19.7678
 20
-16.1485
 30
0.0
 10
-19.7678
 20
-16.1485
 30
0.0
 10
-19.7678
 20
-16.1485
 30
0.0
 10
-20.0073
 20
-16.1485
 30
0.0
 10
-20.0073
 20
-16.1485
 30
0.0
 10
-20.0073
 20
-16.1485
 30
0.0
 10
-20.0726
 20
-16.0097
 30
0.0
 10
-20.1517
 20
-15.8883
 30
0.0
 10
-20.2443
 20
-15.7844
 30
0.0
 10
-20.2443
 20
-15.7844
 30
0.0
 10
-20.3375
 20
-15.6809
 30
0.0
 10
-20.4273
 20
-15.6071
 30
0.0
 10
-20.5148
 20
-15.5638
 30
0.0
 10
-20.5148
 20
-15.5638
 30
0.0
 10
-20.5148
 20
-15.5638
 30
0.0
 10
-20.5148
 20
-15.4043
 30
0.0
 10
-20.5148
 20
-15.4043
 30
0.0
 10
-20.5148
 20
-15.4043
 30
0.0
 10
-20.5148
 20
-15.4043
 30
0.0
 10
-18.4861
 20
-15.4043
 30
0.0
 10
-18.4861
 20
-15.4043
 30
0.0
  0
SPLINE
  5
146
330
1F
100
AcDbEntity
  8
DEFAULT_1
 62
   250
100
AcDbSpline
210
0.0
220
0.0
230
1.0
 70
    11
 71
     3
 72
    52
 73
    48
 74
     0
 42
0.0000000001
 43
0.0000000001
 40
0.0
 40
0.0
 40
0.0
 40
0.0
 40
0.0769230769230769
 40
0.0769230769230769
 40
0.0769230769230769
 40
0.0769230769230769
 40
0.1538461538461539
 40
0.1538461538461539
 40
0.1538461538461539
 40
0.1538461538461539
 40
0.2307692307692308
 40
0.2307692307692308
 40
0.2307692307692308
 40
0.2307692307692308
 40
0.3076923076923077
 40
0.3076923076923077
 40
0.3076923076923077
 40
0.3076923076923077
 40
0.3846153846153846
 40
0.3846153846153846
 40
0.3846153846153846
 40
0.3846153846153846
 40
0.4615384615384616
 40
0.4615384615384616
 40
0.4615384615384616
 40
0.4615384615384616
 40
0.5384615384615384
 40
0.5384615384615384
 40
0.5384615384615384
 40
0.5384615384615384
 40
0.6153846153846154
 40
0.6153846153846154
 40
0.6153846153846154
 40
0.6153846153846154
 40
0.6923076923076923
 40
0.6923076923076923
 40
0.6923076923076923
 40
0.6923076923076923
 40
0.7692307692307693
 40
0.7692307692307693
 40
0.7692307692307693
 40
0.7692307692307693
 40
0.8461538461538461
 40
0.8461538461538461
 40
0.8461538461538461
 40
0.8461538461538461
 40
1.0
 40
1.0
 40
1.0
 40
1.0
 10
-19.4823
 20
-14.7689
 30
0.0
 10
-19.7213
 20
-14.7689
 30
0.0
 10
-19.9137
 20
-14.7444
 30
0.0
 10
-20.059
 20
-14.695
 30
0.0
 10
-20.059
 20
-14.695
 30
0.0
 10
-20.2048
 20
-14.6461
 30
0.0
 10
-20.3172
 20
-14.5727
 30
0.0
 10
-20.3963
 20
-14.4758
 30
0.0
 10
-20.3963
 20
-14.4758
 30
0.0
 10
-20.4753
 20
-14.3789
 30
0.0
 10
-20.5148
 20
-14.2571
 30
0.0
 10
-20.5148
 20
-14.1104
 30
0.0
 10
-20.5148
 20
-14.1104
 30
0.0
 10
-20.5148
 20
-14.0017
 30
0.0
 10
-20.4927
 20
-13.9067
 30
0.0
 10
-20.4489
 20
-13.8249
 30
0.0
 10
-20.4489
 20
-13.8249
 30
0.0
 10
-20.4057
 20
-13.743
 30
0.0
 10
-20.3426
 20
-13.6757
 30
0.0
 10
-20.2603
 20
-13.6221
 30
0.0
 10
-20.2603
 20
-13.6221
 30
0.0
 10
-20.178
 20
-13.569
 30
0.0
 10
-20.0778
 20
-13.5271
 30
0.0
 10
-19.9598
 20
-13.497
 30
0.0
 10
-19.9598
 20
-13.497
 30
0.0
 10
-19.8417
 20
-13.4664
 30
0.0
 10
-19.6827
 20
-13.4514
 30
0.0
 10
-19.4823
 20
-13.4514
 30
0.0
 10
-19.4823
 20
-13.4514
 30
0.0
 10
-19.2453
 20
-13.4514
 30
0.0
 10
-19.0543
 20
-13.4758
 30
0.0
 10
-18.9085
 20
-13.5243
 30
0.0
 10
-18.9085
 20
-13.5243
 30
0.0
 10
-18.7627
 20
-13.5732
 30
0.0
 10
-18.6503
 20
-13.6461
 30
0.0
 10
-18.5708
 20
-13.743
 30
0.0
 10
-18.5708
 20
-13.743
 30
0.0
 10
-18.4913
 20
-13.8399
 30
0.0
 10
-18.4518
 20
-13.9622
 30
0.0
 10
-18.4518
 20
-14.1104
 30
0.0
 10
-18.4518
 20
-14.1104
 30
0.0
 10
-18.4518
 20
-14.3051
 30
0.0
 10
-18.5214
 20
-14.458
 30
0.0
 10
-18.6611
 20
-14.569
 30
0.0
 10
-18.6611
 20
-14.569
 30
0.0
 10
-18.829
 20
-14.7021
 30
0.0
 10
-19.1032
 20
-14.7689
 30
0.0
 10
-19.4823
 20
-14.7689
 30
0.0
  0
SPLINE
  5
147
330
1F
100
AcDbEntity
  8
DEFAULT_1
 62
   250
100
AcDbSpline
210
0.0
220
0.0
230
1.0
 70
    11
 71
     3
 72
    36
 73
    32
 74
     0
 42
0.0000000001
 43
0.0000000001
 40
0.0
 40
0.0
 40
0.0
 40
0.0
 40
0.1111111111111111
 40
0.1111111111111111
 40
0.1111111111111111
 40
0.1111111111111111
 40
0.2222222222222222
 40
0.2222222222222222
 40
0.2222222222222222
 40
0.2222222222222222
 40
0.3333333333333333
 40
0.3333333333333333
 40
0.3333333333333333
 40
0.3333333333333333
 40
0.4444444444444444
 40
0.4444444444444444
 40
0.4444444444444444
 40
0.4444444444444444
 40
0.5555555555555556
 40
0.5555555555555556
 40
0.5555555555555556
 40
0.5555555555555556
 40
0.6666666666666666
 40
0.6666666666666666
 40
0.6666666666666666
 40
0.6666666666666666
 40
0.7777777777777778
 40
0.7777777777777778
 40
0.7777777777777778
 40
0.7777777777777778
 40
1.0
 40
1.0
 40
1.0
 40
1.0
 10
-19.4823
 20
-14.5139
 30
0.0
 10
-19.1507
 20
-14.5139
 30
0.0
 10
-18.9301
 20
-14.4749
 30
0.0
 10
-18.8201
 20
-14.3973
 30
0.0
 10
-18.8201
 20
-14.3973
 30
0.0
 10
-18.7105
 20
-14.3197
 30
0.0
 10
-18.6554
 20
-14.2242
 30
0.0
 10
-18.6554
 20
-14.1104
 30
0.0
 10
-18.6554
 20
-14.1104
 30
0.0
 10
-18.6554
 20
-13.9961
 30
0.0
 10
-18.7109
 20
-13.9006
 30
0.0
 10
-18.821
 20
-13.823
 30
0.0
 10
-18.821
 20
-13.823
 30
0.0
 10
-18.9311
 20
-13.7454
 30
0.0
 10
-19.1517
 20
-13.7063
 30
0.0
 10
-19.4823
 20
-13.7063
 30
0.0
 10
-19.4823
 20
-13.7063
 30
0.0
 10
-19.8149
 20
-13.7063
 30
0.0
 10
-20.036
 20
-13.7454
 30
0.0
 10
-20.1451
 20
-13.823
 30
0.0
 10
-20.1451
 20
-13.823
 30
0.0
 10
-20.2547
 20
-13.9006
 30
0.0
 10
-20.3092
 20
-13.997
 30
0.0
 10
-20.3092
 20
-14.1127
 30
0.0
 10
-20.3092
 20
-14.1127
 30
0.0
 10
-20.3092
 20
-14.227
 30
0.0
 10
-20.2608
 20
-14.3178
 30
0.0
 10
-20.1644
 20
-14.386
 30
0.0
 10
-20.1644
 20
-14.386
 30
0.0
 10
-20.0416
 20
-14.4711
 30
0.0
 10
-19.8139
 20
-14.5139
 30
0.0
 10
-19.4823
 20
-14.5139
 30
0.0
  0
SPLINE
  5
148
330
1F
100
AcDbEntity
  8
DEFAULT_1
 62
   250
100
AcDbSpline
210
0.0
220
0.0
230
1.0
 70
    11
 71
     3
 72
    92
 73
    88
 74
     0
 42
0.0000000001
 43
0.0000000001
 40
0.0
 40
0.0
 40
0.0
 40
0.0
 40
0.0434782608695652
 40
0.0434782608695652
 40
0.0434782608695652
 40
0.0434782608695652
 40
0.0869565217391304
 40
0.0869565217391304
 40
0.0869565217391304
 40
0.0869565217391304
 40
0.1304347826086956
 40
0.1304347826086956
 40
0.1304347826086956
 40
0.1304347826086956
 40
0.1739130434782609
 40
0.1739130434782609
 40
0.1739130434782609
 40
0.1739130434782609
 40
0.2173913043478261
 40
0.2173913043478261
 40
0.2173913043478261
 40
0.2173913043478261
 40
0.2608695652173913
 40
0.2608695652173913
 40
0.2608695652173913
 40
0.2608695652173913
 40
0.3043478260869565
 40
0.3043478260869565
 40
0.3043478260869565
 40
0.3043478260869565
 40
0.3478260869565217
 40
0.3478260869565217
 40
0.3478260869565217
 40
0.3478260869565217
 40
0.391304347826087
 40
0.391304347826087
 40
0.391304347826087
 40
0.391304347826087
 40
0.4347826086956522
 40
0.4347826086956522
 40
0.4347826086956522
 40
0.4347826086956522
 40
0.4782608695652174
 40
0.4782608695652174
 40
0.4782608695652174
 40
0.4782608695652174
 40
0.5217391304347826
 40
0.5217391304347826
 40
0.5217391304347826
 40
0.5217391304347826
 40
0.5652173913043478
 40
0.5652173913043478
 40
0.5652173913043478
 40
0.5652173913043478
 40
0.6086956521739131
 40
0.6086956521739131
 40
0.6086956521739131
 40
0.6086956521739131
 40
0.6521739130434783
 40
0.6521739130434783
 40
0.6521739130434783
 40
0.6521739130434783
 40
0.6956521739130435
 40
0.6956521739130435
 40
0.6956521739130435
 40
0.6956521739130435
 40
0.7391304347826086
 40
0.7391304347826086
 40
0.7391304347826086
 40
0.7391304347826086
 40
0.782608695652174
 40
0.782608695652174
 40
0.782608695652174
 40
0.782608695652174
 40
0.8260869565217391
 40
0.8260869565217391
 40
0.8260869565217391
 40
0.8260869565217391
 40
0.8695652173913043
 40
0.8695652173913043
 40
0.8695652173913043
 40
0.8695652173913043
 40
0.9130434782608695
 40
0.9130434782608695
 40
0.9130434782608695
 40
0.9130434782608695
 40
1.0
 40
1.0
 40
1.0
 40
1.0
 10
-18.7246
 20
-11.8954
 30
0.0
 10
-18.7246
 20
-11.8954
 30
0.0
 10
-18.4861
 20
-11.8954
 30
0.0
 10
-18.4861
 20
-11.8954
 30
0.0
 10
-18.4861
 20
-11.8954
 30
0.0
 10
-18.4861
 20
-11.8954
 30
0.0
 10
-18.4861
 20
-13.2308
 30
0.0
 10
-18.4861
 20
-13.2308
 30
0.0
 10
-18.4861
 20
-13.2308
 30
0.0
 10
-18.5458
 20
-13.2327
 30
0.0
 10
-18.6032
 20
-13.2233
 30
0.0
 10
-18.6583
 20
-13.2021
 30
0.0
 10
-18.6583
 20
-13.2021
 30
0.0
 10
-18.7495
 20
-13.1682
 30
0.0
 10
-18.8389
 20
-13.1137
 30
0.0
 10
-18.9273
 20
-13.0389
 30
0.0
 10
-18.9273
 20
-13.0389
 30
0.0
 10
-19.0153
 20
-12.9636
 30
0.0
 10
-19.1173
 20
-12.8554
 30
0.0
 10
-19.233
 20
-12.7143
 30
0.0
 10
-19.233
 20
-12.7143
 30
0.0
 10
-19.4132
 20
-12.4947
 30
0.0
 10
-19.5557
 20
-12.346
 30
0.0
 10
-19.6611
 20
-12.2689
 30
0.0
 10
-19.6611
 20
-12.2689
 30
0.0
 10
-19.766
 20
-12.1918
 30
0.0
 10
-19.8657
 20
-12.1532
 30
0.0
 10
-19.9593
 20
-12.1532
 30
0.0
 10
-19.9593
 20
-12.1532
 30
0.0
 10
-20.0576
 20
-12.1532
 30
0.0
 10
-20.1404
 20
-12.1885
 30
0.0
 10
-20.2081
 20
-12.2585
 30
0.0
 10
-20.2081
 20
-12.2585
 30
0.0
 10
-20.2754
 20
-12.3291
 30
0.0
 10
-20.3092
 20
-12.4208
 30
0.0
 10
-20.3092
 20
-12.5337
 30
0.0
 10
-20.3092
 20
-12.5337
 30
0.0
 10
-20.3092
 20
-12.6532
 30
0.0
 10
-20.2735
 20
-12.7487
 30
0.0
 10
-20.2015
 20
-12.8202
 30
0.0
 10
-20.2015
 20
-12.8202
 30
0.0
 10
-20.13
 20
-12.8921
 30
0.0
 10
-20.0308
 20
-12.9283
 30
0.0
 10
-19.9043
 20
-12.9293
 30
0.0
 10
-19.9043
 20
-12.9293
 30
0.0
 10
-19.9043
 20
-12.9293
 30
0.0
 10
-19.9301
 20
-13.1842
 30
0.0
 10
-19.9301
 20
-13.1842
 30
0.0
 10
-19.9301
 20
-13.1842
 30
0.0
 10
-20.1206
 20
-13.1668
 30
0.0
 10
-20.2655
 20
-13.101
 30
0.0
 10
-20.3652
 20
-12.9871
 30
0.0
 10
-20.3652
 20
-12.9871
 30
0.0
 10
-20.4649
 20
-12.8733
 30
0.0
 10
-20.5148
 20
-12.72
 30
0.0
 10
-20.5148
 20
-12.5281
 30
0.0
 10
-20.5148
 20
-12.5281
 30
0.0
 10
-20.5148
 20
-12.3343
 30
0.0
 10
-20.4607
 20
-12.1809
 30
0.0
 10
-20.3535
 20
-12.068
 30
0.0
 10
-20.3535
 20
-12.068
 30
0.0
 10
-20.2457
 20
-11.9547
 30
0.0
 10
-20.1126
 20
-11.8982
 30
0.0
 10
-19.9536
 20
-11.8982
 30
0.0
 10
-19.9536
 20
-11.8982
 30
0.0
 10
-19.8727
 20
-11.8982
 30
0.0
 10
-19.7932
 20
-11.9147
 30
0.0
 10
-19.7152
 20
-11.9481
 30
0.0
 10
-19.7152
 20
-11.9481
 30
0.0
 10
-19.6371
 20
-11.981
 30
0.0
 10
-19.5548
 20
-12.0361
 30
0.0
 10
-19.4687
 20
-12.1127
 30
0.0
 10
-19.4687
 20
-12.1127
 30
0.0
 10
-19.3821
 20
-12.1894
 30
0.0
 10
-19.2636
 20
-12.3169
 30
0.0
 10
-19.1131
 20
-12.4951
 30
0.0
 10
-19.1131
 20
-12.4951
 30
0.0
 10
-18.988
 20
-12.6438
 30
0.0
 10
-18.9033
 20
-12.7393
 30
0.0
 10
-18.8586
 20
-12.7816
 30
0.0
 10
-18.8586
 20
-12.7816
 30
0.0
 10
-18.8144
 20
-12.8239
 30
0.0
 10
-18.7697
 20
-12.8587
 30
0.0
 10
-18.7246
 20
-12.8865
 30
0.0
 10
-18.7246
 20
-12.8865
 30
0.0
 10
-18.7246
 20
-12.8865
 30
0.0
 10
-18.7246
 20
-11.8954
 30
0.0
 10
-18.7246
 20
-11.8954
 30
0.0
  0
SPLINE
  5
149
330
1F
100
AcDbEntity
  8
DEFAULT_1
 62
   250
100
AcDbSpline
210
0.0
220
0.0
230
1.0
 70
    11
 71
     3
 72
    20
 73
    16
 74
     0
 42
0.0000000001
 43
0.0000000001
 40
0.0
 40
0.0
 40
0.0
 40
0.0
 40
0.2
 40
0.2
 40
0.2
 40
0.2
 40
0.4
 40
0.4
 40
0.4
 40
0.4
 40
0.6
 40
0.6
 40
0.6
 40
0.6
 40
1.0
 40
1.0
 40
1.0
 40
1.0
 10
-18.6462
 20
-7.6623
 30
0.0
 10
-18.6462
 20
-7.6623
 30
0.0
 10
-18.2933
 20
-5.1623
 30
0.0
 10
-18.2933
 20
-5.1623
 30
0.0
 10
-18.2933
 20
-5.1623
 30
0.0
 10
-18.2933
 20
-5.1623
 30
0.0
 10
-18.215
 20
-5.1623
 30
0.0
 10
-18.215
 20
-5.1623
 30
0.0
 10
-18.215
 20
-5.1623
 30
0.0
 10
-18.215
 20
-5.1623
 30
0.0
 10
-17.8387
 20
-7.6623
 30
0.0
 10
-17.8387
 20
-7.6623
 30
0.0
 10
-17.8387
 20
-7.6623
 30
0.0
 10
-17.8387
 20
-7.6623
 30
0.0
 10
-18.6462
 20
-7.6623
 30
0.0
 10
-18.6462
 20
-7.6623
 30
0.0
  0
SPLINE
  5
14A
330
1F
100
AcDbEntity
  8
DEFAULT_1
 62
   250
100
AcDbSpline
210
0.0
220
0.0
230
1.0
 70
    11
 71
     3
 72
    20
 73
    16
 74
     0
 42
0.0000000001
 43
0.0000000001
 40
0.0
 40
0.0
 40
0.0
 40
0.0
 40
0.2
 40
0.2
 40
0.2
 40
0.2
 40
0.4
 40
0.4
 40
0.4
 40
0.4
 40
0.6
 40
0.6
 40
0.6
 40
0.6
 40
1.0
 40
1.0
 40
1.0
 40
1.0
 10
-17.8331
 20
-19.5598
 30
0.0
 10
-17.8331
 20
-19.5598
 30
0.0
 10
-18.186
 20
-22.0598
 30
0.0
 10
-18.186
 20
-22.0598
 30
0.0
 10
-18.186
 20
-22.0598
 30
0.0
 10
-18.186
 20
-22.0598
 30
0.0
 10
-18.2643
 20
-22.0598
 30
0.0
 10
-18.2643
 20
-22.0598
 30
0.0
 10
-18.2643
 20
-22.0598
 30
0.0
 10
-18.2643
 20
-22.0598
 30
0.0
 10
-18.6406
 20
-19.5598
 30
0.0
 10
-18.6406
 20
-19.5598
 30
0.0
 10
-18.6406
 20
-19.5598
 30
0.0
 10
-18.6406
 20
-19.5598
 30
0.0
 10
-17.8331
 20
-19.5598
 30
0.0
 10
-17.8331
 20
-19.5598
 30
0.0
  0
SPLINE
  5
14B
330
1F
100
AcDbEntity
  8
DEFAULT_1
 62
   250
100
AcDbSpline
210
0.0
220
0.0
230
1.0
 70
    11
 71
     3
 72
    20
 73
    16
 74
     0
 42
0.0000000001
 43
0.0000000001
 40
0.0
 40
0.0
 40
0.0
 40
0.0
 40
0.2
 40
0.2
 40
0.2
 40
0.2
 40
0.4
 40
0.4
 40
0.4
 40
0.4
 40
0.6
 40
0.6
 40
0.6
 40
0.6
 40
1.0
 40
1.0
 40
1.0
 40
1.0
 10
-17.8331
 20
-22.0598
 30
0.0
 10
-17.8331
 20
-22.0598
 30
0.0
 10
-18.186
 20
-24.5598
 30
0.0
 10
-18.186
 20
-24.5598
 30
0.0
 10
-18.186
 20
-24.5598
 30
0.0
 10
-18.186
 20
-24.5598
 30
0.0
 10
-18.2643
 20
-24.5598
 30
0.0
 10
-18.2643
 20
-24.5598
 30
0.0
 10
-18.2643
 20
-24.5598
 30
0.0
 10
-18.2643
 20
-24.5598
 30
0.0
 10
-18.6406
 20
-22.0598
 30
0.0
 10
-18.6406
 20
-22.0598
 30
0.0
 10
-18.6406
 20
-22.0598
 30
0.0
 10
-18.6406
 20
-22.0598
 30
0.0
 10
-17.8331
 20
-22.0598
 30
0.0
 10
-17.8331
 20
-22.0598
 30
0.0
  0
SPLINE
  5
14C
330
1F
100
AcDbEntity
  8
DEFAULT_1
 62
   250
100
AcDbSpline
210
0.0
220
0.0
230
1.0
 70
    24
 71
     3
 72
     8
 73
     4
 74
     0
 42
0.0000000001
 43
0.0000000001
 40
0.0
 40
0.0
 40
0.0
 40
0.0
 40
1.0
 40
1.0
 40
1.0
 40
1.0
 10
-14.1751
 20
-5.1182
 30
0.0
 10
-14.1751
 20
-5.1182
 30
0.0
 10
-18.8314
 20
-5.1182
 30
0.0
 10
-18.8314
 20
-5.1182
 30
0.0
  0
SPLINE
  5
14D
330
1F
100
AcDbEntity
  8
DEFAULT_1
 62
   250
100
AcDbSpline
210
0.0
220
0.0
230
1.0
 70
    24
 71
     3
 72
     8
 73
     4
 74
     0
 42
0.0000000001
 43
0.0000000001
 40
0.0
 40
0.0
 40
0.0
 40
0.0
 40
1.0
 40
1.0
 40
1.0
 40
1.0
 10
-21.7393
 20
-5.6793
 30
0.0
 10
-21.7393
 20
-5.6793
 30
0.0
 10
-21.7393
 20
-21.9146
 30
0.0
 10
-21.7393
 20
-21.9146
 30
0.0
  0
SPLINE
  5
14E
330
1F
100
AcDbEntity
  8
DEFAULT_1
 62
   250
100
AcDbSpline
210
0.0
220
0.0
230
1.0
 70
    11
 71
     3
 72
    40
 73
    36
 74
     0
 42
0.0000000001
 43
0.0000000001
 40
0.0
 40
0.0
 40
0.0
 40
0.0
 40
0.1
 40
0.1
 40
0.1
 40
0.1
 40
0.2
 40
0.2
 40
0.2
 40
0.2
 40
0.3
 40
0.3
 40
0.3
 40
0.3
 40
0.4
 40
0.4
 40
0.4
 40
0.4
 40
0.5
 40
0.5
 40
0.5
 40
0.5
 40
0.6
 40
0.6
 40
0.6
 40
0.6
 40
0.7
 40
0.7
 40
0.7
 40
0.7
 40
0.8
 40
0.8
 40
0.8
 40
0.8
 40
1.0
 40
1.0
 40
1.0
 40
1.0
 10
-22.2177
 20
-15.239
 30
0.0
 10
-22.2177
 20
-15.239
 30
0.0
 10
-22.2177
 20
-15.4869
 30
0.0
 10
-22.2177
 20
-15.4869
 30
0.0
 10
-22.2177
 20
-15.4869
 30
0.0
 10
-22.2177
 20
-15.4869
 30
0.0
 10
-23.7981
 20
-15.4869
 30
0.0
 10
-23.7981
 20
-15.4869
 30
0.0
 10
-23.7981
 20
-15.4869
 30
0.0
 10
-23.7412
 20
-15.5467
 30
0.0
 10
-23.6843
 20
-15.6247
 30
0.0
 10
-23.6274
 20
-15.7216
 30
0.0
 10
-23.6274
 20
-15.7216
 30
0.0
 10
-23.5705
 20
-15.819
 30
0.0
 10
-23.5277
 20
-15.906
 30
0.0
 10
-23.4994
 20
-15.9832
 30
0.0
 10
-23.4994
 20
-15.9832
 30
0.0
 10
-23.4994
 20
-15.9832
 30
0.0
 10
-23.7389
 20
-15.9832
 30
0.0
 10
-23.7389
 20
-15.9832
 30
0.0
 10
-23.7389
 20
-15.9832
 30
0.0
 10
-23.8042
 20
-15.8444
 30
0.0
 10
-23.8833
 20
-15.723
 30
0.0
 10
-23.9759
 20
-15.6191
 30
0.0
 10
-23.9759
 20
-15.6191
 30
0.0
 10
-24.0691
 20
-15.5156
 30
0.0
 10
-24.1589
 20
-15.4418
 30
0.0
 10
-24.2464
 20
-15.3985
 30
0.0
 10
-24.2464
 20
-15.3985
 30
0.0
 10
-24.2464
 20
-15.3985
 30
0.0
 10
-24.2464
 20
-15.239
 30
0.0
 10
-24.2464
 20
-15.239
 30
0.0
 10
-24.2464
 20
-15.239
 30
0.0
 10
-24.2464
 20
-15.239
 30
0.0
 10
-22.2177
 20
-15.239
 30
0.0
 10
-22.2177
 20
-15.239
 30
0.0
  0
SPLINE
  5
14F
330
1F
100
AcDbEntity
  8
DEFAULT_1
 62
   250
100
AcDbSpline
210
0.0
220
0.0
230
1.0
 70
    11
 71
     3
 72
    52
 73
    48
 74
     0
 42
0.0000000001
 43
0.0000000001
 40
0.0
 40
0.0
 40
0.0
 40
0.0
 40
0.0769230769230769
 40
0.0769230769230769
 40
0.0769230769230769
 40
0.0769230769230769
 40
0.1538461538461539
 40
0.1538461538461539
 40
0.1538461538461539
 40
0.1538461538461539
 40
0.2307692307692308
 40
0.2307692307692308
 40
0.2307692307692308
 40
0.2307692307692308
 40
0.3076923076923077
 40
0.3076923076923077
 40
0.3076923076923077
 40
0.3076923076923077
 40
0.3846153846153846
 40
0.3846153846153846
 40
0.3846153846153846
 40
0.3846153846153846
 40
0.4615384615384616
 40
0.4615384615384616
 40
0.4615384615384616
 40
0.4615384615384616
 40
0.5384615384615384
 40
0.5384615384615384
 40
0.5384615384615384
 40
0.5384615384615384
 40
0.6153846153846154
 40
0.6153846153846154
 40
0.6153846153846154
 40
0.6153846153846154
 40
0.6923076923076923
 40
0.6923076923076923
 40
0.6923076923076923
 40
0.6923076923076923
 40
0.7692307692307693
 40
0.7692307692307693
 40
0.7692307692307693
 40
0.7692307692307693
 40
0.8461538461538461
 40
0.8461538461538461
 40
0.8461538461538461
 40
0.8461538461538461
 40
1.0
 40
1.0
 40
1.0
 40
1.0
 10
-23.2139
 20
-14.6036
 30
0.0
 10
-23.4529
 20
-14.6036
 30
0.0
 10
-23.6453
 20
-14.5791
 30
0.0
 10
-23.7906
 20
-14.5297
 30
0.0
 10
-23.7906
 20
-14.5297
 30
0.0
 10
-23.9364
 20
-14.4808
 30
0.0
 10
-24.0488
 20
-14.4074
 30
0.0
 10
-24.1279
 20
-14.3105
 30
0.0
 10
-24.1279
 20
-14.3105
 30
0.0
 10
-24.2069
 20
-14.2136
 30
0.0
 10
-24.2464
 20
-14.0918
 30
0.0
 10
-24.2464
 20
-13.9451
 30
0.0
 10
-24.2464
 20
-13.9451
 30
0.0
 10
-24.2464
 20
-13.8364
 30
0.0
 10
-24.2243
 20
-13.7414
 30
0.0
 10
-24.1805
 20
-13.6596
 30
0.0
 10
-24.1805
 20
-13.6596
 30
0.0
 10
-24.1373
 20
-13.5777
 30
0.0
 10
-24.0742
 20
-13.5104
 30
0.0
 10
-23.9919
 20
-13.4568
 30
0.0
 10
-23.9919
 20
-13.4568
 30
0.0
 10
-23.9096
 20
-13.4037
 30
0.0
 10
-23.8094
 20
-13.3618
 30
0.0
 10
-23.6914
 20
-13.3317
 30
0.0
 10
-23.6914
 20
-13.3317
 30
0.0
 10
-23.5733
 20
-13.3011
 30
0.0
 10
-23.4143
 20
-13.2861
 30
0.0
 10
-23.2139
 20
-13.2861
 30
0.0
 10
-23.2139
 20
-13.2861
 30
0.0
 10
-22.9769
 20
-13.2861
 30
0.0
 10
-22.7859
 20
-13.3105
 30
0.0
 10
-22.6401
 20
-13.359
 30
0.0
 10
-22.6401
 20
-13.359
 30
0.0
 10
-22.4943
 20
-13.4079
 30
0.0
 10
-22.3819
 20
-13.4808
 30
0.0
 10
-22.3024
 20
-13.5777
 30
0.0
 10
-22.3024
 20
-13.5777
 30
0.0
 10
-22.2229
 20
-13.6746
 30
0.0
 10
-22.1834
 20
-13.7969
 30
0.0
 10
-22.1834
 20
-13.9451
 30
0.0
 10
-22.1834
 20
-13.9451
 30
0.0
 10
-22.1834
 20
-14.1398
 30
0.0
 10
-22.253
 20
-14.2927
 30
0.0
 10
-22.3927
 20
-14.4037
 30
0.0
 10
-22.3927
 20
-14.4037
 30
0.0
 10
-22.5606
 20
-14.5368
 30
0.0
 10
-22.8348
 20
-14.6036
 30
0.0
 10
-23.2139
 20
-14.6036
 30
0.0
  0
SPLINE
  5
150
330
1F
100
AcDbEntity
  8
DEFAULT_1
 62
   250
100
AcDbSpline
210
0.0
220
0.0
230
1.0
 70
    11
 71
     3
 72
    36
 73
    32
 74
     0
 42
0.0000000001
 43
0.0000000001
 40
0.0
 40
0.0
 40
0.0
 40
0.0
 40
0.1111111111111111
 40
0.1111111111111111
 40
0.1111111111111111
 40
0.1111111111111111
 40
0.2222222222222222
 40
0.2222222222222222
 40
0.2222222222222222
 40
0.2222222222222222
 40
0.3333333333333333
 40
0.3333333333333333
 40
0.3333333333333333
 40
0.3333333333333333
 40
0.4444444444444444
 40
0.4444444444444444
 40
0.4444444444444444
 40
0.4444444444444444
 40
0.5555555555555556
 40
0.5555555555555556
 40
0.5555555555555556
 40
0.5555555555555556
 40
0.6666666666666666
 40
0.6666666666666666
 40
0.6666666666666666
 40
0.6666666666666666
 40
0.7777777777777778
 40
0.7777777777777778
 40
0.7777777777777778
 40
0.7777777777777778
 40
1.0
 40
1.0
 40
1.0
 40
1.0
 10
-23.2139
 20
-14.3486
 30
0.0
 10
-22.8823
 20
-14.3486
 30
0.0
 10
-22.6617
 20
-14.3096
 30
0.0
 10
-22.5517
 20
-14.232
 30
0.0
 10
-22.5517
 20
-14.232
 30
0.0
 10
-22.4421
 20
-14.1544
 30
0.0
 10
-22.387
 20
-14.0589
 30
0.0
 10
-22.387
 20
-13.9451
 30
0.0
 10
-22.387
 20
-13.9451
 30
0.0
 10
-22.387
 20
-13.8308
 30
0.0
 10
-22.4425
 20
-13.7353
 30
0.0
 10
-22.5526
 20
-13.6577
 30
0.0
 10
-22.5526
 20
-13.6577
 30
0.0
 10
-22.6627
 20
-13.5801
 30
0.0
 10
-22.8833
 20
-13.541
 30
0.0
 10
-23.2139
 20
-13.541
 30
0.0
 10
-23.2139
 20
-13.541
 30
0.0
 10
-23.5465
 20
-13.541
 30
0.0
 10
-23.7676
 20
-13.5801
 30
0.0
 10
-23.8767
 20
-13.6577
 30
0.0
 10
-23.8767
 20
-13.6577
 30
0.0
 10
-23.9863
 20
-13.7353
 30
0.0
 10
-24.0408
 20
-13.8317
 30
0.0
 10
-24.0408
 20
-13.9474
 30
0.0
 10
-24.0408
 20
-13.9474
 30
0.0
 10
-24.0408
 20
-14.0617
 30
0.0
 10
-23.9924
 20
-14.1525
 30
0.0
 10
-23.896
 20
-14.2207
 30
0.0
 10
-23.896
 20
-14.2207
 30
0.0
 10
-23.7732
 20
-14.3058
 30
0.0
 10
-23.5455
 20
-14.3486
 30
0.0
 10
-23.2139
 20
-14.3486
 30
0.0
  0
SPLINE
  5
151
330
1F
100
AcDbEntity
  8
DEFAULT_1
 62
   250
100
AcDbSpline
210
0.0
220
0.0
230
1.0
 70
    11
 71
     3
 72
    92
 73
    88
 74
     0
 42
0.0000000001
 43
0.0000000001
 40
0.0
 40
0.0
 40
0.0
 40
0.0
 40
0.0434782608695652
 40
0.0434782608695652
 40
0.0434782608695652
 40
0.0434782608695652
 40
0.0869565217391304
 40
0.0869565217391304
 40
0.0869565217391304
 40
0.0869565217391304
 40
0.1304347826086956
 40
0.1304347826086956
 40
0.1304347826086956
 40
0.1304347826086956
 40
0.1739130434782609
 40
0.1739130434782609
 40
0.1739130434782609
 40
0.1739130434782609
 40
0.2173913043478261
 40
0.2173913043478261
 40
0.2173913043478261
 40
0.2173913043478261
 40
0.2608695652173913
 40
0.2608695652173913
 40
0.2608695652173913
 40
0.2608695652173913
 40
0.3043478260869565
 40
0.3043478260869565
 40
0.3043478260869565
 40
0.3043478260869565
 40
0.3478260869565217
 40
0.3478260869565217
 40
0.3478260869565217
 40
0.3478260869565217
 40
0.391304347826087
 40
0.391304347826087
 40
0.391304347826087
 40
0.391304347826087
 40
0.4347826086956522
 40
0.4347826086956522
 40
0.4347826086956522
 40
0.4347826086956522
 40
0.4782608695652174
 40
0.4782608695652174
 40
0.4782608695652174
 40
0.4782608695652174
 40
0.5217391304347826
 40
0.5217391304347826
 40
0.5217391304347826
 40
0.5217391304347826
 40
0.5652173913043478
 40
0.5652173913043478
 40
0.5652173913043478
 40
0.5652173913043478
 40
0.6086956521739131
 40
0.6086956521739131
 40
0.6086956521739131
 40
0.6086956521739131
 40
0.6521739130434783
 40
0.6521739130434783
 40
0.6521739130434783
 40
0.6521739130434783
 40
0.6956521739130435
 40
0.6956521739130435
 40
0.6956521739130435
 40
0.6956521739130435
 40
0.7391304347826086
 40
0.7391304347826086
 40
0.7391304347826086
 40
0.7391304347826086
 40
0.782608695652174
 40
0.782608695652174
 40
0.782608695652174
 40
0.782608695652174
 40
0.8260869565217391
 40
0.8260869565217391
 40
0.8260869565217391
 40
0.8260869565217391
 40
0.8695652173913043
 40
0.8695652173913043
 40
0.8695652173913043
 40
0.8695652173913043
 40
0.9130434782608695
 40
0.9130434782608695
 40
0.9130434782608695
 40
0.9130434782608695
 40
1.0
 40
1.0
 40
1.0
 40
1.0
 10
-22.7469
 20
-13.034
 30
0.0
 10
-22.7469
 20
-13.034
 30
0.0
 10
-22.769
 20
-12.7734
 30
0.0
 10
-22.769
 20
-12.7734
 30
0.0
 10
-22.769
 20
-12.7734
 30
0.0
 10
-22.642
 20
-12.7541
 30
0.0
 10
-22.547
 20
-12.7094
 30
0.0
 10
-22.483
 20
-12.6393
 30
0.0
 10
-22.483
 20
-12.6393
 30
0.0
 10
-22.419
 20
-12.5688
 30
0.0
 10
-22.387
 20
-12.4841
 30
0.0
 10
-22.387
 20
-12.3849
 30
0.0
 10
-22.387
 20
-12.3849
 30
0.0
 10
-22.387
 20
-12.2654
 30
0.0
 10
-22.4322
 20
-12.1643
 30
0.0
 10
-22.522
 20
-12.082
 30
0.0
 10
-22.522
 20
-12.082
 30
0.0
 10
-22.6123
 20
-11.9992
 30
0.0
 10
-22.7318
 20
-11.9578
 30
0.0
 10
-22.8804
 20
-11.9578
 30
0.0
 10
-22.8804
 20
-11.9578
 30
0.0
 10
-23.022
 20
-11.9578
 30
0.0
 10
-23.1335
 20
-11.9973
 30
0.0
 10
-23.2153
 20
-12.0768
 30
0.0
 10
-23.2153
 20
-12.0768
 30
0.0
 10
-23.2972
 20
-12.1563
 30
0.0
 10
-23.3381
 20
-12.2602
 30
0.0
 10
-23.3381
 20
-12.3891
 30
0.0
 10
-23.3381
 20
-12.3891
 30
0.0
 10
-23.3381
 20
-12.4691
 30
0.0
 10
-23.3198
 20
-12.541
 30
0.0
 10
-23.2836
 20
-12.6055
 30
0.0
 10
-23.2836
 20
-12.6055
 30
0.0
 10
-23.2473
 20
-12.6699
 30
0.0
 10
-23.2003
 20
-12.7202
 30
0.0
 10
-23.1424
 20
-12.7569
 30
0.0
 10
-23.1424
 20
-12.7569
 30
0.0
 10
-23.1424
 20
-12.7569
 30
0.0
 10
-23.1725
 20
-12.9898
 30
0.0
 10
-23.1725
 20
-12.9898
 30
0.0
 10
-23.1725
 20
-12.9898
 30
0.0
 10
-23.1725
 20
-12.9898
 30
0.0
 10
-24.2102
 20
-12.7941
 30
0.0
 10
-24.2102
 20
-12.7941
 30
0.0
 10
-24.2102
 20
-12.7941
 30
0.0
 10
-24.2102
 20
-12.7941
 30
0.0
 10
-24.2102
 20
-11.7894
 30
0.0
 10
-24.2102
 20
-11.7894
 30
0.0
 10
-24.2102
 20
-11.7894
 30
0.0
 10
-24.2102
 20
-11.7894
 30
0.0
 10
-23.9731
 20
-11.7894
 30
0.0
 10
-23.9731
 20
-11.7894
 30
0.0
 10
-23.9731
 20
-11.7894
 30
0.0
 10
-23.9731
 20
-11.7894
 30
0.0
 10
-23.9731
 20
-12.5956
 30
0.0
 10
-23.9731
 20
-12.5956
 30
0.0
 10
-23.9731
 20
-12.5956
 30
0.0
 10
-23.9731
 20
-12.5956
 30
0.0
 10
-23.4303
 20
-12.7047
 30
0.0
 10
-23.4303
 20
-12.7047
 30
0.0
 10
-23.4303
 20
-12.7047
 30
0.0
 10
-23.515
 20
-12.5834
 30
0.0
 10
-23.5573
 20
-12.4559
 30
0.0
 10
-23.5573
 20
-12.3228
 30
0.0
 10
-23.5573
 20
-12.3228
 30
0.0
 10
-23.5573
 20
-12.1464
 30
0.0
 10
-23.4962
 20
-11.9978
 30
0.0
 10
-23.3739
 20
-11.8764
 30
0.0
 10
-23.3739
 20
-11.8764
 30
0.0
 10
-23.2516
 20
-11.7551
 30
0.0
 10
-23.0945
 20
-11.6944
 30
0.0
 10
-22.9026
 20
-11.6944
 30
0.0
 10
-22.9026
 20
-11.6944
 30
0.0
 10
-22.7196
 20
-11.6944
 30
0.0
 10
-22.5615
 20
-11.748
 30
0.0
 10
-22.4284
 20
-11.8543
 30
0.0
 10
-22.4284
 20
-11.8543
 30
0.0
 10
-22.2652
 20
-11.9841
 30
0.0
 10
-22.1834
 20
-12.161
 30
0.0
 10
-22.1834
 20
-12.3849
 30
0.0
 10
-22.1834
 20
-12.3849
 30
0.0
 10
-22.1834
 20
-12.5688
 30
0.0
 10
-22.2346
 20
-12.7188
 30
0.0
 10
-22.3376
 20
-12.835
 30
0.0
 10
-22.3376
 20
-12.835
 30
0.0
 10
-22.4407
 20
-12.9512
 30
0.0
 10
-22.5771
 20
-13.0175
 30
0.0
 10
-22.7469
 20
-13.034
 30
0.0
  0
SPLINE
  5
152
330
1F
100
AcDbEntity
  8
DEFAULT_1
 62
   250
100
AcDbSpline
210
0.0
220
0.0
230
1.0
 70
    11
 71
     3
 72
    20
 73
    16
 74
     0
 42
0.0000000001
 43
0.0000000001
 40
0.0
 40
0.0
 40
0.0
 40
0.0
 40
0.2
 40
0.2
 40
0.2
 40
0.2
 40
0.4
 40
0.4
 40
0.4
 40
0.4
 40
0.6
 40
0.6
 40
0.6
 40
0.6
 40
1.0
 40
1.0
 40
1.0
 40
1.0
 10
-22.1131
 20
-6.9512
 30
0.0
 10
-22.1131
 20
-6.9512
 30
0.0
 10
-21.7602
 20
-4.4512
 30
0.0
 10
-21.7602
 20
-4.4512
 30
0.0
 10
-21.7602
 20
-4.4512
 30
0.0
 10
-21.7602
 20
-4.4512
 30
0.0
 10
-21.6819
 20
-4.4512
 30
0.0
 10
-21.6819
 20
-4.4512
 30
0.0
 10
-21.6819
 20
-4.4512
 30
0.0
 10
-21.6819
 20
-4.4512
 30
0.0
 10
-21.3056
 20
-6.9512
 30
0.0
 10
-21.3056
 20
-6.9512
 30
0.0
 10
-21.3056
 20
-6.9512
 30
0.0
 10
-21.3056
 20
-6.9512
 30
0.0
 10
-22.1131
 20
-6.9512
 30
0.0
 10
-22.1131
 20
-6.9512
 30
0.0
  0
SPLINE
  5
153
330
1F
100
AcDbEntity
  8
DEFAULT_1
 62
   250
100
AcDbSpline
210
0.0
220
0.0
230
1.0
 70
    11
 71
     3
 72
    20
 73
    16
 74
     0
 42
0.0000000001
 43
0.0000000001
 40
0.0
 40
0.0
 40
0.0
 40
0.0
 40
0.2
 40
0.2
 40
0.2
 40
0.2
 40
0.4
 40
0.4
 40
0.4
 40
0.4
 40
0.6
 40
0.6
 40
0.6
 40
0.6
 40
1.0
 40
1.0
 40
1.0
 40
1.0
 10
-21.3331
 20
-19.5598
 30
0.0
 10
-21.3331
 20
-19.5598
 30
0.0
 10
-21.686
 20
-22.0598
 30
0.0
 10
-21.686
 20
-22.0598
 30
0.0
 10
-21.686
 20
-22.0598
 30
0.0
 10
-21.686
 20
-22.0598
 30
0.0
 10
-21.7643
 20
-22.0598
 30
0.0
 10
-21.7643
 20
-22.0598
 30
0.0
 10
-21.7643
 20
-22.0598
 30
0.0
 10
-21.7643
 20
-22.0598
 30
0.0
 10
-22.1406
 20
-19.5598
 30
0.0
 10
-22.1406
 20
-19.5598
 30
0.0
 10
-22.1406
 20
-19.5598
 30
0.0
 10
-22.1406
 20
-19.5598
 30
0.0
 10
-21.3331
 20
-19.5598
 30
0.0
 10
-21.3331
 20
-19.5598
 30
0.0
  0
SPLINE
  5
154
330
1F
100
AcDbEntity
  8
DEFAULT_1
 62
   250
100
AcDbSpline
210
0.0
220
0.0
230
1.0
 70
    11
 71
     3
 72
    20
 73
    16
 74
     0
 42
0.0000000001
 43
0.0000000001
 40
0.0
 40
0.0
 40
0.0
 40
0.0
 40
0.2
 40
0.2
 40
0.2
 40
0.2
 40
0.4
 40
0.4
 40
0.4
 40
0.4
 40
0.6
 40
0.6
 40
0.6
 40
0.6
 40
1.0
 40
1.0
 40
1.0
 40
1.0
 10
-21.3331
 20
-22.0598
 30
0.0
 10
-21.3331
 20
-22.0598
 30
0.0
 10
-21.686
 20
-24.5598
 30
0.0
 10
-21.686
 20
-24.5598
 30
0.0
 10
-21.686
 20
-24.5598
 30
0.0
 10
-21.686
 20
-24.5598
 30
0.0
 10
-21.7643
 20
-24.5598
 30
0.0
 10
-21.7643
 20
-24.5598
 30
0.0
 10
-21.7643
 20
-24.5598
 30
0.0
 10
-21.7643
 20
-24.5598
 30
0.0
 10
-22.1406
 20
-22.0598
 30
0.0
 10
-22.1406
 20
-22.0598
 30
0.0
 10
-22.1406
 20
-22.0598
 30
0.0
 10
-22.1406
 20
-22.0598
 30
0.0
 10
-21.3331
 20
-22.0598
 30
0.0
 10
-21.3331
 20
-22.0598
 30
0.0
  0
SPLINE
  5
155
330
1F
100
AcDbEntity
  8
DEFAULT_1
 62
   250
100
AcDbSpline
210
0.0
220
0.0
230
1.0
 70
    24
 71
     3
 72
     8
 73
     4
 74
     0
 42
0.0000000001
 43
0.0000000001
 40
0.0
 40
0.0
 40
0.0
 40
0.0
 40
1.0
 40
1.0
 40
1.0
 40
1.0
 10
-15.0611
 20
-4.3867
 30
0.0
 10
-15.0611
 20
-4.3867
 30
0.0
 10
-22.1719
 20
-4.3867
 30
0.0
 10
-22.1719
 20
-4.3867
 30
0.0
  0
ENDSEC
  0
SECTION
  2
OBJECTS
  0
DICTIONARY
  5
C
330
0
100
AcDbDictionary
  3
ACAD_GROUP
350
D
  3
ACAD_LAYOUT
350
1A
  3
ACAD_MATERIAL
350
3B
  3
ACAD_MLEADERSTYLE
350
178
  3
ACAD_MLINESTYLE
350
17
  3
ACAD_PLOTSETTINGS
350
19
  3
ACAD_VISUALSTYLE
350
2A
  3
ACDBHEADERROUNDTRIPXREC
350
156
  3
ACDBVARIABLEDICTIONARY
350
176
  0
DICTIONARY
  5
D
102
{ACAD_REACTORS
330
C
102
}
330
C
100
AcDbDictionary
  0
DICTIONARY
  5
1A
102
{ACAD_REACTORS
330
C
102
}
330
C
100
AcDbDictionary
  0
DICTIONARY
  5
3B
102
{ACAD_REACTORS
330
C
102
}
330
C
100
AcDbDictionary
  3
BYBLOCK
350
3D
  3
BYLAYER
350
3C
  3
GLOBAL
350
3E
  0
DICTIONARY
  5
178
102
{ACAD_REACTORS
330
C
102
}
330
C
100
AcDbDictionary
  0
DICTIONARY
  5
17
102
{ACAD_REACTORS
330
C
102
}
330
C
100
AcDbDictionary
  3
STANDARD
350
18
  0
DICTIONARY
  5
19
102
{ACAD_REACTORS
330
C
102
}
330
C
100
AcDbDictionary
  0
DICTIONARY
  5
2A
102
{ACAD_REACTORS
330
C
102
}
330
C
100
AcDbDictionary
  3
2DWIREFRAME
350
2F
  3
3D_HIDDEN
350
31
  3
3DWIREFRAME
350
30
  3
BASIC
350
32
  3
BRIGHTEN
350
36
  3
COLORCHANGE
350
3A
  3
CONCEPTUAL
350
34
  3
DIM
350
35
  3
FACEPATTERN
350
39
  3
FLAT
350
2B
  3
FLATWITHEDGES
350
2C
  3
GOURAUD
350
2D
  3
GOURAUDWITHEDGES
350
2E
  3
LINEPATTERN
350
38
  3
REALISTIC
350
33
  3
THICKEN
350
37
  0
DICTIONARY
  5
156
102
{ACAD_REACTORS
330
C
102
}
330
C
100
AcDbDictionary
  3
CEPSNTYPE
350
15F
  3
DIMSTYLEDATA
350
175
  3
FINGERPRINTGUID
350
160
  3
HYPERLINKBASE
350
159
  3
INSUNITS
350
15E
  3
LAYOUTDICT
350
15B
  3
LWETCUNION
350
15D
  3
PLOTSETDICT
350
15C
  3
PSVPSCALE
350
162
  3
PUCSBASE
350
165
  3
PUCSORGBACK
350
16B
  3
PUCSORGBOTTOM
350
167
  3
PUCSORGFRONT
350
16A
  3
PUCSORGLEFT
350
168
  3
PUCSORGRIGHT
350
169
  3
PUCSORGTOP
350
166
  3
PUCSORTHOREF
350
163
  3
PUCSORTHOVIEW
350
164
  3
STYLESHEET
350
15A
  3
TSTACKALIGN
350
157
  3
TSTACKSIZE
350
158
  3
UCSBASE
350
16E
  3
UCSORGBACK
350
174
  3
UCSORGBOTTOM
350
170
  3
UCSORGFRONT
350
173
  3
UCSORGLEFT
350
171
  3
UCSORGRIGHT
350
172
  3
UCSORGTOP
350
16F
  3
UCSORTHOREF
350
16C
  3
UCSORTHOVIEW
350
16D
  3
VERSIONGUID
350
161
  0
DICTIONARY
  5
176
102
{ACAD_REACTORS
330
C
102
}
330
C
100
AcDbDictionary
  3
DIMASSOC
350
179
  3
HIDETEXT
350
17A
  0
MATERIAL
  5
3D
102
{ACAD_REACTORS
330
3B
102
}
102
{ACAD_XDICTIONARY
360
17D
102
}
330
3B
100
AcDbMaterial
  1
ByBlock
  0
MATERIAL
  5
3C
102
{ACAD_REACTORS
330
3B
102
}
102
{ACAD_XDICTIONARY
360
17B
102
}
330
3B
100
AcDbMaterial
  1
ByLayer
  0
MATERIAL
  5
3E
102
{ACAD_REACTORS
330
3B
102
}
102
{ACAD_XDICTIONARY
360
17F
102
}
330
3B
100
AcDbMaterial
  1
Global
  0
MLINESTYLE
  5
18
102
{ACAD_REACTORS
330
17
102
}
330
17
100
AcDbMlineStyle
  2
Standard
 70
     0
  3

 62
   256
 51
90.0
 52
90.0
 71
     2
 49
0.5
 62
   256
  6
BYLAYER
 49
-0.5
 62
   256
  6
BYLAYER
  0
ACAD_PROXY_OBJECT
  5
2F
102
{ACAD_REACTORS
330
2A
102
}
330
2A
100
AcDbProxyObject
 90
      499
 91
      501
 93
      436
310
42CC9915DA5C99599C985B595049028333333333333E3BF0000000000000FB0107901411070040501600405405064090741402480A0340
1001
ACAD
1000
AcDbSavedByObjectVersion
1070
     0
  0
ACAD_PROXY_OBJECT
  5
31
102
{ACAD_REACTORS
330
2A
102
}
330
2A
100
AcDbProxyObject
 90
      499
 91
      501
 93
      500
310
424CD108121A5919195B90640502408333333333333E3BF0000000000000FB01079024090700405020000000000001110200405405064090740C02480A0340
1001
ACAD
1000
AcDbSavedByObjectVersion
1070
     0
  0
ACAD_PROXY_OBJECT
  5
30
102
{ACAD_REACTORS
330
2A
102
}
330
2A
100
AcDbProxyObject
 90
      499
 91
      501
 93
      436
310
42CCD915DA5C99599C985B595059028333333333333E3BF0000000000000FB0107901411070040501600405405064090741402480A0340
1001
ACAD
1000
AcDbSavedByObjectVersion
1070
     0
  0
ACAD_PROXY_OBJECT
  5
32
102
{ACAD_REACTORS
330
2A
102
}
330
2A
100
AcDbProxyObject
 90
      499
 91
      501
 93
      388
310
4150985CDA58D07406404333333333333E3BF0000000000000FB0107A41107004050150841D405064090741402480A0350
1001
ACAD
1000
AcDbSavedByObjectVersion
1070
     0
  0
ACAD_PROXY_OBJECT
  5
36
102
{ACAD_REACTORS
330
2A
102
}
330
2A
100
AcDbProxyObject
 90
      499
 91
      501
 93
      428
310
42109C9A59DA1D195B90C409028333333333333E3BF0000000000000FB010790141107004050150841D405064090741402480A029950
1001
ACAD
1000
AcDbSavedByObjectVersion
1070
     0
  0
ACAD_PROXY_OBJECT
  5
3A
102
{ACAD_REACTORS
330
2A
102
}
330
2A
100
AcDbProxyObject
 90
      499
 91
      501
 93
      452
310
42D0DBDB1BDC90DA185B99D95104090240C333333333333E3BF0000000000000FB0108901411070040501508421405064090741402480A0350
1001
ACAD
1000
AcDbSavedByObjectVersion
1070
     0
  0
ACAD_PROXY_OBJECT
  5
34
102
{ACAD_REACTORS
330
2A
102
}
330
2A
100
AcDbProxyObject
 90
      499
 91
      501
 93
      500
310
4290DBDB98D95C1D1D585B10940D028333333333333E3BF0000000000000FB0107902409070040501000000000000111010841D405064090740C02480A0340
1001
ACAD
1000
AcDbSavedByObjectVersion
1070
     0
  0
ACAD_PROXY_OBJECT
  5
35
102
{ACAD_REACTORS
330
2A
102
}
330
2A
100
AcDbProxyObject
 90
      499
 91
      501
 93
      412
310
40D11A5B50B409028333333333333E3BF0000000000000FB010790141107004050150841D405064090741402480A02677FFFFFD0
1001
ACAD
1000
AcDbSavedByObjectVersion
1070
     0
  0
ACAD_PROXY_OBJECT
  5
39
102
{ACAD_REACTORS
330
2A
102
}
330
2A
100
AcDbProxyObject
 90
      499
 91
      501
 93
      444
310
42D19858D95C185D1D195C9B90F409028333333333333E3BF0000000000000FB010790141107004050150841D405064090741402480A0350
1001
ACAD
1000
AcDbSavedByObjectVersion
1070
     0
  0
ACAD_PROXY_OBJECT
  5
2B
102
{ACAD_REACTORS
330
2A
102
}
330
2A
100
AcDbProxyObject
 90
      499
 91
      501
 93
      388
310
41119B185D240901404333333333333E3BF0000000000000F9010740A41107004050150841D405064090741402480A1B50
1001
ACAD
1000
AcDbSavedByObjectVersion
1070
     0
  0
ACAD_PROXY_OBJECT
  5
2C
102
{ACAD_REACTORS
330
2A
102
}
330
2A
100
AcDbProxyObject
 90
      499
 91
      501
 93
      476
310
43519B185D15DA5D1A115919D95CD0140901404333333333333E3BF0000000000000F9010740901411070040501600405405064090741402480A1B50
1001
ACAD
1000
AcDbSavedByObjectVersion
1070
     0
  0
ACAD_PROXY_OBJECT
  5
2D
102
{ACAD_REACTORS
330
2A
102
}
330
2A
100
AcDbProxyObject
 90
      499
 91
      501
 93
      412
310
41D1DBDD5C985D5910240902404333333333333E3BF0000000000000F9010740A411070040501641D405064090741402480A1B50
1001
ACAD
1000
AcDbSavedByObjectVersion
1070
     0
  0
ACAD_PROXY_OBJECT
  5
2E
102
{ACAD_REACTORS
330
2A
102
}
330
2A
100
AcDbProxyObject
 90
      499
 91
      501
 93
      500
310
4411DBDD5C985D5915DA5D1A115919D95CD0340902404333333333333E3BF0000000000000F9010740901411070040501600405405064090741402480A1B50
1001
ACAD
1000
AcDbSavedByObjectVersion
1070
     0
  0
ACAD_PROXY_OBJECT
  5
38
102
{ACAD_REACTORS
330
2A
102
}
330
2A
100
AcDbProxyObject
 90
      499
 91
      501
 93
      444
310
42D31A5B995C185D1D195C9B90E409028333333333333E3BF0000000000000FB010790141107004050750841D405064090741402483A0350
1001
ACAD
1000
AcDbSavedByObjectVersion
1070
     0
  0
ACAD_PROXY_OBJECT
  5
33
102
{ACAD_REACTORS
330
2A
102
}
330
2A
100
AcDbProxyObject
 90
      499
 91
      501
 93
      420
310
425499585B1A5CDD1A58D08409028333333333333E3BF0000000000000FB01079019070040501508421405064090741402480A1B40
1001
ACAD
1000
AcDbSavedByObjectVersion
1070
     0
  0
ACAD_PROXY_OBJECT
  5
37
102
{ACAD_REACTORS
330
2A
102
}
330
2A
100
AcDbProxyObject
 90
      499
 91
      501
 93
      412
310
41D51A1A58DAD95B90D409028333333333333E3BF0000000000000FB010790141107004050150C41D405064090741402480A0350
1001
ACAD
1000
AcDbSavedByObjectVersion
1070
     0
  0
XRECORD
  5
15F
102
{ACAD_REACTORS
330
156
102
}
330
156
100
AcDbXrecord
 90
        0
  0
XRECORD
  5
175
102
{ACAD_REACTORS
330
156
102
}
330
156
100
AcDbXrecord
1000
DSTYLE
1002
{
1070
   340
340
11
1002
}
  0
XRECORD
  5
160
102
{ACAD_REACTORS
330
156
102
}
330
156
100
AcDbXrecord
  1
{387DAEE9-8557-48C7-BF49-CE5F4D8AF948}
  0
XRECORD
  5
159
102
{ACAD_REACTORS
330
156
102
}
330
156
100
AcDbXrecord
  1

  0
XRECORD
  5
15E
102
{ACAD_REACTORS
330
156
102
}
330
156
100
AcDbXrecord
 90
        4
  0
XRECORD
  5
15B
102
{ACAD_REACTORS
330
156
102
}
330
156
100
AcDbXrecord
340
1A
  0
XRECORD
  5
15D
102
{ACAD_REACTORS
330
156
102
}
330
156
100
AcDbXrecord
 90
    10781
  0
XRECORD
  5
15C
102
{ACAD_REACTORS
330
156
102
}
330
156
100
AcDbXrecord
340
19
  0
XRECORD
  5
162
102
{ACAD_REACTORS
330
156
102
}
330
156
100
AcDbXrecord
 40
0.0
  0
XRECORD
  5
165
102
{ACAD_REACTORS
330
156
102
}
330
156
100
AcDbXrecord
340
0
  0
XRECORD
  5
16B
102
{ACAD_REACTORS
330
156
102
}
330
156
100
AcDbXrecord
 10
0.0
 20
0.0
 30
0.0
  0
XRECORD
  5
167
102
{ACAD_REACTORS
330
156
102
}
330
156
100
AcDbXrecord
 10
0.0
 20
0.0
 30
0.0
  0
XRECORD
  5
16A
102
{ACAD_REACTORS
330
156
102
}
330
156
100
AcDbXrecord
 10
0.0
 20
0.0
 30
0.0
  0
XRECORD
  5
168
102
{ACAD_REACTORS
330
156
102
}
330
156
100
AcDbXrecord
 10
0.0
 20
0.0
 30
0.0
  0
XRECORD
  5
169
102
{ACAD_REACTORS
330
156
102
}
330
156
100
AcDbXrecord
 10
0.0
 20
0.0
 30
0.0
  0
XRECORD
  5
166
102
{ACAD_REACTORS
330
156
102
}
330
156
100
AcDbXrecord
 10
0.0
 20
0.0
 30
0.0
  0
XRECORD
  5
163
102
{ACAD_REACTORS
330
156
102
}
330
156
100
AcDbXrecord
340
0
  0
XRECORD
  5
164
102
{ACAD_REACTORS
330
156
102
}
330
156
100
AcDbXrecord
 70
     0
  0
XRECORD
  5
15A
102
{ACAD_REACTORS
330
156
102
}
330
156
100
AcDbXrecord
  1

  0
XRECORD
  5
157
102
{ACAD_REACTORS
330
156
102
}
330
156
100
AcDbXrecord
 90
        1
  0
XRECORD
  5
158
102
{ACAD_REACTORS
330
156
102
}
330
156
100
AcDbXrecord
 90
       70
  0
XRECORD
  5
16E
102
{ACAD_REACTORS
330
156
102
}
330
156
100
AcDbXrecord
340
0
  0
XRECORD
  5
174
102
{ACAD_REACTORS
330
156
102
}
330
156
100
AcDbXrecord
 10
0.0
 20
0.0
 30
0.0
  0
XRECORD
  5
170
102
{ACAD_REACTORS
330
156
102
}
330
156
100
AcDbXrecord
 10
0.0
 20
0.0
 30
0.0
  0
XRECORD
  5
173
102
{ACAD_REACTORS
330
156
102
}
330
156
100
AcDbXrecord
 10
0.0
 20
0.0
 30
0.0
  0
XRECORD
  5
171
102
{ACAD_REACTORS
330
156
102
}
330
156
100
AcDbXrecord
 10
0.0
 20
0.0
 30
0.0
  0
XRECORD
  5
172
102
{ACAD_REACTORS
330
156
102
}
330
156
100
AcDbXrecord
 10
0.0
 20
0.0
 30
0.0
  0
XRECORD
  5
16F
102
{ACAD_REACTORS
330
156
102
}
330
156
100
AcDbXrecord
 10
0.0
 20
0.0
 30
0.0
  0
XRECORD
  5
16C
102
{ACAD_REACTORS
330
156
102
}
330
156
100
AcDbXrecord
340
0
  0
XRECORD
  5
16D
102
{ACAD_REACTORS
330
156
102
}
330
156
100
AcDbXrecord
 70
     0
  0
XRECORD
  5
161
102
{ACAD_REACTORS
330
156
102
}
330
156
100
AcDbXrecord
  1
{FAEB1C32-E019-11D5-929B-00C0DF256EC4}
  0
DICTIONARYVAR
  5
179
102
{ACAD_REACTORS
330
176
102
}
330
176
100
DictionaryVariables
280
     0
  1
2
  0
DICTIONARYVAR
  5
17A
102
{ACAD_REACTORS
330
176
102
}
330
176
100
DictionaryVariables
280
     0
  1
1
  0
DICTIONARY
  5
17D
330
3D
100
AcDbDictionary
280
     1
  3
ACAD_XREC_ROUNDTRIP
360
17E
  0
DICTIONARY
  5
17B
330
3C
100
AcDbDictionary
280
     1
  3
ACAD_XREC_ROUNDTRIP
360
17C
  0
DICTIONARY
  5
17F
330
3E
100
AcDbDictionary
280
     1
  3
ACAD_XREC_ROUNDTRIP
360
180
  0
XRECORD
  5
17E
102
{ACAD_REACTORS
330
17D
102
}
330
17D
100
AcDbXrecord
102
MATERIAL
148
0.0
149
0.0
149
0.0
 93
        0
 94
      127
282
     0
 72
     1
 77
     1
171
     1
175
     1
179
     1
273
     0
  0
XRECORD
  5
17C
102
{ACAD_REACTORS
330
17B
102
}
330
17B
100
AcDbXrecord
102
MATERIAL
148
0.0
149
0.0
149
0.0
 93
        0
 94
      127
282
     0
 72
     1
 77
     1
171
     1
175
     1
179
     1
273
     0
  0
XRECORD
  5
180
102
{ACAD_REACTORS
330
17F
102
}
330
17F
100
AcDbXrecord
102
MATERIAL
148
0.0
149
0.0
149
0.0
 93
        0
 94
      127
282
     0
 72
     1
 77
     1
171
     1
175
     1
179
     1
273
     0
  0
ENDSEC
  0
EOF
