  0
SECTION
  2
HEADER
  9
$ACADVER
  1
AC1014
  9
$ACADMAINTVER
 70
     9
  9
$DWGCODEPAGE
  3
ANSI_1250
  9
$INSBASE
 10
0.0
 20
0.0
 30
0.0
  9
$EXTMIN
 10
-34.7867
 20
-29.2602
 30
0.0
  9
$EXTMAX
 10
34.7866
 20
29.1897
 30
0.0
  9
$LIMMIN
 10
0.0
 20
0.0
  9
$LIMMAX
 10
12.0
 20
9.0
  9
$ORTHOMODE
 70
     0
  9
$REGENMODE
 70
     1
  9
$FILLMODE
 70
     1
  9
$QTEXTMODE
 70
     0
  9
$MIRRTEXT
 70
     1
  9
$DRAGMODE
 70
     2
  9
$LTSCALE
 40
1.0
  9
$OSMODE
 70
    37
  9
$ATTMODE
 70
     1
  9
$TEXTSIZE
 40
0.2
  9
$TRACEWID
 40
0.05
  9
$TEXTSTYLE
  7
STANDARD
  9
$CLAYER
  8
0
  9
$CELTYPE
  6
BYLAYER
  9
$CECOLOR
 62
   256
  9
$CELTSCALE
 40
1.0
  9
$DELOBJ
 70
     1
  9
$DISPSILH
 70
     0
  9
$DIMSCALE
 40
1.0
  9
$DIMASZ
 40
0.18
  9
$DIMEXO
 40
0.0625
  9
$DIMDLI
 40
0.38
  9
$DIMRND
 40
0.0
  9
$DIMDLE
 40
0.0
  9
$DIMEXE
 40
0.18
  9
$DIMTP
 40
0.0
  9
$DIMTM
 40
0.0
  9
$DIMTXT
 40
0.18
  9
$DIMCEN
 40
0.09
  9
$DIMTSZ
 40
0.0
  9
$DIMTOL
 70
     0
  9
$DIMLIM
 70
     0
  9
$DIMTIH
 70
     1
  9
$DIMTOH
 70
     1
  9
$DIMSE1
 70
     0
  9
$DIMSE2
 70
     0
  9
$DIMTAD
 70
     0
  9
$DIMZIN
 70
     0
  9
$DIMBLK
  1

  9
$DIMASO
 70
     1
  9
$DIMSHO
 70
     1
  9
$DIMPOST
  1

  9
$DIMAPOST
  1

  9
$DIMALT
 70
     0
  9
$DIMALTD
 70
     2
  9
$DIMALTF
 40
25.4
  9
$DIMLFAC
 40
1.0
  9
$DIMTOFL
 70
     0
  9
$DIMTVP
 40
0.0
  9
$DIMTIX
 70
     0
  9
$DIMSOXD
 70
     0
  9
$DIMSAH
 70
     0
  9
$DIMBLK1
  1

  9
$DIMBLK2
  1

  9
$DIMSTYLE
  2
STANDARD
  9
$DIMCLRD
 70
     0
  9
$DIMCLRE
 70
     0
  9
$DIMCLRT
 70
     0
  9
$DIMTFAC
 40
1.0
  9
$DIMGAP
 40
0.09
  9
$DIMJUST
 70
     0
  9
$DIMSD1
 70
     0
  9
$DIMSD2
 70
     0
  9
$DIMTOLJ
 70
     1
  9
$DIMTZIN
 70
     0
  9
$DIMALTZ
 70
     0
  9
$DIMALTTZ
 70
     0
  9
$DIMFIT
 70
     3
  9
$DIMUPT
 70
     0
  9
$DIMUNIT
 70
     2
  9
$DIMDEC
 70
     4
  9
$DIMTDEC
 70
     4
  9
$DIMALTU
 70
     2
  9
$DIMALTTD
 70
     2
  9
$DIMTXSTY
  7
STANDARD
  9
$DIMAUNIT
 70
     0
  9
$LUNITS
 70
     2
  9
$LUPREC
 70
     4
  9
$SKETCHINC
 40
0.1
  9
$FILLETRAD
 40
0.5
  9
$AUNITS
 70
     0
  9
$AUPREC
 70
     0
  9
$MENU
  1
.
  9
$ELEVATION
 40
0.0
  9
$PELEVATION
 40
0.0
  9
$THICKNESS
 40
0.0
  9
$LIMCHECK
 70
     0
  9
$CHAMFERA
 40
0.5
  9
$CHAMFERB
 40
0.5
  9
$CHAMFERC
 40
1.0
  9
$CHAMFERD
 40
0.0
  9
$SKPOLY
 70
     0
  9
$TDCREATE
 40
2456240.623475243
  9
$TDUPDATE
 40
2456240.623475255
  9
$TDINDWG
 40
0.0000000116
  9
$TDUSRTIMER
 40
0.0000000116
  9
$USRTIMER
 70
     1
  9
$ANGBASE
 50
0.0
  9
$ANGDIR
 70
     0
  9
$PDMODE
 70
     0
  9
$PDSIZE
 40
0.0
  9
$PLINEWID
 40
0.0
  9
$COORDS
 70
     1
  9
$SPLFRAME
 70
     0
  9
$SPLINETYPE
 70
     6
  9
$SPLINESEGS
 70
     8
  9
$ATTDIA
 70
     0
  9
$ATTREQ
 70
     1
  9
$HANDLING
 70
     1
  9
$HANDSEED
  5
12B
  9
$SURFTAB1
 70
     6
  9
$SURFTAB2
 70
     6
  9
$SURFTYPE
 70
     6
  9
$SURFU
 70
     6
  9
$SURFV
 70
     6
  9
$UCSNAME
  2

  9
$UCSORG
 10
0.0
 20
0.0
 30
0.0
  9
$UCSXDIR
 10
1.0
 20
0.0
 30
0.0
  9
$UCSYDIR
 10
0.0
 20
1.0
 30
0.0
  9
$PUCSNAME
  2

  9
$PUCSORG
 10
0.0
 20
0.0
 30
0.0
  9
$PUCSXDIR
 10
1.0
 20
0.0
 30
0.0
  9
$PUCSYDIR
 10
0.0
 20
1.0
 30
0.0
  9
$USERI1
 70
     0
  9
$USERI2
 70
     0
  9
$USERI3
 70
     0
  9
$USERI4
 70
     0
  9
$USERI5
 70
     0
  9
$USERR1
 40
0.0
  9
$USERR2
 40
0.0
  9
$USERR3
 40
0.0
  9
$USERR4
 40
0.0
  9
$USERR5
 40
0.0
  9
$WORLDVIEW
 70
     1
  9
$SHADEDGE
 70
     3
  9
$SHADEDIF
 70
    70
  9
$TILEMODE
 70
     1
  9
$MAXACTVP
 70
    64
  9
$PINSBASE
 10
0.0
 20
0.0
 30
0.0
  9
$PLIMCHECK
 70
     0
  9
$PEXTMIN
 10
1.000000000000000E+20
 20
1.000000000000000E+20
 30
1.000000000000000E+20
  9
$PEXTMAX
 10
-1.000000000000000E+20
 20
-1.000000000000000E+20
 30
-1.000000000000000E+20
  9
$PLIMMIN
 10
0.0
 20
0.0
  9
$PLIMMAX
 10
12.0
 20
9.0
  9
$UNITMODE
 70
     0
  9
$VISRETAIN
 70
     1
  9
$PLINEGEN
 70
     0
  9
$PSLTSCALE
 70
     1
  9
$TREEDEPTH
 70
  3020
  9
$PICKSTYLE
 70
     1
  9
$CMLSTYLE
  2
STANDARD
  9
$CMLJUST
 70
     0
  9
$CMLSCALE
 40
1.0
  9
$PROXYGRAPHICS
 70
     1
  9
$MEASUREMENT
 70
     0
  0
ENDSEC
  0
SECTION
  2
CLASSES
  0
CLASS
  1
ACDBDICTIONARYWDFLT
  2
AcDbDictionaryWithDefault
  3
ObjectDBX Classes
 90
        0
280
     0
281
     0
  0
CLASS
  1
VISUALSTYLE
  2
AcDbVisualStyle
  3
ObjectDBX Classes
 90
     4095
280
     0
281
     0
  0
CLASS
  1
MATERIAL
  2
AcDbMaterial
  3
ObjectDBX Classes
 90
     1153
280
     0
281
     0
  0
CLASS
  1
DICTIONARYVAR
  2
AcDbDictionaryVar
  3
ObjectDBX Classes
 90
        0
280
     0
281
     0
  0
CLASS
  1
XRECORD
  2
AcDbXrecord
  3
AutoCAD 2000
 90
        0
280
     0
281
     0
  0
CLASS
  1
LWPOLYLINE
  2
AcDbPolyline
  3
AutoCAD 2000
 90
        0
280
     0
281
     1
  0
CLASS
  1
HATCH
  2
AcDbHatch
  3
AutoCAD 2000
 90
        0
280
     0
281
     1
  0
CLASS
  1
ACDBPLACEHOLDER
  2
AcDbPlaceHolder
  3
ObjectDBX Classes
 90
        0
280
     0
281
     0
  0
CLASS
  1
LAYOUT
  2
AcDbLayout
  3
ObjectDBX Classes
 90
        0
280
     0
281
     0
  0
ENDSEC
  0
SECTION
  2
TABLES
  0
TABLE
  2
VPORT
  5
8
330
0
100
AcDbSymbolTable
 70
     1
  0
VPORT
  5
29
330
8
100
AcDbSymbolTableRecord
100
AcDbViewportTableRecord
  2
*ACTIVE
 70
     0
 10
0.0
 20
0.0
 11
1.0
 21
1.0
 12
10.42990654205607
 22
4.5
 13
0.0
 23
0.0
 14
0.5
 24
0.5
 15
0.5
 25
0.5
 16
0.0
 26
0.0
 36
1.0
 17
0.0
 27
0.0
 37
0.0
 40
9.0
 41
1.972972972850329
 42
50.0
 43
0.0
 44
0.0
 50
0.0
 51
0.0
 71
     0
 72
   100
 73
     1
 74
     3
 75
     0
 76
     0
 77
     0
 78
     0
  0
ENDTAB
  0
TABLE
  2
LTYPE
  5
5
330
0
100
AcDbSymbolTable
 70
     1
  0
LTYPE
  5
14
330
5
100
AcDbSymbolTableRecord
100
AcDbLinetypeTableRecord
  2
BYBLOCK
 70
     0
  3

 72
    65
 73
     0
 40
0.0
  0
LTYPE
  5
15
330
5
100
AcDbSymbolTableRecord
100
AcDbLinetypeTableRecord
  2
BYLAYER
 70
     0
  3

 72
    65
 73
     0
 40
0.0
  0
LTYPE
  5
16
330
5
100
AcDbSymbolTableRecord
100
AcDbLinetypeTableRecord
  2
CONTINUOUS
 70
     0
  3
Solid line
 72
    65
 73
     0
 40
0.0
  0
ENDTAB
  0
TABLE
  2
LAYER
  5
2
330
0
100
AcDbSymbolTable
 70
     2
  0
LAYER
  5
10
330
2
100
AcDbSymbolTableRecord
100
AcDbLayerTableRecord
  2
0
 70
     0
 62
     7
  6
CONTINUOUS
  0
LAYER
  5
40
330
2
100
AcDbSymbolTableRecord
100
AcDbLayerTableRecord
  2
VRSTVA_1
 70
     0
 62
     7
  6
CONTINUOUS
  0
ENDTAB
  0
TABLE
  2
STYLE
  5
3
330
0
100
AcDbSymbolTable
 70
     1
  0
STYLE
  5
11
330
3
100
AcDbSymbolTableRecord
100
AcDbTextStyleTableRecord
  2
STANDARD
 70
     0
 40
0.0
 41
1.0
 50
0.0
 71
     0
 42
0.2
  3
txt
  4

  0
ENDTAB
  0
TABLE
  2
VIEW
  5
6
330
0
100
AcDbSymbolTable
 70
     0
  0
ENDTAB
  0
TABLE
  2
UCS
  5
7
330
0
100
AcDbSymbolTable
 70
     0
  0
ENDTAB
  0
TABLE
  2
APPID
  5
9
330
0
100
AcDbSymbolTable
 70
     2
  0
APPID
  5
12
330
9
100
AcDbSymbolTableRecord
100
AcDbRegAppTableRecord
  2
ACAD
 70
     0
  0
APPID
  5
3F
330
9
100
AcDbSymbolTableRecord
100
AcDbRegAppTableRecord
  2
ODA
 70
     0
  0
ENDTAB
  0
TABLE
  2
DIMSTYLE
  5
A
330
0
100
AcDbSymbolTable
 70
     1
  0
DIMSTYLE
105
27
330
A
100
AcDbSymbolTableRecord
100
AcDbDimStyleTableRecord
  2
STANDARD
 70
     0
  3

  4

  5

  6

  7

 40
1.0
 41
0.18
 42
0.0625
 43
0.38
 44
0.18
 45
0.0
 46
0.0
 47
0.0
 48
0.0
140
0.18
141
0.09
142
0.0
143
25.4
144
1.0
145
0.0
146
1.0
147
0.09
 71
     0
 72
     0
 73
     1
 74
     1
 75
     0
 76
     0
 77
     0
 78
     0
170
     0
171
     2
172
     0
173
     0
174
     0
175
     0
176
     0
177
     0
178
     0
270
     2
271
     4
272
     4
273
     2
274
     2
340
11
275
     0
280
     0
281
     0
282
     0
283
     1
284
     0
285
     0
286
     0
287
     3
288
     0
  0
ENDTAB
  0
TABLE
  2
BLOCK_RECORD
  5
1
330
0
100
AcDbSymbolTable
 70
     1
  0
BLOCK_RECORD
  5
1F
330
1
100
AcDbSymbolTableRecord
100
AcDbBlockTableRecord
  2
*MODEL_SPACE
  0
BLOCK_RECORD
  5
1B
330
1
100
AcDbSymbolTableRecord
100
AcDbBlockTableRecord
  2
*PAPER_SPACE
  0
ENDTAB
  0
ENDSEC
  0
SECTION
  2
BLOCKS
  0
BLOCK
  5
20
330
1F
100
AcDbEntity
  8
0
100
AcDbBlockBegin
  2
*MODEL_SPACE
 70
     0
 10
0.0
 20
0.0
 30
0.0
  3
*MODEL_SPACE
  1

  0
ENDBLK
  5
21
330
1F
100
AcDbEntity
  8
0
100
AcDbBlockEnd
  0
BLOCK
  5
1C
330
1B
100
AcDbEntity
 67
     1
  8
0
100
AcDbBlockBegin
  2
*PAPER_SPACE
 70
     0
 10
0.0
 20
0.0
 30
0.0
  3
*PAPER_SPACE
  1

  0
ENDBLK
  5
1D
330
1B
100
AcDbEntity
 67
     1
  8
0
100
AcDbBlockEnd
  0
ENDSEC
  0
SECTION
  2
ENTITIES
  0
SPLINE
  5
41
330
1F
100
AcDbEntity
  8
VRSTVA_1
 62
     7
100
AcDbSpline
210
0.0
220
0.0
230
1.0
 70
     8
 71
     3
 72
     8
 73
     4
 74
     0
 42
0.0000000001
 43
0.0000000001
 40
0.0
 40
0.0
 40
0.0
 40
0.0
 40
1.0
 40
1.0
 40
1.0
 40
1.0
 10
-17.2765
 20
11.0584
 30
0.0
 10
-17.7636
 20
11.0584
 30
0.0
 10
-18.3011
 20
10.9577
 30
0.0
 10
-18.7546
 20
10.8065
 30
0.0
  0
SPLINE
  5
42
330
1F
100
AcDbEntity
  8
VRSTVA_1
100
AcDbSpline
210
0.0
220
0.0
230
1.0
 70
     8
 71
     3
 72
     8
 73
     4
 74
     0
 42
0.0000000001
 43
0.0000000001
 40
0.0
 40
0.0
 40
0.0
 40
0.0
 40
1.0
 40
1.0
 40
1.0
 40
1.0
 10
-17.2765
 20
11.0584
 30
0.0
 10
-17.7636
 20
11.0584
 30
0.0
 10
-18.3011
 20
10.9577
 30
0.0
 10
-18.7546
 20
10.8065
 30
0.0
  0
SPLINE
  5
43
330
1F
100
AcDbEntity
  8
VRSTVA_1
 62
     7
100
AcDbSpline
210
0.0
220
0.0
230
1.0
 70
     8
 71
     3
 72
    12
 73
     8
 74
     0
 42
0.0000000001
 43
0.0000000001
 40
0.0
 40
0.0
 40
0.0
 40
0.0
 40
0.3333333333333333
 40
0.3333333333333333
 40
0.3333333333333333
 40
0.3333333333333333
 40
1.0
 40
1.0
 40
1.0
 40
1.0
 10
14.5091
 20
10.8065
 30
0.0
 10
14.0556
 20
10.9577
 30
0.0
 10
13.5181
 20
11.0584
 30
0.0
 10
13.031
 20
11.0584
 30
0.0
 10
13.031
 20
11.0584
 30
0.0
 10
13.031
 20
11.0584
 30
0.0
 10
13.031
 20
11.0584
 30
0.0
 10
13.031
 20
11.0584
 30
0.0
  0
SPLINE
  5
44
330
1F
100
AcDbEntity
  8
VRSTVA_1
100
AcDbSpline
210
0.0
220
0.0
230
1.0
 70
     8
 71
     3
 72
    12
 73
     8
 74
     0
 42
0.0000000001
 43
0.0000000001
 40
0.0
 40
0.0
 40
0.0
 40
0.0
 40
0.3333333333333333
 40
0.3333333333333333
 40
0.3333333333333333
 40
0.3333333333333333
 40
1.0
 40
1.0
 40
1.0
 40
1.0
 10
14.5091
 20
10.8065
 30
0.0
 10
14.0556
 20
10.9577
 30
0.0
 10
13.5181
 20
11.0584
 30
0.0
 10
13.031
 20
11.0584
 30
0.0
 10
13.031
 20
11.0584
 30
0.0
 10
13.031
 20
11.0584
 30
0.0
 10
13.031
 20
11.0584
 30
0.0
 10
13.031
 20
11.0584
 30
0.0
  0
SPLINE
  5
45
330
1F
100
AcDbEntity
  8
VRSTVA_1
100
AcDbSpline
210
0.0
220
0.0
230
1.0
 70
    24
 71
     3
 72
     8
 73
     4
 74
     0
 42
0.0000000001
 43
0.0000000001
 40
0.0
 40
0.0
 40
0.0
 40
0.0
 40
1.0
 40
1.0
 40
1.0
 40
1.0
 10
-18.7472
 20
10.7991
 30
0.0
 10
-18.7472
 20
10.7991
 30
0.0
 10
-20.3975
 20
10.1985
 30
0.0
 10
-20.3975
 20
10.1985
 30
0.0
  0
SPLINE
  5
46
330
1F
100
AcDbEntity
  8
VRSTVA_1
100
AcDbSpline
210
0.0
220
0.0
230
1.0
 70
    24
 71
     3
 72
     8
 73
     4
 74
     0
 42
0.0000000001
 43
0.0000000001
 40
0.0
 40
0.0
 40
0.0
 40
0.0
 40
1.0
 40
1.0
 40
1.0
 40
1.0
 10
-19.9676
 20
9.5535
 30
0.0
 10
-19.9676
 20
9.5535
 30
0.0
 10
-19.9676
 20
9.1235
 30
0.0
 10
-19.9676
 20
9.1235
 30
0.0
  0
SPLINE
  5
47
330
1F
100
AcDbEntity
  8
VRSTVA_1
100
AcDbSpline
210
0.0
220
0.0
230
1.0
 70
    24
 71
     3
 72
     8
 73
     4
 74
     0
 42
0.0000000001
 43
0.0000000001
 40
0.0
 40
0.0
 40
0.0
 40
0.0
 40
1.0
 40
1.0
 40
1.0
 40
1.0
 10
-17.2765
 20
11.0585
 30
0.0
 10
-17.2765
 20
11.0585
 30
0.0
 10
13.031
 20
11.0585
 30
0.0
 10
13.031
 20
11.0585
 30
0.0
  0
SPLINE
  5
48
330
1F
100
AcDbEntity
  8
VRSTVA_1
100
AcDbSpline
210
0.0
220
0.0
230
1.0
 70
    24
 71
     3
 72
     8
 73
     4
 74
     0
 42
0.0000000001
 43
0.0000000001
 40
0.0
 40
0.0
 40
0.0
 40
0.0
 40
1.0
 40
1.0
 40
1.0
 40
1.0
 10
-18.7472
 20
10.7991
 30
0.0
 10
-18.7472
 20
10.7991
 30
0.0
 10
14.5017
 20
10.7991
 30
0.0
 10
14.5017
 20
10.7991
 30
0.0
  0
SPLINE
  5
49
330
1F
100
AcDbEntity
  8
VRSTVA_1
100
AcDbSpline
210
0.0
220
0.0
230
1.0
 70
    24
 71
     3
 72
     8
 73
     4
 74
     0
 42
0.0000000001
 43
0.0000000001
 40
0.0
 40
0.0
 40
0.0
 40
0.0
 40
1.0
 40
1.0
 40
1.0
 40
1.0
 10
-20.3975
 20
10.1985
 30
0.0
 10
-20.3975
 20
10.1985
 30
0.0
 10
16.152
 20
10.1985
 30
0.0
 10
16.152
 20
10.1985
 30
0.0
  0
SPLINE
  5
4A
330
1F
100
AcDbEntity
  8
VRSTVA_1
100
AcDbSpline
210
0.0
220
0.0
230
1.0
 70
    24
 71
     3
 72
     8
 73
     4
 74
     0
 42
0.0000000001
 43
0.0000000001
 40
0.0
 40
0.0
 40
0.0
 40
0.0
 40
1.0
 40
1.0
 40
1.0
 40
1.0
 10
-20.324
 20
9.9964
 30
0.0
 10
-20.324
 20
9.9964
 30
0.0
 10
16.0785
 20
9.9964
 30
0.0
 10
16.0785
 20
9.9964
 30
0.0
  0
SPLINE
  5
4B
330
1F
100
AcDbEntity
  8
VRSTVA_1
100
AcDbSpline
210
0.0
220
0.0
230
1.0
 70
    24
 71
     3
 72
     8
 73
     4
 74
     0
 42
0.0000000001
 43
0.0000000001
 40
0.0
 40
0.0
 40
0.0
 40
0.0
 40
1.0
 40
1.0
 40
1.0
 40
1.0
 10
-19.9676
 20
9.5535
 30
0.0
 10
-19.9676
 20
9.5535
 30
0.0
 10
15.722
 20
9.5535
 30
0.0
 10
15.722
 20
9.5535
 30
0.0
  0
SPLINE
  5
4C
330
1F
100
AcDbEntity
  8
VRSTVA_1
100
AcDbSpline
210
0.0
220
0.0
230
1.0
 70
    24
 71
     3
 72
     8
 73
     4
 74
     0
 42
0.0000000001
 43
0.0000000001
 40
0.0
 40
0.0
 40
0.0
 40
0.0
 40
1.0
 40
1.0
 40
1.0
 40
1.0
 10
-19.9676
 20
9.1235
 30
0.0
 10
-19.9676
 20
9.1235
 30
0.0
 10
15.722
 20
9.1235
 30
0.0
 10
15.722
 20
9.1235
 30
0.0
  0
SPLINE
  5
4D
330
1F
100
AcDbEntity
  8
VRSTVA_1
100
AcDbSpline
210
0.0
220
0.0
230
1.0
 70
    24
 71
     3
 72
     8
 73
     4
 74
     0
 42
0.0000000001
 43
0.0000000001
 40
0.0
 40
0.0
 40
0.0
 40
0.0
 40
1.0
 40
1.0
 40
1.0
 40
1.0
 10
-16.0976
 20
8.2635
 30
0.0
 10
-16.0976
 20
8.2635
 30
0.0
 10
11.852
 20
8.2635
 30
0.0
 10
11.852
 20
8.2635
 30
0.0
  0
SPLINE
  5
4E
330
1F
100
AcDbEntity
  8
VRSTVA_1
100
AcDbSpline
210
0.0
220
0.0
230
1.0
 70
    24
 71
     3
 72
     8
 73
     4
 74
     0
 42
0.0000000001
 43
0.0000000001
 40
0.0
 40
0.0
 40
0.0
 40
0.0
 40
1.0
 40
1.0
 40
1.0
 40
1.0
 10
15.722
 20
9.1235
 30
0.0
 10
15.722
 20
9.1235
 30
0.0
 10
11.852
 20
8.2635
 30
0.0
 10
11.852
 20
8.2635
 30
0.0
  0
SPLINE
  5
4F
330
1F
100
AcDbEntity
  8
VRSTVA_1
100
AcDbSpline
210
0.0
220
0.0
230
1.0
 70
    24
 71
     3
 72
     8
 73
     4
 74
     0
 42
0.0000000001
 43
0.0000000001
 40
0.0
 40
0.0
 40
0.0
 40
0.0
 40
1.0
 40
1.0
 40
1.0
 40
1.0
 10
-20.3975
 20
10.1985
 30
0.0
 10
-20.3975
 20
10.1985
 30
0.0
 10
-20.324
 20
9.9964
 30
0.0
 10
-20.324
 20
9.9964
 30
0.0
  0
SPLINE
  5
50
330
1F
100
AcDbEntity
  8
VRSTVA_1
100
AcDbSpline
210
0.0
220
0.0
230
1.0
 70
    24
 71
     3
 72
     8
 73
     4
 74
     0
 42
0.0000000001
 43
0.0000000001
 40
0.0
 40
0.0
 40
0.0
 40
0.0
 40
1.0
 40
1.0
 40
1.0
 40
1.0
 10
-12.2276
 20
8.2635
 30
0.0
 10
-12.2276
 20
8.2635
 30
0.0
 10
-12.2276
 20
3.1036
 30
0.0
 10
-12.2276
 20
3.1036
 30
0.0
  0
SPLINE
  5
51
330
1F
100
AcDbEntity
  8
VRSTVA_1
100
AcDbSpline
210
0.0
220
0.0
230
1.0
 70
    24
 71
     3
 72
     8
 73
     4
 74
     0
 42
0.0000000001
 43
0.0000000001
 40
0.0
 40
0.0
 40
0.0
 40
0.0
 40
1.0
 40
1.0
 40
1.0
 40
1.0
 10
9.3444
 20
9.9964
 30
0.0
 10
9.3444
 20
9.9964
 30
0.0
 10
8.5772
 20
9.5535
 30
0.0
 10
8.5772
 20
9.5535
 30
0.0
  0
SPLINE
  5
52
330
1F
100
AcDbEntity
  8
VRSTVA_1
100
AcDbSpline
210
0.0
220
0.0
230
1.0
 70
    24
 71
     3
 72
     8
 73
     4
 74
     0
 42
0.0000000001
 43
0.0000000001
 40
0.0
 40
0.0
 40
0.0
 40
0.0
 40
1.0
 40
1.0
 40
1.0
 40
1.0
 10
-19.9676
 20
9.1235
 30
0.0
 10
-19.9676
 20
9.1235
 30
0.0
 10
-16.0976
 20
8.2635
 30
0.0
 10
-16.0976
 20
8.2635
 30
0.0
  0
SPLINE
  5
53
330
1F
100
AcDbEntity
  8
VRSTVA_1
100
AcDbSpline
210
0.0
220
0.0
230
1.0
 70
    24
 71
     3
 72
     8
 73
     4
 74
     0
 42
0.0000000001
 43
0.0000000001
 40
0.0
 40
0.0
 40
0.0
 40
0.0
 40
1.0
 40
1.0
 40
1.0
 40
1.0
 10
7.9821
 20
8.2635
 30
0.0
 10
7.9821
 20
8.2635
 30
0.0
 10
7.9821
 20
3.1036
 30
0.0
 10
7.9821
 20
3.1036
 30
0.0
  0
SPLINE
  5
54
330
1F
100
AcDbEntity
  8
VRSTVA_1
100
AcDbSpline
210
0.0
220
0.0
230
1.0
 70
    24
 71
     3
 72
     8
 73
     4
 74
     0
 42
0.0000000001
 43
0.0000000001
 40
0.0
 40
0.0
 40
0.0
 40
0.0
 40
1.0
 40
1.0
 40
1.0
 40
1.0
 10
16.152
 20
10.1985
 30
0.0
 10
16.152
 20
10.1985
 30
0.0
 10
16.0785
 20
9.9964
 30
0.0
 10
16.0785
 20
9.9964
 30
0.0
  0
SPLINE
  5
55
330
1F
100
AcDbEntity
  8
VRSTVA_1
100
AcDbSpline
210
0.0
220
0.0
230
1.0
 70
    24
 71
     3
 72
     8
 73
     4
 74
     0
 42
0.0000000001
 43
0.0000000001
 40
0.0
 40
0.0
 40
0.0
 40
0.0
 40
1.0
 40
1.0
 40
1.0
 40
1.0
 10
-13.59
 20
9.9964
 30
0.0
 10
-13.59
 20
9.9964
 30
0.0
 10
-12.8227
 20
9.5535
 30
0.0
 10
-12.8227
 20
9.5535
 30
0.0
  0
SPLINE
  5
56
330
1F
100
AcDbEntity
  8
VRSTVA_1
100
AcDbSpline
210
0.0
220
0.0
230
1.0
 70
    24
 71
     3
 72
     8
 73
     4
 74
     0
 42
0.0000000001
 43
0.0000000001
 40
0.0
 40
0.0
 40
0.0
 40
0.0
 40
1.0
 40
1.0
 40
1.0
 40
1.0
 10
15.722
 20
9.5535
 30
0.0
 10
15.722
 20
9.5535
 30
0.0
 10
15.722
 20
9.1235
 30
0.0
 10
15.722
 20
9.1235
 30
0.0
  0
SPLINE
  5
57
330
1F
100
AcDbEntity
  8
VRSTVA_1
100
AcDbSpline
210
0.0
220
0.0
230
1.0
 70
    24
 71
     3
 72
     8
 73
     4
 74
     0
 42
0.0000000001
 43
0.0000000001
 40
0.0
 40
0.0
 40
0.0
 40
0.0
 40
1.0
 40
1.0
 40
1.0
 40
1.0
 10
14.5017
 20
10.7991
 30
0.0
 10
14.5017
 20
10.7991
 30
0.0
 10
16.152
 20
10.1985
 30
0.0
 10
16.152
 20
10.1985
 30
0.0
  0
SPLINE
  5
58
330
1F
100
AcDbEntity
  8
VRSTVA_1
100
AcDbSpline
210
0.0
220
0.0
230
1.0
 70
    24
 71
     3
 72
     8
 73
     4
 74
     0
 42
0.0000000001
 43
0.0000000001
 40
0.0
 40
0.0
 40
0.0
 40
0.0
 40
1.0
 40
1.0
 40
1.0
 40
1.0
 10
-1.7162
 20
3.1036
 30
0.0
 10
-1.7162
 20
3.1036
 30
0.0
 10
8.0215
 20
3.7092
 30
0.0
 10
8.0215
 20
3.7092
 30
0.0
  0
SPLINE
  5
59
330
1F
100
AcDbEntity
  8
VRSTVA_1
100
AcDbSpline
210
0.0
220
0.0
230
1.0
 70
    24
 71
     3
 72
     8
 73
     4
 74
     0
 42
0.0000000001
 43
0.0000000001
 40
0.0
 40
0.0
 40
0.0
 40
0.0
 40
1.0
 40
1.0
 40
1.0
 40
1.0
 10
-12.2698
 20
7.606
 30
0.0
 10
-12.2698
 20
7.606
 30
0.0
 10
-1.6974
 20
8.2635
 30
0.0
 10
-1.6974
 20
8.2635
 30
0.0
  0
SPLINE
  5
5A
330
1F
100
AcDbEntity
  8
VRSTVA_1
100
AcDbSpline
210
0.0
220
0.0
230
1.0
 70
    24
 71
     3
 72
     8
 73
     4
 74
     0
 42
0.0000000001
 43
0.0000000001
 40
0.0
 40
0.0
 40
0.0
 40
0.0
 40
1.0
 40
1.0
 40
1.0
 40
1.0
 10
-12.2745
 20
6.9623
 30
0.0
 10
-12.2745
 20
6.9623
 30
0.0
 10
7.8756
 20
8.2154
 30
0.0
 10
7.8756
 20
8.2154
 30
0.0
  0
SPLINE
  5
5B
330
1F
100
AcDbEntity
  8
VRSTVA_1
100
AcDbSpline
210
0.0
220
0.0
230
1.0
 70
    24
 71
     3
 72
     8
 73
     4
 74
     0
 42
0.0000000001
 43
0.0000000001
 40
0.0
 40
0.0
 40
0.0
 40
0.0
 40
1.0
 40
1.0
 40
1.0
 40
1.0
 10
-12.2345
 20
6.3185
 30
0.0
 10
-12.2345
 20
6.3185
 30
0.0
 10
7.9157
 20
7.5717
 30
0.0
 10
7.9157
 20
7.5717
 30
0.0
  0
SPLINE
  5
5C
330
1F
100
AcDbEntity
  8
VRSTVA_1
100
AcDbSpline
210
0.0
220
0.0
230
1.0
 70
    24
 71
     3
 72
     8
 73
     4
 74
     0
 42
0.0000000001
 43
0.0000000001
 40
0.0
 40
0.0
 40
0.0
 40
0.0
 40
1.0
 40
1.0
 40
1.0
 40
1.0
 10
-12.1945
 20
5.6748
 30
0.0
 10
-12.1945
 20
5.6748
 30
0.0
 10
7.9556
 20
6.9279
 30
0.0
 10
7.9556
 20
6.9279
 30
0.0
  0
SPLINE
  5
5D
330
1F
100
AcDbEntity
  8
VRSTVA_1
100
AcDbSpline
210
0.0
220
0.0
230
1.0
 70
    24
 71
     3
 72
     8
 73
     4
 74
     0
 42
0.0000000001
 43
0.0000000001
 40
0.0
 40
0.0
 40
0.0
 40
0.0
 40
1.0
 40
1.0
 40
1.0
 40
1.0
 10
-12.1992
 20
5.031
 30
0.0
 10
-12.1992
 20
5.031
 30
0.0
 10
7.9509
 20
6.2842
 30
0.0
 10
7.9509
 20
6.2842
 30
0.0
  0
SPLINE
  5
5E
330
1F
100
AcDbEntity
  8
VRSTVA_1
100
AcDbSpline
210
0.0
220
0.0
230
1.0
 70
    24
 71
     3
 72
     8
 73
     4
 74
     0
 42
0.0000000001
 43
0.0000000001
 40
0.0
 40
0.0
 40
0.0
 40
0.0
 40
1.0
 40
1.0
 40
1.0
 40
1.0
 10
-12.1592
 20
4.3873
 30
0.0
 10
-12.1592
 20
4.3873
 30
0.0
 10
7.991
 20
5.6404
 30
0.0
 10
7.991
 20
5.6404
 30
0.0
  0
SPLINE
  5
5F
330
1F
100
AcDbEntity
  8
VRSTVA_1
100
AcDbSpline
210
0.0
220
0.0
230
1.0
 70
    24
 71
     3
 72
     8
 73
     4
 74
     0
 42
0.0000000001
 43
0.0000000001
 40
0.0
 40
0.0
 40
0.0
 40
0.0
 40
1.0
 40
1.0
 40
1.0
 40
1.0
 10
-12.2087
 20
3.7436
 30
0.0
 10
-12.2087
 20
3.7436
 30
0.0
 10
7.9414
 20
4.9967
 30
0.0
 10
7.9414
 20
4.9967
 30
0.0
  0
SPLINE
  5
60
330
1F
100
AcDbEntity
  8
VRSTVA_1
100
AcDbSpline
210
0.0
220
0.0
230
1.0
 70
    24
 71
     3
 72
     8
 73
     4
 74
     0
 42
0.0000000001
 43
0.0000000001
 40
0.0
 40
0.0
 40
0.0
 40
0.0
 40
1.0
 40
1.0
 40
1.0
 40
1.0
 10
-12.1687
 20
3.0998
 30
0.0
 10
-12.1687
 20
3.0998
 30
0.0
 10
7.9815
 20
4.3529
 30
0.0
 10
7.9815
 20
4.3529
 30
0.0
  0
SPLINE
  5
61
330
1F
100
AcDbEntity
  8
VRSTVA_1
100
AcDbSpline
210
0.0
220
0.0
230
1.0
 70
     8
 71
     3
 72
    28
 73
    24
 74
     0
 42
0.0000000001
 43
0.0000000001
 40
0.0
 40
0.0
 40
0.0
 40
0.0
 40
0.1428571428571428
 40
0.1428571428571428
 40
0.1428571428571428
 40
0.1428571428571428
 40
0.2857142857142857
 40
0.2857142857142857
 40
0.2857142857142857
 40
0.2857142857142857
 40
0.4285714285714285
 40
0.4285714285714285
 40
0.4285714285714285
 40
0.4285714285714285
 40
0.5714285714285714
 40
0.5714285714285714
 40
0.5714285714285714
 40
0.5714285714285714
 40
0.7142857142857143
 40
0.7142857142857143
 40
0.7142857142857143
 40
0.7142857142857143
 40
1.0
 40
1.0
 40
1.0
 40
1.0
 10
27.6904
 20
-8.2664
 30
0.0
 10
27.6904
 20
-8.2664
 30
0.0
 10
27.6612
 20
-8.4252
 30
0.0
 10
27.6612
 20
-8.4252
 30
0.0
 10
27.6612
 20
-8.4252
 30
0.0
 10
27.6612
 20
-8.4252
 30
0.0
 10
27.5753
 20
-8.576
 30
0.0
 10
27.5753
 20
-8.576
 30
0.0
 10
27.5753
 20
-8.576
 30
0.0
 10
27.5753
 20
-8.576
 30
0.0
 10
27.4385
 20
-8.7076
 30
0.0
 10
27.4385
 20
-8.7076
 30
0.0
 10
27.4385
 20
-8.7076
 30
0.0
 10
27.4385
 20
-8.7076
 30
0.0
 10
27.2601
 20
-8.8099
 30
0.0
 10
27.2601
 20
-8.8099
 30
0.0
 10
27.2601
 20
-8.8099
 30
0.0
 10
27.2601
 20
-8.8099
 30
0.0
 10
27.0526
 20
-8.8747
 30
0.0
 10
27.0526
 20
-8.8747
 30
0.0
 10
27.0526
 20
-8.8747
 30
0.0
 10
27.0526
 20
-8.8747
 30
0.0
 10
26.8301
 20
-8.8969
 30
0.0
 10
26.8301
 20
-8.8969
 30
0.0
  0
SPLINE
  5
62
330
1F
100
AcDbEntity
  8
VRSTVA_1
100
AcDbSpline
210
0.0
220
0.0
230
1.0
 70
     8
 71
     3
 72
    28
 73
    24
 74
     0
 42
0.0000000001
 43
0.0000000001
 40
0.0
 40
0.0
 40
0.0
 40
0.0
 40
0.1428571428571428
 40
0.1428571428571428
 40
0.1428571428571428
 40
0.1428571428571428
 40
0.2857142857142857
 40
0.2857142857142857
 40
0.2857142857142857
 40
0.2857142857142857
 40
0.4285714285714285
 40
0.4285714285714285
 40
0.4285714285714285
 40
0.4285714285714285
 40
0.5714285714285714
 40
0.5714285714285714
 40
0.5714285714285714
 40
0.5714285714285714
 40
0.7142857142857143
 40
0.7142857142857143
 40
0.7142857142857143
 40
0.7142857142857143
 40
1.0
 40
1.0
 40
1.0
 40
1.0
 10
27.6904
 20
-8.4185
 30
0.0
 10
27.6904
 20
-8.4185
 30
0.0
 10
27.6615
 20
-8.5764
 30
0.0
 10
27.6615
 20
-8.5764
 30
0.0
 10
27.6615
 20
-8.5764
 30
0.0
 10
27.6615
 20
-8.5764
 30
0.0
 10
27.5743
 20
-8.7294
 30
0.0
 10
27.5743
 20
-8.7294
 30
0.0
 10
27.5743
 20
-8.7294
 30
0.0
 10
27.5743
 20
-8.7294
 30
0.0
 10
27.4381
 20
-8.8601
 30
0.0
 10
27.4381
 20
-8.8601
 30
0.0
 10
27.4381
 20
-8.8601
 30
0.0
 10
27.4381
 20
-8.8601
 30
0.0
 10
27.2614
 20
-8.9617
 30
0.0
 10
27.2614
 20
-8.9617
 30
0.0
 10
27.2614
 20
-8.9617
 30
0.0
 10
27.2614
 20
-8.9617
 30
0.0
 10
27.0512
 20
-9.0274
 30
0.0
 10
27.0512
 20
-9.0274
 30
0.0
 10
27.0512
 20
-9.0274
 30
0.0
 10
27.0512
 20
-9.0274
 30
0.0
 10
26.8301
 20
-9.0493
 30
0.0
 10
26.8301
 20
-9.0493
 30
0.0
  0
SPLINE
  5
63
330
1F
100
AcDbEntity
  8
VRSTVA_1
100
AcDbSpline
210
0.0
220
0.0
230
1.0
 70
     8
 71
     3
 72
    28
 73
    24
 74
     0
 42
0.0000000001
 43
0.0000000001
 40
0.0
 40
0.0
 40
0.0
 40
0.0
 40
0.1428571428571428
 40
0.1428571428571428
 40
0.1428571428571428
 40
0.1428571428571428
 40
0.2857142857142857
 40
0.2857142857142857
 40
0.2857142857142857
 40
0.2857142857142857
 40
0.4285714285714285
 40
0.4285714285714285
 40
0.4285714285714285
 40
0.4285714285714285
 40
0.5714285714285714
 40
0.5714285714285714
 40
0.5714285714285714
 40
0.5714285714285714
 40
0.7142857142857143
 40
0.7142857142857143
 40
0.7142857142857143
 40
0.7142857142857143
 40
1.0
 40
1.0
 40
1.0
 40
1.0
 10
27.6904
 20
-24.9954
 30
0.0
 10
27.6904
 20
-24.9954
 30
0.0
 10
27.6612
 20
-24.8367
 30
0.0
 10
27.6612
 20
-24.8367
 30
0.0
 10
27.6612
 20
-24.8367
 30
0.0
 10
27.6612
 20
-24.8367
 30
0.0
 10
27.5753
 20
-24.6859
 30
0.0
 10
27.5753
 20
-24.6859
 30
0.0
 10
27.5753
 20
-24.6859
 30
0.0
 10
27.5753
 20
-24.6859
 30
0.0
 10
27.4385
 20
-24.5542
 30
0.0
 10
27.4385
 20
-24.5542
 30
0.0
 10
27.4385
 20
-24.5542
 30
0.0
 10
27.4385
 20
-24.5542
 30
0.0
 10
27.2601
 20
-24.4519
 30
0.0
 10
27.2601
 20
-24.4519
 30
0.0
 10
27.2601
 20
-24.4519
 30
0.0
 10
27.2601
 20
-24.4519
 30
0.0
 10
27.0526
 20
-24.3871
 30
0.0
 10
27.0526
 20
-24.3871
 30
0.0
 10
27.0526
 20
-24.3871
 30
0.0
 10
27.0526
 20
-24.3871
 30
0.0
 10
26.8301
 20
-24.3649
 30
0.0
 10
26.8301
 20
-24.3649
 30
0.0
  0
SPLINE
  5
64
330
1F
100
AcDbEntity
  8
VRSTVA_1
100
AcDbSpline
210
0.0
220
0.0
230
1.0
 70
     8
 71
     3
 72
    48
 73
    44
 74
     0
 42
0.0000000001
 43
0.0000000001
 40
0.0
 40
0.0
 40
0.0
 40
0.0
 40
0.0833333333333333
 40
0.0833333333333333
 40
0.0833333333333333
 40
0.0833333333333333
 40
0.1666666666666667
 40
0.1666666666666667
 40
0.1666666666666667
 40
0.1666666666666667
 40
0.25
 40
0.25
 40
0.25
 40
0.25
 40
0.3333333333333333
 40
0.3333333333333333
 40
0.3333333333333333
 40
0.3333333333333333
 40
0.4166666666666667
 40
0.4166666666666667
 40
0.4166666666666667
 40
0.4166666666666667
 40
0.5
 40
0.5
 40
0.5
 40
0.5
 40
0.5833333333333334
 40
0.5833333333333334
 40
0.5833333333333334
 40
0.5833333333333334
 40
0.6666666666666666
 40
0.6666666666666666
 40
0.6666666666666666
 40
0.6666666666666666
 40
0.75
 40
0.75
 40
0.75
 40
0.75
 40
0.8333333333333334
 40
0.8333333333333334
 40
0.8333333333333334
 40
0.8333333333333334
 40
1.0
 40
1.0
 40
1.0
 40
1.0
 10
17.7082
 20
-26.0942
 30
0.0
 10
17.7082
 20
-26.0942
 30
0.0
 10
17.7224
 20
-26.0838
 30
0.0
 10
17.7224
 20
-26.0838
 30
0.0
 10
17.7224
 20
-26.0838
 30
0.0
 10
17.7224
 20
-26.0838
 30
0.0
 10
17.7658
 20
-26.049
 30
0.0
 10
17.7658
 20
-26.049
 30
0.0
 10
17.7658
 20
-26.049
 30
0.0
 10
17.7658
 20
-26.049
 30
0.0
 10
17.8349
 20
-25.9829
 30
0.0
 10
17.8349
 20
-25.9829
 30
0.0
 10
17.8349
 20
-25.9829
 30
0.0
 10
17.8349
 20
-25.9829
 30
0.0
 10
17.9194
 20
-25.8771
 30
0.0
 10
17.9194
 20
-25.8771
 30
0.0
 10
17.9194
 20
-25.8771
 30
0.0
 10
17.9194
 20
-25.8771
 30
0.0
 10
18.0007
 20
-25.729
 30
0.0
 10
18.0007
 20
-25.729
 30
0.0
 10
18.0007
 20
-25.729
 30
0.0
 10
18.0007
 20
-25.729
 30
0.0
 10
18.0605
 20
-25.5464
 30
0.0
 10
18.0605
 20
-25.5464
 30
0.0
 10
18.0605
 20
-25.5464
 30
0.0
 10
18.0605
 20
-25.5464
 30
0.0
 10
18.0893
 20
-25.3426
 30
0.0
 10
18.0893
 20
-25.3426
 30
0.0
 10
18.0893
 20
-25.3426
 30
0.0
 10
18.0893
 20
-25.3426
 30
0.0
 10
18.0864
 20
-25.1304
 30
0.0
 10
18.0864
 20
-25.1304
 30
0.0
 10
18.0864
 20
-25.1304
 30
0.0
 10
18.0864
 20
-25.1304
 30
0.0
 10
18.0551
 20
-24.9184
 30
0.0
 10
18.0551
 20
-24.9184
 30
0.0
 10
18.0551
 20
-24.9184
 30
0.0
 10
18.0551
 20
-24.9184
 30
0.0
 10
18.0
 20
-24.7112
 30
0.0
 10
18.0
 20
-24.7112
 30
0.0
 10
18.0
 20
-24.7112
 30
0.0
 10
18.0
 20
-24.7112
 30
0.0
 10
17.9246
 20
-24.5098
 30
0.0
 10
17.9246
 20
-24.5098
 30
0.0
  0
SPLINE
  5
65
330
1F
100
AcDbEntity
  8
VRSTVA_1
100
AcDbSpline
210
0.0
220
0.0
230
1.0
 70
     8
 71
     3
 72
    12
 73
     8
 74
     0
 42
0.0000000001
 43
0.0000000001
 40
0.0
 40
0.0
 40
0.0
 40
0.0
 40
0.3333333333333333
 40
0.3333333333333333
 40
0.3333333333333333
 40
0.3333333333333333
 40
1.0
 40
1.0
 40
1.0
 40
1.0
 10
17.5153
 20
-26.1399
 30
0.0
 10
17.5153
 20
-26.1399
 30
0.0
 10
17.5246
 20
-26.1315
 30
0.0
 10
17.5246
 20
-26.1315
 30
0.0
 10
17.5246
 20
-26.1315
 30
0.0
 10
17.5246
 20
-26.1315
 30
0.0
 10
17.5531
 20
-26.1035
 30
0.0
 10
17.5531
 20
-26.1035
 30
0.0
  0
SPLINE
  5
66
330
1F
100
AcDbEntity
  8
VRSTVA_1
100
AcDbSpline
210
0.0
220
0.0
230
1.0
 70
     8
 71
     3
 72
    40
 73
    36
 74
     0
 42
0.0000000001
 43
0.0000000001
 40
0.0
 40
0.0
 40
0.0
 40
0.0
 40
0.1
 40
0.1
 40
0.1
 40
0.1
 40
0.2
 40
0.2
 40
0.2
 40
0.2
 40
0.3
 40
0.3
 40
0.3
 40
0.3
 40
0.4
 40
0.4
 40
0.4
 40
0.4
 40
0.5
 40
0.5
 40
0.5
 40
0.5
 40
0.6
 40
0.6
 40
0.6
 40
0.6
 40
0.7
 40
0.7
 40
0.7
 40
0.7
 40
0.8
 40
0.8
 40
0.8
 40
0.8
 40
1.0
 40
1.0
 40
1.0
 40
1.0
 10
17.5531
 20
-26.1035
 30
0.0
 10
17.5531
 20
-26.1035
 30
0.0
 10
17.5971
 20
-26.0503
 30
0.0
 10
17.5971
 20
-26.0503
 30
0.0
 10
17.5971
 20
-26.0503
 30
0.0
 10
17.5971
 20
-26.0503
 30
0.0
 10
17.6482
 20
-25.9651
 30
0.0
 10
17.6482
 20
-25.9651
 30
0.0
 10
17.6482
 20
-25.9651
 30
0.0
 10
17.6482
 20
-25.9651
 30
0.0
 10
17.6926
 20
-25.8462
 30
0.0
 10
17.6926
 20
-25.8462
 30
0.0
 10
17.6926
 20
-25.8462
 30
0.0
 10
17.6926
 20
-25.8462
 30
0.0
 10
17.7177
 20
-25.6995
 30
0.0
 10
17.7177
 20
-25.6995
 30
0.0
 10
17.7177
 20
-25.6995
 30
0.0
 10
17.7177
 20
-25.6995
 30
0.0
 10
17.7179
 20
-25.5359
 30
0.0
 10
17.7179
 20
-25.5359
 30
0.0
 10
17.7179
 20
-25.5359
 30
0.0
 10
17.7179
 20
-25.5359
 30
0.0
 10
17.6937
 20
-25.3657
 30
0.0
 10
17.6937
 20
-25.3657
 30
0.0
 10
17.6937
 20
-25.3657
 30
0.0
 10
17.6937
 20
-25.3657
 30
0.0
 10
17.6486
 20
-25.1957
 30
0.0
 10
17.6486
 20
-25.1957
 30
0.0
 10
17.6486
 20
-25.1957
 30
0.0
 10
17.6486
 20
-25.1957
 30
0.0
 10
17.5864
 20
-25.0294
 30
0.0
 10
17.5864
 20
-25.0294
 30
0.0
 10
17.5864
 20
-25.0294
 30
0.0
 10
17.5864
 20
-25.0294
 30
0.0
 10
17.5095
 20
-24.868
 30
0.0
 10
17.5095
 20
-24.868
 30
0.0
  0
SPLINE
  5
67
330
1F
100
AcDbEntity
  8
VRSTVA_1
100
AcDbSpline
210
0.0
220
0.0
230
1.0
 70
     8
 71
     3
 72
    20
 73
    16
 74
     0
 42
0.0000000001
 43
0.0000000001
 40
0.0
 40
0.0
 40
0.0
 40
0.0
 40
0.2
 40
0.2
 40
0.2
 40
0.2
 40
0.4
 40
0.4
 40
0.4
 40
0.4
 40
0.6
 40
0.6
 40
0.6
 40
0.6
 40
1.0
 40
1.0
 40
1.0
 40
1.0
 10
17.5095
 20
-24.868
 30
0.0
 10
17.5095
 20
-24.868
 30
0.0
 10
17.5569
 20
-24.7417
 30
0.0
 10
17.5569
 20
-24.7417
 30
0.0
 10
17.5569
 20
-24.7417
 30
0.0
 10
17.5569
 20
-24.7417
 30
0.0
 10
17.6504
 20
-24.6313
 30
0.0
 10
17.6504
 20
-24.6313
 30
0.0
 10
17.6504
 20
-24.6313
 30
0.0
 10
17.6504
 20
-24.6313
 30
0.0
 10
17.7783
 20
-24.5507
 30
0.0
 10
17.7783
 20
-24.5507
 30
0.0
 10
17.7783
 20
-24.5507
 30
0.0
 10
17.7783
 20
-24.5507
 30
0.0
 10
17.9246
 20
-24.5098
 30
0.0
 10
17.9246
 20
-24.5098
 30
0.0
  0
SPLINE
  5
68
330
1F
100
AcDbEntity
  8
VRSTVA_1
100
AcDbSpline
210
0.0
220
0.0
230
1.0
 70
     8
 71
     3
 72
    28
 73
    24
 74
     0
 42
0.0000000001
 43
0.0000000001
 40
0.0
 40
0.0
 40
0.0
 40
0.0
 40
0.1428571428571428
 40
0.1428571428571428
 40
0.1428571428571428
 40
0.1428571428571428
 40
0.2857142857142857
 40
0.2857142857142857
 40
0.2857142857142857
 40
0.2857142857142857
 40
0.4285714285714285
 40
0.4285714285714285
 40
0.4285714285714285
 40
0.4285714285714285
 40
0.5714285714285714
 40
0.5714285714285714
 40
0.5714285714285714
 40
0.5714285714285714
 40
0.7142857142857143
 40
0.7142857142857143
 40
0.7142857142857143
 40
0.7142857142857143
 40
1.0
 40
1.0
 40
1.0
 40
1.0
 10
26.8301
 20
-28.2131
 30
0.0
 10
26.8301
 20
-28.2131
 30
0.0
 10
27.0516
 20
-28.2152
 30
0.0
 10
27.0516
 20
-28.2152
 30
0.0
 10
27.0516
 20
-28.2152
 30
0.0
 10
27.0516
 20
-28.2152
 30
0.0
 10
27.2614
 20
-28.2211
 30
0.0
 10
27.2614
 20
-28.2211
 30
0.0
 10
27.2614
 20
-28.2211
 30
0.0
 10
27.2614
 20
-28.2211
 30
0.0
 10
27.438
 20
-28.2291
 30
0.0
 10
27.438
 20
-28.2291
 30
0.0
 10
27.438
 20
-28.2291
 30
0.0
 10
27.438
 20
-28.2291
 30
0.0
 10
27.5744
 20
-28.237
 30
0.0
 10
27.5744
 20
-28.237
 30
0.0
 10
27.5744
 20
-28.237
 30
0.0
 10
27.5744
 20
-28.237
 30
0.0
 10
27.6615
 20
-28.2429
 30
0.0
 10
27.6615
 20
-28.2429
 30
0.0
 10
27.6615
 20
-28.2429
 30
0.0
 10
27.6615
 20
-28.2429
 30
0.0
 10
27.6904
 20
-28.245
 30
0.0
 10
27.6904
 20
-28.245
 30
0.0
  0
SPLINE
  5
69
330
1F
100
AcDbEntity
  8
VRSTVA_1
100
AcDbSpline
210
0.0
220
0.0
230
1.0
 70
     8
 71
     3
 72
    28
 73
    24
 74
     0
 42
0.0000000001
 43
0.0000000001
 40
0.0
 40
0.0
 40
0.0
 40
0.0
 40
0.1428571428571428
 40
0.1428571428571428
 40
0.1428571428571428
 40
0.1428571428571428
 40
0.2857142857142857
 40
0.2857142857142857
 40
0.2857142857142857
 40
0.2857142857142857
 40
0.4285714285714285
 40
0.4285714285714285
 40
0.4285714285714285
 40
0.4285714285714285
 40
0.5714285714285714
 40
0.5714285714285714
 40
0.5714285714285714
 40
0.5714285714285714
 40
0.7142857142857143
 40
0.7142857142857143
 40
0.7142857142857143
 40
0.7142857142857143
 40
1.0
 40
1.0
 40
1.0
 40
1.0
 10
26.8301
 20
-28.4288
 30
0.0
 10
26.8301
 20
-28.4288
 30
0.0
 10
27.0526
 20
-28.4309
 30
0.0
 10
27.0526
 20
-28.4309
 30
0.0
 10
27.0526
 20
-28.4309
 30
0.0
 10
27.0526
 20
-28.4309
 30
0.0
 10
27.2601
 20
-28.4366
 30
0.0
 10
27.2601
 20
-28.4366
 30
0.0
 10
27.2601
 20
-28.4366
 30
0.0
 10
27.2601
 20
-28.4366
 30
0.0
 10
27.4384
 20
-28.4444
 30
0.0
 10
27.4384
 20
-28.4444
 30
0.0
 10
27.4384
 20
-28.4444
 30
0.0
 10
27.4384
 20
-28.4444
 30
0.0
 10
27.5753
 20
-28.4523
 30
0.0
 10
27.5753
 20
-28.4523
 30
0.0
 10
27.5753
 20
-28.4523
 30
0.0
 10
27.5753
 20
-28.4523
 30
0.0
 10
27.6612
 20
-28.458
 30
0.0
 10
27.6612
 20
-28.458
 30
0.0
 10
27.6612
 20
-28.458
 30
0.0
 10
27.6612
 20
-28.458
 30
0.0
 10
27.6904
 20
-28.4601
 30
0.0
 10
27.6904
 20
-28.4601
 30
0.0
  0
SPLINE
  5
6A
330
1F
100
AcDbEntity
  8
VRSTVA_1
100
AcDbSpline
210
0.0
220
0.0
230
1.0
 70
     8
 71
     3
 72
    28
 73
    24
 74
     0
 42
0.0000000001
 43
0.0000000001
 40
0.0
 40
0.0
 40
0.0
 40
0.0
 40
0.1428571428571428
 40
0.1428571428571428
 40
0.1428571428571428
 40
0.1428571428571428
 40
0.2857142857142857
 40
0.2857142857142857
 40
0.2857142857142857
 40
0.2857142857142857
 40
0.4285714285714285
 40
0.4285714285714285
 40
0.4285714285714285
 40
0.4285714285714285
 40
0.5714285714285714
 40
0.5714285714285714
 40
0.5714285714285714
 40
0.5714285714285714
 40
0.7142857142857143
 40
0.7142857142857143
 40
0.7142857142857143
 40
0.7142857142857143
 40
1.0
 40
1.0
 40
1.0
 40
1.0
 10
26.8301
 20
-25.5816
 30
0.0
 10
26.8301
 20
-25.5816
 30
0.0
 10
27.0526
 20
-25.5624
 30
0.0
 10
27.0526
 20
-25.5624
 30
0.0
 10
27.0526
 20
-25.5624
 30
0.0
 10
27.0526
 20
-25.5624
 30
0.0
 10
27.2601
 20
-25.5057
 30
0.0
 10
27.2601
 20
-25.5057
 30
0.0
 10
27.2601
 20
-25.5057
 30
0.0
 10
27.2601
 20
-25.5057
 30
0.0
 10
27.4385
 20
-25.4145
 30
0.0
 10
27.4385
 20
-25.4145
 30
0.0
 10
27.4385
 20
-25.4145
 30
0.0
 10
27.4385
 20
-25.4145
 30
0.0
 10
27.5753
 20
-25.2939
 30
0.0
 10
27.5753
 20
-25.2939
 30
0.0
 10
27.5753
 20
-25.2939
 30
0.0
 10
27.5753
 20
-25.2939
 30
0.0
 10
27.6612
 20
-25.1512
 30
0.0
 10
27.6612
 20
-25.1512
 30
0.0
 10
27.6612
 20
-25.1512
 30
0.0
 10
27.6612
 20
-25.1512
 30
0.0
 10
27.6904
 20
-24.9954
 30
0.0
 10
27.6904
 20
-24.9954
 30
0.0
  0
SPLINE
  5
6B
330
1F
100
AcDbEntity
  8
VRSTVA_1
100
AcDbSpline
210
0.0
220
0.0
230
1.0
 70
     8
 71
     3
 72
    12
 73
     8
 74
     0
 42
0.0000000001
 43
0.0000000001
 40
0.0
 40
0.0
 40
0.0
 40
0.0
 40
0.3333333333333333
 40
0.3333333333333333
 40
0.3333333333333333
 40
0.3333333333333333
 40
1.0
 40
1.0
 40
1.0
 40
1.0
 10
17.7082
 20
-26.0942
 30
0.0
 10
17.7082
 20
-26.0942
 30
0.0
 10
17.5913
 20
-26.1104
 30
0.0
 10
17.5913
 20
-26.1104
 30
0.0
 10
17.5913
 20
-26.1104
 30
0.0
 10
17.5913
 20
-26.1104
 30
0.0
 10
17.5153
 20
-26.1399
 30
0.0
 10
17.5153
 20
-26.1399
 30
0.0
  0
SPLINE
  5
6C
330
1F
100
AcDbEntity
  8
VRSTVA_1
100
AcDbSpline
210
0.0
220
0.0
230
1.0
 70
     8
 71
     3
 72
    28
 73
    24
 74
     0
 42
0.0000000001
 43
0.0000000001
 40
0.0
 40
0.0
 40
0.0
 40
0.0
 40
0.1428571428571428
 40
0.1428571428571428
 40
0.1428571428571428
 40
0.1428571428571428
 40
0.2857142857142857
 40
0.2857142857142857
 40
0.2857142857142857
 40
0.2857142857142857
 40
0.4285714285714285
 40
0.4285714285714285
 40
0.4285714285714285
 40
0.4285714285714285
 40
0.5714285714285714
 40
0.5714285714285714
 40
0.5714285714285714
 40
0.5714285714285714
 40
0.7142857142857143
 40
0.7142857142857143
 40
0.7142857142857143
 40
0.7142857142857143
 40
1.0
 40
1.0
 40
1.0
 40
1.0
 10
18.227
 20
-6.7374
 30
0.0
 10
18.227
 20
-6.7374
 30
0.0
 10
18.2285
 20
-6.772
 30
0.0
 10
18.2285
 20
-6.772
 30
0.0
 10
18.2285
 20
-6.772
 30
0.0
 10
18.2285
 20
-6.772
 30
0.0
 10
18.2658
 20
-6.9157
 30
0.0
 10
18.2658
 20
-6.9157
 30
0.0
 10
18.2658
 20
-6.9157
 30
0.0
 10
18.2658
 20
-6.9157
 30
0.0
 10
18.3497
 20
-7.0382
 30
0.0
 10
18.3497
 20
-7.0382
 30
0.0
 10
18.3497
 20
-7.0382
 30
0.0
 10
18.3497
 20
-7.0382
 30
0.0
 10
18.4703
 20
-7.1248
 30
0.0
 10
18.4703
 20
-7.1248
 30
0.0
 10
18.4703
 20
-7.1248
 30
0.0
 10
18.4703
 20
-7.1248
 30
0.0
 10
18.6131
 20
-7.1653
 30
0.0
 10
18.6131
 20
-7.1653
 30
0.0
 10
18.6131
 20
-7.1653
 30
0.0
 10
18.6131
 20
-7.1653
 30
0.0
 10
18.6572
 20
-7.1675
 30
0.0
 10
18.6572
 20
-7.1675
 30
0.0
  0
SPLINE
  5
6D
330
1F
100
AcDbEntity
  8
VRSTVA_1
100
AcDbSpline
210
0.0
220
0.0
230
1.0
 70
     8
 71
     3
 72
    28
 73
    24
 74
     0
 42
0.0000000001
 43
0.0000000001
 40
0.0
 40
0.0
 40
0.0
 40
0.0
 40
0.1428571428571428
 40
0.1428571428571428
 40
0.1428571428571428
 40
0.1428571428571428
 40
0.2857142857142857
 40
0.2857142857142857
 40
0.2857142857142857
 40
0.2857142857142857
 40
0.4285714285714285
 40
0.4285714285714285
 40
0.4285714285714285
 40
0.4285714285714285
 40
0.5714285714285714
 40
0.5714285714285714
 40
0.5714285714285714
 40
0.5714285714285714
 40
0.7142857142857143
 40
0.7142857142857143
 40
0.7142857142857143
 40
0.7142857142857143
 40
1.0
 40
1.0
 40
1.0
 40
1.0
 10
26.8301
 20
-24.2124
 30
0.0
 10
26.8301
 20
-24.2124
 30
0.0
 10
27.0516
 20
-24.2344
 30
0.0
 10
27.0516
 20
-24.2344
 30
0.0
 10
27.0516
 20
-24.2344
 30
0.0
 10
27.0516
 20
-24.2344
 30
0.0
 10
27.2614
 20
-24.3
 30
0.0
 10
27.2614
 20
-24.3
 30
0.0
 10
27.2614
 20
-24.3
 30
0.0
 10
27.2614
 20
-24.3
 30
0.0
 10
27.438
 20
-24.4016
 30
0.0
 10
27.438
 20
-24.4016
 30
0.0
 10
27.438
 20
-24.4016
 30
0.0
 10
27.438
 20
-24.4016
 30
0.0
 10
27.5744
 20
-24.5325
 30
0.0
 10
27.5744
 20
-24.5325
 30
0.0
 10
27.5744
 20
-24.5325
 30
0.0
 10
27.5744
 20
-24.5325
 30
0.0
 10
27.6615
 20
-24.6853
 30
0.0
 10
27.6615
 20
-24.6853
 30
0.0
 10
27.6615
 20
-24.6853
 30
0.0
 10
27.6615
 20
-24.6853
 30
0.0
 10
27.6904
 20
-24.8432
 30
0.0
 10
27.6904
 20
-24.8432
 30
0.0
  0
SPLINE
  5
6E
330
1F
100
AcDbEntity
  8
VRSTVA_1
100
AcDbSpline
210
0.0
220
0.0
230
1.0
 70
     8
 71
     3
 72
    68
 73
    64
 74
     0
 42
0.0000000001
 43
0.0000000001
 40
0.0
 40
0.0
 40
0.0
 40
0.0
 40
0.0588235294117647
 40
0.0588235294117647
 40
0.0588235294117647
 40
0.0588235294117647
 40
0.1176470588235294
 40
0.1176470588235294
 40
0.1176470588235294
 40
0.1176470588235294
 40
0.1764705882352941
 40
0.1764705882352941
 40
0.1764705882352941
 40
0.1764705882352941
 40
0.2352941176470588
 40
0.2352941176470588
 40
0.2352941176470588
 40
0.2352941176470588
 40
0.2941176470588235
 40
0.2941176470588235
 40
0.2941176470588235
 40
0.2941176470588235
 40
0.3529411764705883
 40
0.3529411764705883
 40
0.3529411764705883
 40
0.3529411764705883
 40
0.4117647058823529
 40
0.4117647058823529
 40
0.4117647058823529
 40
0.4117647058823529
 40
0.4705882352941176
 40
0.4705882352941176
 40
0.4705882352941176
 40
0.4705882352941176
 40
0.5294117647058824
 40
0.5294117647058824
 40
0.5294117647058824
 40
0.5294117647058824
 40
0.5882352941176471
 40
0.5882352941176471
 40
0.5882352941176471
 40
0.5882352941176471
 40
0.6470588235294118
 40
0.6470588235294118
 40
0.6470588235294118
 40
0.6470588235294118
 40
0.7058823529411765
 40
0.7058823529411765
 40
0.7058823529411765
 40
0.7058823529411765
 40
0.7647058823529411
 40
0.7647058823529411
 40
0.7647058823529411
 40
0.7647058823529411
 40
0.8235294117647058
 40
0.8235294117647058
 40
0.8235294117647058
 40
0.8235294117647058
 40
0.8823529411764706
 40
0.8823529411764706
 40
0.8823529411764706
 40
0.8823529411764706
 40
1.0
 40
1.0
 40
1.0
 40
1.0
 10
17.5095
 20
-24.868
 30
0.0
 10
17.5095
 20
-24.868
 30
0.0
 10
17.123
 20
-23.8501
 30
0.0
 10
17.123
 20
-23.8501
 30
0.0
 10
17.123
 20
-23.8501
 30
0.0
 10
17.123
 20
-23.8501
 30
0.0
 10
16.7174
 20
-22.6261
 30
0.0
 10
16.7174
 20
-22.6261
 30
0.0
 10
16.7174
 20
-22.6261
 30
0.0
 10
16.7174
 20
-22.6261
 30
0.0
 10
16.3453
 20
-21.2574
 30
0.0
 10
16.3453
 20
-21.2574
 30
0.0
 10
16.3453
 20
-21.2574
 30
0.0
 10
16.3453
 20
-21.2574
 30
0.0
 10
16.0503
 20
-19.8062
 30
0.0
 10
16.0503
 20
-19.8062
 30
0.0
 10
16.0503
 20
-19.8062
 30
0.0
 10
16.0503
 20
-19.8062
 30
0.0
 10
15.8589
 20
-18.3153
 30
0.0
 10
15.8589
 20
-18.3153
 30
0.0
 10
15.8589
 20
-18.3153
 30
0.0
 10
15.8589
 20
-18.3153
 30
0.0
 10
15.7843
 20
-16.8141
 30
0.0
 10
15.7843
 20
-16.8141
 30
0.0
 10
15.7843
 20
-16.8141
 30
0.0
 10
15.7843
 20
-16.8141
 30
0.0
 10
15.8297
 20
-15.3127
 30
0.0
 10
15.8297
 20
-15.3127
 30
0.0
 10
15.8297
 20
-15.3127
 30
0.0
 10
15.8297
 20
-15.3127
 30
0.0
 10
15.9931
 20
-13.818
 30
0.0
 10
15.9931
 20
-13.818
 30
0.0
 10
15.9931
 20
-13.818
 30
0.0
 10
15.9931
 20
-13.818
 30
0.0
 10
16.2647
 20
-12.3538
 30
0.0
 10
16.2647
 20
-12.3538
 30
0.0
 10
16.2647
 20
-12.3538
 30
0.0
 10
16.2647
 20
-12.3538
 30
0.0
 10
16.6213
 20
-10.96
 30
0.0
 10
16.6213
 20
-10.96
 30
0.0
 10
16.6213
 20
-10.96
 30
0.0
 10
16.6213
 20
-10.96
 30
0.0
 10
17.0236
 20
-9.6941
 30
0.0
 10
17.0236
 20
-9.6941
 30
0.0
 10
17.0236
 20
-9.6941
 30
0.0
 10
17.0236
 20
-9.6941
 30
0.0
 10
17.4196
 20
-8.6209
 30
0.0
 10
17.4196
 20
-8.6209
 30
0.0
 10
17.4196
 20
-8.6209
 30
0.0
 10
17.4196
 20
-8.6209
 30
0.0
 10
17.7601
 20
-7.7869
 30
0.0
 10
17.7601
 20
-7.7869
 30
0.0
 10
17.7601
 20
-7.7869
 30
0.0
 10
17.7601
 20
-7.7869
 30
0.0
 10
18.0164
 20
-7.1993
 30
0.0
 10
18.0164
 20
-7.1993
 30
0.0
 10
18.0164
 20
-7.1993
 30
0.0
 10
18.0164
 20
-7.1993
 30
0.0
 10
18.1742
 20
-6.8516
 30
0.0
 10
18.1742
 20
-6.8516
 30
0.0
 10
18.1742
 20
-6.8516
 30
0.0
 10
18.1742
 20
-6.8516
 30
0.0
 10
18.227
 20
-6.7374
 30
0.0
 10
18.227
 20
-6.7374
 30
0.0
  0
SPLINE
  5
6F
330
1F
100
AcDbEntity
  8
VRSTVA_1
100
AcDbSpline
210
0.0
220
0.0
230
1.0
 70
     8
 71
     3
 72
    68
 73
    64
 74
     0
 42
0.0000000001
 43
0.0000000001
 40
0.0
 40
0.0
 40
0.0
 40
0.0
 40
0.0588235294117647
 40
0.0588235294117647
 40
0.0588235294117647
 40
0.0588235294117647
 40
0.1176470588235294
 40
0.1176470588235294
 40
0.1176470588235294
 40
0.1176470588235294
 40
0.1764705882352941
 40
0.1764705882352941
 40
0.1764705882352941
 40
0.1764705882352941
 40
0.2352941176470588
 40
0.2352941176470588
 40
0.2352941176470588
 40
0.2352941176470588
 40
0.2941176470588235
 40
0.2941176470588235
 40
0.2941176470588235
 40
0.2941176470588235
 40
0.3529411764705883
 40
0.3529411764705883
 40
0.3529411764705883
 40
0.3529411764705883
 40
0.4117647058823529
 40
0.4117647058823529
 40
0.4117647058823529
 40
0.4117647058823529
 40
0.4705882352941176
 40
0.4705882352941176
 40
0.4705882352941176
 40
0.4705882352941176
 40
0.5294117647058824
 40
0.5294117647058824
 40
0.5294117647058824
 40
0.5294117647058824
 40
0.5882352941176471
 40
0.5882352941176471
 40
0.5882352941176471
 40
0.5882352941176471
 40
0.6470588235294118
 40
0.6470588235294118
 40
0.6470588235294118
 40
0.6470588235294118
 40
0.7058823529411765
 40
0.7058823529411765
 40
0.7058823529411765
 40
0.7058823529411765
 40
0.7647058823529411
 40
0.7647058823529411
 40
0.7647058823529411
 40
0.7647058823529411
 40
0.8235294117647058
 40
0.8235294117647058
 40
0.8235294117647058
 40
0.8235294117647058
 40
0.8823529411764706
 40
0.8823529411764706
 40
0.8823529411764706
 40
0.8823529411764706
 40
1.0
 40
1.0
 40
1.0
 40
1.0
 10
17.9246
 20
-24.5098
 30
0.0
 10
17.9246
 20
-24.5098
 30
0.0
 10
17.5294
 20
-23.5348
 30
0.0
 10
17.5294
 20
-23.5348
 30
0.0
 10
17.5294
 20
-23.5348
 30
0.0
 10
17.5294
 20
-23.5348
 30
0.0
 10
17.1153
 20
-22.3639
 30
0.0
 10
17.1153
 20
-22.3639
 30
0.0
 10
17.1153
 20
-22.3639
 30
0.0
 10
17.1153
 20
-22.3639
 30
0.0
 10
16.7355
 20
-21.0548
 30
0.0
 10
16.7355
 20
-21.0548
 30
0.0
 10
16.7355
 20
-21.0548
 30
0.0
 10
16.7355
 20
-21.0548
 30
0.0
 10
16.4343
 20
-19.6668
 30
0.0
 10
16.4343
 20
-19.6668
 30
0.0
 10
16.4343
 20
-19.6668
 30
0.0
 10
16.4343
 20
-19.6668
 30
0.0
 10
16.2391
 20
-18.2408
 30
0.0
 10
16.2391
 20
-18.2408
 30
0.0
 10
16.2391
 20
-18.2408
 30
0.0
 10
16.2391
 20
-18.2408
 30
0.0
 10
16.163
 20
-16.8052
 30
0.0
 10
16.163
 20
-16.8052
 30
0.0
 10
16.163
 20
-16.8052
 30
0.0
 10
16.163
 20
-16.8052
 30
0.0
 10
16.2094
 20
-15.3691
 30
0.0
 10
16.2094
 20
-15.3691
 30
0.0
 10
16.2094
 20
-15.3691
 30
0.0
 10
16.2094
 20
-15.3691
 30
0.0
 10
16.3763
 20
-13.9397
 30
0.0
 10
16.3763
 20
-13.9397
 30
0.0
 10
16.3763
 20
-13.9397
 30
0.0
 10
16.3763
 20
-13.9397
 30
0.0
 10
16.6536
 20
-12.5393
 30
0.0
 10
16.6536
 20
-12.5393
 30
0.0
 10
16.6536
 20
-12.5393
 30
0.0
 10
16.6536
 20
-12.5393
 30
0.0
 10
17.0177
 20
-11.2063
 30
0.0
 10
17.0177
 20
-11.2063
 30
0.0
 10
17.0177
 20
-11.2063
 30
0.0
 10
17.0177
 20
-11.2063
 30
0.0
 10
17.4284
 20
-9.9957
 30
0.0
 10
17.4284
 20
-9.9957
 30
0.0
 10
17.4284
 20
-9.9957
 30
0.0
 10
17.4284
 20
-9.9957
 30
0.0
 10
17.8327
 20
-8.9692
 30
0.0
 10
17.8327
 20
-8.9692
 30
0.0
 10
17.8327
 20
-8.9692
 30
0.0
 10
17.8327
 20
-8.9692
 30
0.0
 10
18.1804
 20
-8.1717
 30
0.0
 10
18.1804
 20
-8.1717
 30
0.0
 10
18.1804
 20
-8.1717
 30
0.0
 10
18.1804
 20
-8.1717
 30
0.0
 10
18.4421
 20
-7.6095
 30
0.0
 10
18.4421
 20
-7.6095
 30
0.0
 10
18.4421
 20
-7.6095
 30
0.0
 10
18.4421
 20
-7.6095
 30
0.0
 10
18.6032
 20
-7.2769
 30
0.0
 10
18.6032
 20
-7.2769
 30
0.0
 10
18.6032
 20
-7.2769
 30
0.0
 10
18.6032
 20
-7.2769
 30
0.0
 10
18.6572
 20
-7.1675
 30
0.0
 10
18.6572
 20
-7.1675
 30
0.0
  0
SPLINE
  5
70
330
1F
100
AcDbEntity
  8
VRSTVA_1
100
AcDbSpline
210
0.0
220
0.0
230
1.0
 70
     8
 71
     3
 72
    28
 73
    24
 74
     0
 42
0.0000000001
 43
0.0000000001
 40
0.0
 40
0.0
 40
0.0
 40
0.0
 40
0.1428571428571428
 40
0.1428571428571428
 40
0.1428571428571428
 40
0.1428571428571428
 40
0.2857142857142857
 40
0.2857142857142857
 40
0.2857142857142857
 40
0.2857142857142857
 40
0.4285714285714285
 40
0.4285714285714285
 40
0.4285714285714285
 40
0.4285714285714285
 40
0.5714285714285714
 40
0.5714285714285714
 40
0.5714285714285714
 40
0.5714285714285714
 40
0.7142857142857143
 40
0.7142857142857143
 40
0.7142857142857143
 40
0.7142857142857143
 40
1.0
 40
1.0
 40
1.0
 40
1.0
 10
27.6904
 20
-4.8017
 30
0.0
 10
27.6904
 20
-4.8017
 30
0.0
 10
27.6612
 20
-4.8038
 30
0.0
 10
27.6612
 20
-4.8038
 30
0.0
 10
27.6612
 20
-4.8038
 30
0.0
 10
27.6612
 20
-4.8038
 30
0.0
 10
27.5753
 20
-4.8095
 30
0.0
 10
27.5753
 20
-4.8095
 30
0.0
 10
27.5753
 20
-4.8095
 30
0.0
 10
27.5753
 20
-4.8095
 30
0.0
 10
27.4385
 20
-4.8173
 30
0.0
 10
27.4385
 20
-4.8173
 30
0.0
 10
27.4385
 20
-4.8173
 30
0.0
 10
27.4385
 20
-4.8173
 30
0.0
 10
27.2601
 20
-4.8252
 30
0.0
 10
27.2601
 20
-4.8252
 30
0.0
 10
27.2601
 20
-4.8252
 30
0.0
 10
27.2601
 20
-4.8252
 30
0.0
 10
27.0526
 20
-4.8309
 30
0.0
 10
27.0526
 20
-4.8309
 30
0.0
 10
27.0526
 20
-4.8309
 30
0.0
 10
27.0526
 20
-4.8309
 30
0.0
 10
26.8301
 20
-4.833
 30
0.0
 10
26.8301
 20
-4.833
 30
0.0
  0
SPLINE
  5
71
330
1F
100
AcDbEntity
  8
VRSTVA_1
100
AcDbSpline
210
0.0
220
0.0
230
1.0
 70
     8
 71
     3
 72
    28
 73
    24
 74
     0
 42
0.0000000001
 43
0.0000000001
 40
0.0
 40
0.0
 40
0.0
 40
0.0
 40
0.1428571428571428
 40
0.1428571428571428
 40
0.1428571428571428
 40
0.1428571428571428
 40
0.2857142857142857
 40
0.2857142857142857
 40
0.2857142857142857
 40
0.2857142857142857
 40
0.4285714285714285
 40
0.4285714285714285
 40
0.4285714285714285
 40
0.4285714285714285
 40
0.5714285714285714
 40
0.5714285714285714
 40
0.5714285714285714
 40
0.5714285714285714
 40
0.7142857142857143
 40
0.7142857142857143
 40
0.7142857142857143
 40
0.7142857142857143
 40
1.0
 40
1.0
 40
1.0
 40
1.0
 10
27.6904
 20
-5.0167
 30
0.0
 10
27.6904
 20
-5.0167
 30
0.0
 10
27.6615
 20
-5.0189
 30
0.0
 10
27.6615
 20
-5.0189
 30
0.0
 10
27.6615
 20
-5.0189
 30
0.0
 10
27.6615
 20
-5.0189
 30
0.0
 10
27.5743
 20
-5.0248
 30
0.0
 10
27.5743
 20
-5.0248
 30
0.0
 10
27.5743
 20
-5.0248
 30
0.0
 10
27.5743
 20
-5.0248
 30
0.0
 10
27.4381
 20
-5.0327
 30
0.0
 10
27.4381
 20
-5.0327
 30
0.0
 10
27.4381
 20
-5.0327
 30
0.0
 10
27.4381
 20
-5.0327
 30
0.0
 10
27.2614
 20
-5.0406
 30
0.0
 10
27.2614
 20
-5.0406
 30
0.0
 10
27.2614
 20
-5.0406
 30
0.0
 10
27.2614
 20
-5.0406
 30
0.0
 10
27.0512
 20
-5.0465
 30
0.0
 10
27.0512
 20
-5.0465
 30
0.0
 10
27.0512
 20
-5.0465
 30
0.0
 10
27.0512
 20
-5.0465
 30
0.0
 10
26.8301
 20
-5.0486
 30
0.0
 10
26.8301
 20
-5.0486
 30
0.0
  0
SPLINE
  5
72
330
1F
100
AcDbEntity
  8
VRSTVA_1
100
AcDbSpline
210
0.0
220
0.0
230
1.0
 70
     8
 71
     3
 72
    28
 73
    24
 74
     0
 42
0.0000000001
 43
0.0000000001
 40
0.0
 40
0.0
 40
0.0
 40
0.0
 40
0.1428571428571428
 40
0.1428571428571428
 40
0.1428571428571428
 40
0.1428571428571428
 40
0.2857142857142857
 40
0.2857142857142857
 40
0.2857142857142857
 40
0.2857142857142857
 40
0.4285714285714285
 40
0.4285714285714285
 40
0.4285714285714285
 40
0.4285714285714285
 40
0.5714285714285714
 40
0.5714285714285714
 40
0.5714285714285714
 40
0.5714285714285714
 40
0.7142857142857143
 40
0.7142857142857143
 40
0.7142857142857143
 40
0.7142857142857143
 40
1.0
 40
1.0
 40
1.0
 40
1.0
 10
26.8301
 20
-7.6802
 30
0.0
 10
26.8301
 20
-7.6802
 30
0.0
 10
27.0526
 20
-7.6994
 30
0.0
 10
27.0526
 20
-7.6994
 30
0.0
 10
27.0526
 20
-7.6994
 30
0.0
 10
27.0526
 20
-7.6994
 30
0.0
 10
27.2601
 20
-7.7561
 30
0.0
 10
27.2601
 20
-7.7561
 30
0.0
 10
27.2601
 20
-7.7561
 30
0.0
 10
27.2601
 20
-7.7561
 30
0.0
 10
27.4385
 20
-7.8473
 30
0.0
 10
27.4385
 20
-7.8473
 30
0.0
 10
27.4385
 20
-7.8473
 30
0.0
 10
27.4385
 20
-7.8473
 30
0.0
 10
27.5753
 20
-7.9679
 30
0.0
 10
27.5753
 20
-7.9679
 30
0.0
 10
27.5753
 20
-7.9679
 30
0.0
 10
27.5753
 20
-7.9679
 30
0.0
 10
27.6612
 20
-8.1106
 30
0.0
 10
27.6612
 20
-8.1106
 30
0.0
 10
27.6612
 20
-8.1106
 30
0.0
 10
27.6612
 20
-8.1106
 30
0.0
 10
27.6904
 20
-8.2664
 30
0.0
 10
27.6904
 20
-8.2664
 30
0.0
  0
SPLINE
  5
73
330
1F
100
AcDbEntity
  8
VRSTVA_1
100
AcDbSpline
210
0.0
220
0.0
230
1.0
 70
     8
 71
     3
 72
    24
 73
    20
 74
     0
 42
0.0000000001
 43
0.0000000001
 40
0.0
 40
0.0
 40
0.0
 40
0.0
 40
0.1666666666666667
 40
0.1666666666666667
 40
0.1666666666666667
 40
0.1666666666666667
 40
0.3333333333333333
 40
0.3333333333333333
 40
0.3333333333333333
 40
0.3333333333333333
 40
0.5
 40
0.5
 40
0.5
 40
0.5
 40
0.6666666666666666
 40
0.6666666666666666
 40
0.6666666666666666
 40
0.6666666666666666
 40
1.0
 40
1.0
 40
1.0
 40
1.0
 10
-18.336
 20
-20.4383
 30
0.0
 10
-18.336
 20
-20.4383
 30
0.0
 10
-18.3375
 20
-20.4024
 30
0.0
 10
-18.3375
 20
-20.4024
 30
0.0
 10
-18.3375
 20
-20.4024
 30
0.0
 10
-18.3375
 20
-20.4024
 30
0.0
 10
-18.372
 20
-20.266
 30
0.0
 10
-18.372
 20
-20.266
 30
0.0
 10
-18.372
 20
-20.266
 30
0.0
 10
-18.372
 20
-20.266
 30
0.0
 10
-18.4488
 20
-20.1479
 30
0.0
 10
-18.4488
 20
-20.1479
 30
0.0
 10
-18.4488
 20
-20.1479
 30
0.0
 10
-18.4488
 20
-20.1479
 30
0.0
 10
-18.5593
 20
-20.0611
 30
0.0
 10
-18.5593
 20
-20.0611
 30
0.0
 10
-18.5593
 20
-20.0611
 30
0.0
 10
-18.5593
 20
-20.0611
 30
0.0
 10
-18.6915
 20
-20.0147
 30
0.0
 10
-18.6915
 20
-20.0147
 30
0.0
  0
SPLINE
  5
74
330
1F
100
AcDbEntity
  8
VRSTVA_1
 62
     7
100
AcDbSpline
210
0.0
220
0.0
230
1.0
 70
     8
 71
     3
 72
    12
 73
     8
 74
     0
 42
0.0000000001
 43
0.0000000001
 40
0.0
 40
0.0
 40
0.0
 40
0.0
 40
0.3333333333333333
 40
0.3333333333333333
 40
0.3333333333333333
 40
0.3333333333333333
 40
1.0
 40
1.0
 40
1.0
 40
1.0
 10
27.6904
 20
-28.245
 30
0.0
 10
28.1643
 20
-28.245
 30
0.0
 10
28.5507
 20
-27.8585
 30
0.0
 10
28.5507
 20
-27.3847
 30
0.0
 10
28.5507
 20
-27.3847
 30
0.0
 10
28.5507
 20
-27.3847
 30
0.0
 10
28.5507
 20
-27.3847
 30
0.0
 10
28.5507
 20
-27.3847
 30
0.0
  0
SPLINE
  5
75
330
1F
100
AcDbEntity
  8
VRSTVA_1
100
AcDbSpline
210
0.0
220
0.0
230
1.0
 70
     8
 71
     3
 72
    12
 73
     8
 74
     0
 42
0.0000000001
 43
0.0000000001
 40
0.0
 40
0.0
 40
0.0
 40
0.0
 40
0.3333333333333333
 40
0.3333333333333333
 40
0.3333333333333333
 40
0.3333333333333333
 40
1.0
 40
1.0
 40
1.0
 40
1.0
 10
27.6904
 20
-28.245
 30
0.0
 10
28.1643
 20
-28.245
 30
0.0
 10
28.5507
 20
-27.8585
 30
0.0
 10
28.5507
 20
-27.3847
 30
0.0
 10
28.5507
 20
-27.3847
 30
0.0
 10
28.5507
 20
-27.3847
 30
0.0
 10
28.5507
 20
-27.3847
 30
0.0
 10
28.5507
 20
-27.3847
 30
0.0
  0
SPLINE
  5
76
330
1F
100
AcDbEntity
  8
VRSTVA_1
 62
     7
100
AcDbSpline
210
0.0
220
0.0
230
1.0
 70
     8
 71
     3
 72
    12
 73
     8
 74
     0
 42
0.0000000001
 43
0.0000000001
 40
0.0
 40
0.0
 40
0.0
 40
0.0
 40
0.3333333333333333
 40
0.3333333333333333
 40
0.3333333333333333
 40
0.3333333333333333
 40
1.0
 40
1.0
 40
1.0
 40
1.0
 10
28.5507
 20
-5.877
 30
0.0
 10
28.5507
 20
-5.4032
 30
0.0
 10
28.1643
 20
-5.0167
 30
0.0
 10
27.6904
 20
-5.0167
 30
0.0
 10
27.6904
 20
-5.0167
 30
0.0
 10
27.6904
 20
-5.0167
 30
0.0
 10
27.6904
 20
-5.0167
 30
0.0
 10
27.6904
 20
-5.0167
 30
0.0
  0
SPLINE
  5
77
330
1F
100
AcDbEntity
  8
VRSTVA_1
100
AcDbSpline
210
0.0
220
0.0
230
1.0
 70
     8
 71
     3
 72
    12
 73
     8
 74
     0
 42
0.0000000001
 43
0.0000000001
 40
0.0
 40
0.0
 40
0.0
 40
0.0
 40
0.3333333333333333
 40
0.3333333333333333
 40
0.3333333333333333
 40
0.3333333333333333
 40
1.0
 40
1.0
 40
1.0
 40
1.0
 10
28.5507
 20
-5.877
 30
0.0
 10
28.5507
 20
-5.4032
 30
0.0
 10
28.1643
 20
-5.0167
 30
0.0
 10
27.6904
 20
-5.0167
 30
0.0
 10
27.6904
 20
-5.0167
 30
0.0
 10
27.6904
 20
-5.0167
 30
0.0
 10
27.6904
 20
-5.0167
 30
0.0
 10
27.6904
 20
-5.0167
 30
0.0
  0
SPLINE
  5
78
330
1F
100
AcDbEntity
  8
VRSTVA_1
 62
     7
100
AcDbSpline
210
0.0
220
0.0
230
1.0
 70
     8
 71
     3
 72
    16
 73
    12
 74
     0
 42
0.0000000001
 43
0.0000000001
 40
0.0
 40
0.0
 40
0.0
 40
0.0
 40
0.25
 40
0.25
 40
0.25
 40
0.25
 40
0.5
 40
0.5
 40
0.5
 40
0.5
 40
1.0
 40
1.0
 40
1.0
 40
1.0
 10
26.8301
 20
-17.4911
 30
0.0
 10
27.304
 20
-17.4911
 30
0.0
 10
27.6904
 20
-17.1047
 30
0.0
 10
27.6904
 20
-16.6308
 30
0.0
 10
27.6904
 20
-16.6308
 30
0.0
 10
27.6904
 20
-16.157
 30
0.0
 10
27.304
 20
-15.7705
 30
0.0
 10
26.8301
 20
-15.7705
 30
0.0
 10
26.8301
 20
-15.7705
 30
0.0
 10
26.8301
 20
-15.7705
 30
0.0
 10
26.8301
 20
-15.7705
 30
0.0
 10
26.8301
 20
-15.7705
 30
0.0
  0
SPLINE
  5
79
330
1F
100
AcDbEntity
  8
VRSTVA_1
100
AcDbSpline
210
0.0
220
0.0
230
1.0
 70
     8
 71
     3
 72
    16
 73
    12
 74
     0
 42
0.0000000001
 43
0.0000000001
 40
0.0
 40
0.0
 40
0.0
 40
0.0
 40
0.25
 40
0.25
 40
0.25
 40
0.25
 40
0.5
 40
0.5
 40
0.5
 40
0.5
 40
1.0
 40
1.0
 40
1.0
 40
1.0
 10
26.8301
 20
-17.4911
 30
0.0
 10
27.304
 20
-17.4911
 30
0.0
 10
27.6904
 20
-17.1047
 30
0.0
 10
27.6904
 20
-16.6308
 30
0.0
 10
27.6904
 20
-16.6308
 30
0.0
 10
27.6904
 20
-16.157
 30
0.0
 10
27.304
 20
-15.7705
 30
0.0
 10
26.8301
 20
-15.7705
 30
0.0
 10
26.8301
 20
-15.7705
 30
0.0
 10
26.8301
 20
-15.7705
 30
0.0
 10
26.8301
 20
-15.7705
 30
0.0
 10
26.8301
 20
-15.7705
 30
0.0
  0
SPLINE
  5
7A
330
1F
100
AcDbEntity
  8
VRSTVA_1
 62
     7
100
AcDbSpline
210
0.0
220
0.0
230
1.0
 70
     8
 71
     3
 72
     8
 73
     4
 74
     0
 42
0.0000000001
 43
0.0000000001
 40
0.0
 40
0.0
 40
0.0
 40
0.0
 40
1.0
 40
1.0
 40
1.0
 40
1.0
 10
-21.2534
 20
1.8657
 30
0.0
 10
-21.3576
 20
1.8657
 30
0.0
 10
-21.4475
 20
1.7901
 30
0.0
 10
-21.4651
 20
1.6876
 30
0.0
  0
SPLINE
  5
7B
330
1F
100
AcDbEntity
  8
VRSTVA_1
100
AcDbSpline
210
0.0
220
0.0
230
1.0
 70
     8
 71
     3
 72
     8
 73
     4
 74
     0
 42
0.0000000001
 43
0.0000000001
 40
0.0
 40
0.0
 40
0.0
 40
0.0
 40
1.0
 40
1.0
 40
1.0
 40
1.0
 10
-21.2534
 20
1.8657
 30
0.0
 10
-21.3576
 20
1.8657
 30
0.0
 10
-21.4475
 20
1.7901
 30
0.0
 10
-21.4651
 20
1.6876
 30
0.0
  0
SPLINE
  5
7C
330
1F
100
AcDbEntity
  8
VRSTVA_1
 62
     7
100
AcDbSpline
210
0.0
220
0.0
230
1.0
 70
     8
 71
     3
 72
    12
 73
     8
 74
     0
 42
0.0000000001
 43
0.0000000001
 40
0.0
 40
0.0
 40
0.0
 40
0.0
 40
0.3333333333333333
 40
0.3333333333333333
 40
0.3333333333333333
 40
0.3333333333333333
 40
1.0
 40
1.0
 40
1.0
 40
1.0
 10
17.0547
 20
1.6876
 30
0.0
 10
17.037
 20
1.7901
 30
0.0
 10
16.9471
 20
1.8657
 30
0.0
 10
16.843
 20
1.8657
 30
0.0
 10
16.843
 20
1.8657
 30
0.0
 10
16.843
 20
1.8657
 30
0.0
 10
16.843
 20
1.8657
 30
0.0
 10
16.843
 20
1.8657
 30
0.0
  0
SPLINE
  5
7D
330
1F
100
AcDbEntity
  8
VRSTVA_1
100
AcDbSpline
210
0.0
220
0.0
230
1.0
 70
     8
 71
     3
 72
    12
 73
     8
 74
     0
 42
0.0000000001
 43
0.0000000001
 40
0.0
 40
0.0
 40
0.0
 40
0.0
 40
0.3333333333333333
 40
0.3333333333333333
 40
0.3333333333333333
 40
0.3333333333333333
 40
1.0
 40
1.0
 40
1.0
 40
1.0
 10
17.0547
 20
1.6876
 30
0.0
 10
17.037
 20
1.7901
 30
0.0
 10
16.9471
 20
1.8657
 30
0.0
 10
16.843
 20
1.8657
 30
0.0
 10
16.843
 20
1.8657
 30
0.0
 10
16.843
 20
1.8657
 30
0.0
 10
16.843
 20
1.8657
 30
0.0
 10
16.843
 20
1.8657
 30
0.0
  0
SPLINE
  5
7E
330
1F
100
AcDbEntity
  8
VRSTVA_1
 62
     7
100
AcDbSpline
210
0.0
220
0.0
230
1.0
 70
     8
 71
     3
 72
     8
 73
     4
 74
     0
 42
0.0000000001
 43
0.0000000001
 40
0.0
 40
0.0
 40
0.0
 40
0.0
 40
1.0
 40
1.0
 40
1.0
 40
1.0
 10
-22.6762
 20
-4.1565
 30
0.0
 10
-22.5721
 20
-4.1565
 30
0.0
 10
-22.4822
 20
-4.0809
 30
0.0
 10
-22.4645
 20
-3.9784
 30
0.0
  0
SPLINE
  5
7F
330
1F
100
AcDbEntity
  8
VRSTVA_1
100
AcDbSpline
210
0.0
220
0.0
230
1.0
 70
     8
 71
     3
 72
     8
 73
     4
 74
     0
 42
0.0000000001
 43
0.0000000001
 40
0.0
 40
0.0
 40
0.0
 40
0.0
 40
1.0
 40
1.0
 40
1.0
 40
1.0
 10
-22.6762
 20
-4.1565
 30
0.0
 10
-22.5721
 20
-4.1565
 30
0.0
 10
-22.4822
 20
-4.0809
 30
0.0
 10
-22.4645
 20
-3.9784
 30
0.0
  0
SPLINE
  5
80
330
1F
100
AcDbEntity
  8
VRSTVA_1
 62
     7
100
AcDbSpline
210
0.0
220
0.0
230
1.0
 70
     8
 71
     3
 72
    12
 73
     8
 74
     0
 42
0.0000000001
 43
0.0000000001
 40
0.0
 40
0.0
 40
0.0
 40
0.0
 40
0.3333333333333333
 40
0.3333333333333333
 40
0.3333333333333333
 40
0.3333333333333333
 40
1.0
 40
1.0
 40
1.0
 40
1.0
 10
18.0541
 20
-3.9792
 30
0.0
 10
18.0717
 20
-4.0817
 30
0.0
 10
18.1616
 20
-4.1565
 30
0.0
 10
18.2658
 20
-4.1565
 30
0.0
 10
18.2658
 20
-4.1565
 30
0.0
 10
18.2658
 20
-4.1565
 30
0.0
 10
18.2658
 20
-4.1565
 30
0.0
 10
18.2658
 20
-4.1565
 30
0.0
  0
SPLINE
  5
81
330
1F
100
AcDbEntity
  8
VRSTVA_1
100
AcDbSpline
210
0.0
220
0.0
230
1.0
 70
     8
 71
     3
 72
    12
 73
     8
 74
     0
 42
0.0000000001
 43
0.0000000001
 40
0.0
 40
0.0
 40
0.0
 40
0.0
 40
0.3333333333333333
 40
0.3333333333333333
 40
0.3333333333333333
 40
0.3333333333333333
 40
1.0
 40
1.0
 40
1.0
 40
1.0
 10
18.0541
 20
-3.9792
 30
0.0
 10
18.0717
 20
-4.0817
 30
0.0
 10
18.1616
 20
-4.1565
 30
0.0
 10
18.2658
 20
-4.1565
 30
0.0
 10
18.2658
 20
-4.1565
 30
0.0
 10
18.2658
 20
-4.1565
 30
0.0
 10
18.2658
 20
-4.1565
 30
0.0
 10
18.2658
 20
-4.1565
 30
0.0
  0
SPLINE
  5
82
330
1F
100
AcDbEntity
  8
VRSTVA_1
 62
     7
100
AcDbSpline
210
0.0
220
0.0
230
1.0
 70
     8
 71
     3
 72
    12
 73
     8
 74
     0
 42
0.0000000001
 43
0.0000000001
 40
0.0
 40
0.0
 40
0.0
 40
0.0
 40
0.3333333333333333
 40
0.3333333333333333
 40
0.3333333333333333
 40
0.3333333333333333
 40
1.0
 40
1.0
 40
1.0
 40
1.0
 10
12.6351
 20
-29.1053
 30
0.0
 10
13.3458
 20
-29.1053
 30
0.0
 10
13.9255
 20
-28.5256
 30
0.0
 10
13.9255
 20
-27.8148
 30
0.0
 10
13.9255
 20
-27.8148
 30
0.0
 10
13.9255
 20
-27.8148
 30
0.0
 10
13.9255
 20
-27.8148
 30
0.0
 10
13.9255
 20
-27.8148
 30
0.0
  0
SPLINE
  5
83
330
1F
100
AcDbEntity
  8
VRSTVA_1
100
AcDbSpline
210
0.0
220
0.0
230
1.0
 70
     8
 71
     3
 72
    12
 73
     8
 74
     0
 42
0.0000000001
 43
0.0000000001
 40
0.0
 40
0.0
 40
0.0
 40
0.0
 40
0.3333333333333333
 40
0.3333333333333333
 40
0.3333333333333333
 40
0.3333333333333333
 40
1.0
 40
1.0
 40
1.0
 40
1.0
 10
12.6351
 20
-29.1053
 30
0.0
 10
13.3458
 20
-29.1053
 30
0.0
 10
13.9255
 20
-28.5256
 30
0.0
 10
13.9255
 20
-27.8148
 30
0.0
 10
13.9255
 20
-27.8148
 30
0.0
 10
13.9255
 20
-27.8148
 30
0.0
 10
13.9255
 20
-27.8148
 30
0.0
 10
13.9255
 20
-27.8148
 30
0.0
  0
SPLINE
  5
84
330
1F
100
AcDbEntity
  8
VRSTVA_1
 62
     7
100
AcDbSpline
210
0.0
220
0.0
230
1.0
 70
     8
 71
     3
 72
    12
 73
     8
 74
     0
 42
0.0000000001
 43
0.0000000001
 40
0.0
 40
0.0
 40
0.0
 40
0.0
 40
0.3333333333333333
 40
0.3333333333333333
 40
0.3333333333333333
 40
0.3333333333333333
 40
1.0
 40
1.0
 40
1.0
 40
1.0
 10
-18.3359
 20
-27.8148
 30
0.0
 10
-18.3359
 20
-28.5256
 30
0.0
 10
-17.7562
 20
-29.1053
 30
0.0
 10
-17.0455
 20
-29.1053
 30
0.0
 10
-17.0455
 20
-29.1053
 30
0.0
 10
-17.0455
 20
-29.1053
 30
0.0
 10
-17.0455
 20
-29.1053
 30
0.0
 10
-17.0455
 20
-29.1053
 30
0.0
  0
SPLINE
  5
85
330
1F
100
AcDbEntity
  8
VRSTVA_1
100
AcDbSpline
210
0.0
220
0.0
230
1.0
 70
     8
 71
     3
 72
    12
 73
     8
 74
     0
 42
0.0000000001
 43
0.0000000001
 40
0.0
 40
0.0
 40
0.0
 40
0.0
 40
0.3333333333333333
 40
0.3333333333333333
 40
0.3333333333333333
 40
0.3333333333333333
 40
1.0
 40
1.0
 40
1.0
 40
1.0
 10
-18.3359
 20
-27.8148
 30
0.0
 10
-18.3359
 20
-28.5256
 30
0.0
 10
-17.7562
 20
-29.1053
 30
0.0
 10
-17.0455
 20
-29.1053
 30
0.0
 10
-17.0455
 20
-29.1053
 30
0.0
 10
-17.0455
 20
-29.1053
 30
0.0
 10
-17.0455
 20
-29.1053
 30
0.0
 10
-17.0455
 20
-29.1053
 30
0.0
  0
SPLINE
  5
86
330
1F
100
AcDbEntity
  8
VRSTVA_1
 62
     7
100
AcDbSpline
210
0.0
220
0.0
230
1.0
 70
     8
 71
     3
 72
    16
 73
    12
 74
     0
 42
0.0000000001
 43
0.0000000001
 40
0.0
 40
0.0
 40
0.0
 40
0.0
 40
0.25
 40
0.25
 40
0.25
 40
0.25
 40
0.5
 40
0.5
 40
0.5
 40
0.5
 40
1.0
 40
1.0
 40
1.0
 40
1.0
 10
14.4296
 20
-25.8551
 30
0.0
 10
14.4078
 20
-25.8518
 30
0.0
 10
14.3792
 20
-25.8484
 30
0.0
 10
14.3557
 20
-25.8484
 30
0.0
 10
14.3557
 20
-25.8484
 30
0.0
 10
14.1188
 20
-25.8484
 30
0.0
 10
13.9255
 20
-26.0416
 30
0.0
 10
13.9255
 20
-26.2785
 30
0.0
 10
13.9255
 20
-26.2785
 30
0.0
 10
13.9255
 20
-26.2785
 30
0.0
 10
13.9255
 20
-26.2785
 30
0.0
 10
13.9255
 20
-26.2785
 30
0.0
  0
SPLINE
  5
87
330
1F
100
AcDbEntity
  8
VRSTVA_1
100
AcDbSpline
210
0.0
220
0.0
230
1.0
 70
     8
 71
     3
 72
    16
 73
    12
 74
     0
 42
0.0000000001
 43
0.0000000001
 40
0.0
 40
0.0
 40
0.0
 40
0.0
 40
0.25
 40
0.25
 40
0.25
 40
0.25
 40
0.5
 40
0.5
 40
0.5
 40
0.5
 40
1.0
 40
1.0
 40
1.0
 40
1.0
 10
14.4296
 20
-25.8551
 30
0.0
 10
14.4078
 20
-25.8518
 30
0.0
 10
14.3792
 20
-25.8484
 30
0.0
 10
14.3557
 20
-25.8484
 30
0.0
 10
14.3557
 20
-25.8484
 30
0.0
 10
14.1188
 20
-25.8484
 30
0.0
 10
13.9255
 20
-26.0416
 30
0.0
 10
13.9255
 20
-26.2785
 30
0.0
 10
13.9255
 20
-26.2785
 30
0.0
 10
13.9255
 20
-26.2785
 30
0.0
 10
13.9255
 20
-26.2785
 30
0.0
 10
13.9255
 20
-26.2785
 30
0.0
  0
SPLINE
  5
88
330
1F
100
AcDbEntity
  8
VRSTVA_1
 62
     7
100
AcDbSpline
210
0.0
220
0.0
230
1.0
 70
     8
 71
     3
 72
    12
 73
     8
 74
     0
 42
0.0000000001
 43
0.0000000001
 40
0.0
 40
0.0
 40
0.0
 40
0.0
 40
0.3333333333333333
 40
0.3333333333333333
 40
0.3333333333333333
 40
0.3333333333333333
 40
1.0
 40
1.0
 40
1.0
 40
1.0
 10
-22.6375
 20
-6.3072
 30
0.0
 10
-22.6375
 20
-6.0703
 30
0.0
 10
-22.8308
 20
-5.8771
 30
0.0
 10
-23.0677
 20
-5.8771
 30
0.0
 10
-23.0677
 20
-5.8771
 30
0.0
 10
-23.0677
 20
-5.8771
 30
0.0
 10
-23.0677
 20
-5.8771
 30
0.0
 10
-23.0677
 20
-5.8771
 30
0.0
  0
SPLINE
  5
89
330
1F
100
AcDbEntity
  8
VRSTVA_1
100
AcDbSpline
210
0.0
220
0.0
230
1.0
 70
     8
 71
     3
 72
    12
 73
     8
 74
     0
 42
0.0000000001
 43
0.0000000001
 40
0.0
 40
0.0
 40
0.0
 40
0.0
 40
0.3333333333333333
 40
0.3333333333333333
 40
0.3333333333333333
 40
0.3333333333333333
 40
1.0
 40
1.0
 40
1.0
 40
1.0
 10
-22.6375
 20
-6.3072
 30
0.0
 10
-22.6375
 20
-6.0703
 30
0.0
 10
-22.8308
 20
-5.8771
 30
0.0
 10
-23.0677
 20
-5.8771
 30
0.0
 10
-23.0677
 20
-5.8771
 30
0.0
 10
-23.0677
 20
-5.8771
 30
0.0
 10
-23.0677
 20
-5.8771
 30
0.0
 10
-23.0677
 20
-5.8771
 30
0.0
  0
SPLINE
  5
8A
330
1F
100
AcDbEntity
  8
VRSTVA_1
 62
     7
100
AcDbSpline
210
0.0
220
0.0
230
1.0
 70
     8
 71
     3
 72
    12
 73
     8
 74
     0
 42
0.0000000001
 43
0.0000000001
 40
0.0
 40
0.0
 40
0.0
 40
0.0
 40
0.3333333333333333
 40
0.3333333333333333
 40
0.3333333333333333
 40
0.3333333333333333
 40
1.0
 40
1.0
 40
1.0
 40
1.0
 10
18.6572
 20
-5.8771
 30
0.0
 10
18.4203
 20
-5.8771
 30
0.0
 10
18.227
 20
-6.0703
 30
0.0
 10
18.227
 20
-6.3072
 30
0.0
 10
18.227
 20
-6.3072
 30
0.0
 10
18.227
 20
-6.3072
 30
0.0
 10
18.227
 20
-6.3072
 30
0.0
 10
18.227
 20
-6.3072
 30
0.0
  0
SPLINE
  5
8B
330
1F
100
AcDbEntity
  8
VRSTVA_1
100
AcDbSpline
210
0.0
220
0.0
230
1.0
 70
     8
 71
     3
 72
    12
 73
     8
 74
     0
 42
0.0000000001
 43
0.0000000001
 40
0.0
 40
0.0
 40
0.0
 40
0.0
 40
0.3333333333333333
 40
0.3333333333333333
 40
0.3333333333333333
 40
0.3333333333333333
 40
1.0
 40
1.0
 40
1.0
 40
1.0
 10
18.6572
 20
-5.8771
 30
0.0
 10
18.4203
 20
-5.8771
 30
0.0
 10
18.227
 20
-6.0703
 30
0.0
 10
18.227
 20
-6.3072
 30
0.0
 10
18.227
 20
-6.3072
 30
0.0
 10
18.227
 20
-6.3072
 30
0.0
 10
18.227
 20
-6.3072
 30
0.0
 10
18.227
 20
-6.3072
 30
0.0
  0
SPLINE
  5
8C
330
1F
100
AcDbEntity
  8
VRSTVA_1
 62
     7
100
AcDbSpline
210
0.0
220
0.0
230
1.0
 70
     8
 71
     3
 72
    12
 73
     8
 74
     0
 42
0.0000000001
 43
0.0000000001
 40
0.0
 40
0.0
 40
0.0
 40
0.0
 40
0.3333333333333333
 40
0.3333333333333333
 40
0.3333333333333333
 40
0.3333333333333333
 40
1.0
 40
1.0
 40
1.0
 40
1.0
 10
16.7148
 20
-26.2567
 30
0.0
 10
16.7803
 20
-26.2668
 30
0.0
 10
16.866
 20
-26.2769
 30
0.0
 10
16.9366
 20
-26.2769
 30
0.0
 10
16.9366
 20
-26.2769
 30
0.0
 10
17.1332
 20
-26.2769
 30
0.0
 10
17.3449
 20
-26.2265
 30
0.0
 10
17.5163
 20
-26.1408
 30
0.0
  0
SPLINE
  5
8D
330
1F
100
AcDbEntity
  8
VRSTVA_1
100
AcDbSpline
210
0.0
220
0.0
230
1.0
 70
     8
 71
     3
 72
    12
 73
     8
 74
     0
 42
0.0000000001
 43
0.0000000001
 40
0.0
 40
0.0
 40
0.0
 40
0.0
 40
0.3333333333333333
 40
0.3333333333333333
 40
0.3333333333333333
 40
0.3333333333333333
 40
1.0
 40
1.0
 40
1.0
 40
1.0
 10
16.7148
 20
-26.2567
 30
0.0
 10
16.7803
 20
-26.2668
 30
0.0
 10
16.866
 20
-26.2769
 30
0.0
 10
16.9366
 20
-26.2769
 30
0.0
 10
16.9366
 20
-26.2769
 30
0.0
 10
17.1332
 20
-26.2769
 30
0.0
 10
17.3449
 20
-26.2265
 30
0.0
 10
17.5163
 20
-26.1408
 30
0.0
  0
SPLINE
  5
8E
330
1F
100
AcDbEntity
  8
VRSTVA_1
 62
     7
100
AcDbSpline
210
0.0
220
0.0
230
1.0
 70
     8
 71
     3
 72
     8
 73
     4
 74
     0
 42
0.0000000001
 43
0.0000000001
 40
0.0
 40
0.0
 40
0.0
 40
0.0
 40
1.0
 40
1.0
 40
1.0
 40
1.0
 10
-22.6375
 20
-18.236
 30
0.0
 10
-22.6375
 20
-18.8611
 30
0.0
 10
-22.1838
 20
-19.4004
 30
0.0
 10
-21.5688
 20
-19.5063
 30
0.0
  0
SPLINE
  5
8F
330
1F
100
AcDbEntity
  8
VRSTVA_1
100
AcDbSpline
210
0.0
220
0.0
230
1.0
 70
     8
 71
     3
 72
     8
 73
     4
 74
     0
 42
0.0000000001
 43
0.0000000001
 40
0.0
 40
0.0
 40
0.0
 40
0.0
 40
1.0
 40
1.0
 40
1.0
 40
1.0
 10
-22.6375
 20
-18.236
 30
0.0
 10
-22.6375
 20
-18.8611
 30
0.0
 10
-22.1838
 20
-19.4004
 30
0.0
 10
-21.5688
 20
-19.5063
 30
0.0
  0
SPLINE
  5
90
330
1F
100
AcDbEntity
  8
VRSTVA_1
100
AcDbSpline
210
0.0
220
0.0
230
1.0
 70
    24
 71
     3
 72
     8
 73
     4
 74
     0
 42
0.0000000001
 43
0.0000000001
 40
0.0
 40
0.0
 40
0.0
 40
0.0
 40
1.0
 40
1.0
 40
1.0
 40
1.0
 10
29.5304
 20
-24.2455
 30
0.0
 10
29.5304
 20
-24.2455
 30
0.0
 10
34.7866
 20
-24.2455
 30
0.0
 10
34.7866
 20
-24.2455
 30
0.0
  0
SPLINE
  5
91
330
1F
100
AcDbEntity
  8
VRSTVA_1
100
AcDbSpline
210
0.0
220
0.0
230
1.0
 70
    24
 71
     3
 72
     8
 73
     4
 74
     0
 42
0.0000000001
 43
0.0000000001
 40
0.0
 40
0.0
 40
0.0
 40
0.0
 40
1.0
 40
1.0
 40
1.0
 40
1.0
 10
29.5304
 20
-8.4244
 30
0.0
 10
29.5304
 20
-8.4244
 30
0.0
 10
34.6543
 20
-8.4244
 30
0.0
 10
34.6543
 20
-8.4244
 30
0.0
  0
SPLINE
  5
92
330
1F
100
AcDbEntity
  8
VRSTVA_1
100
AcDbSpline
210
0.0
220
0.0
230
1.0
 70
    24
 71
     3
 72
     8
 73
     4
 74
     0
 42
0.0000000001
 43
0.0000000001
 40
0.0
 40
0.0
 40
0.0
 40
0.0
 40
1.0
 40
1.0
 40
1.0
 40
1.0
 10
-21.4653
 20
1.688
 30
0.0
 10
-21.4653
 20
1.688
 30
0.0
 10
-22.4645
 20
-3.9787
 30
0.0
 10
-22.4645
 20
-3.9787
 30
0.0
  0
SPLINE
  5
93
330
1F
100
AcDbEntity
  8
VRSTVA_1
100
AcDbSpline
210
0.0
220
0.0
230
1.0
 70
    24
 71
     3
 72
     8
 73
     4
 74
     0
 42
0.0000000001
 43
0.0000000001
 40
0.0
 40
0.0
 40
0.0
 40
0.0
 40
1.0
 40
1.0
 40
1.0
 40
1.0
 10
-23.928
 20
-4.1564
 30
0.0
 10
-23.928
 20
-4.1564
 30
0.0
 10
-23.928
 20
-5.877
 30
0.0
 10
-23.928
 20
-5.877
 30
0.0
  0
SPLINE
  5
94
330
1F
100
AcDbEntity
  8
VRSTVA_1
100
AcDbSpline
210
0.0
220
0.0
230
1.0
 70
    24
 71
     3
 72
     8
 73
     4
 74
     0
 42
0.0000000001
 43
0.0000000001
 40
0.0
 40
0.0
 40
0.0
 40
0.0
 40
1.0
 40
1.0
 40
1.0
 40
1.0
 10
-22.6376
 20
-6.3072
 30
0.0
 10
-22.6376
 20
-6.3072
 30
0.0
 10
-22.6376
 20
-18.2361
 30
0.0
 10
-22.6376
 20
-18.2361
 30
0.0
  0
SPLINE
  5
95
330
1F
100
AcDbEntity
  8
VRSTVA_1
100
AcDbSpline
210
0.0
220
0.0
230
1.0
 70
    24
 71
     3
 72
     8
 73
     4
 74
     0
 42
0.0000000001
 43
0.0000000001
 40
0.0
 40
0.0
 40
0.0
 40
0.0
 40
1.0
 40
1.0
 40
1.0
 40
1.0
 10
-20.4868
 20
3.1562
 30
0.0
 10
-20.4868
 20
3.1562
 30
0.0
 10
-20.4868
 20
1.8657
 30
0.0
 10
-20.4868
 20
1.8657
 30
0.0
  0
SPLINE
  5
96
330
1F
100
AcDbEntity
  8
VRSTVA_1
100
AcDbSpline
210
0.0
220
0.0
230
1.0
 70
    24
 71
     3
 72
     8
 73
     4
 74
     0
 42
0.0000000001
 43
0.0000000001
 40
0.0
 40
0.0
 40
0.0
 40
0.0
 40
1.0
 40
1.0
 40
1.0
 40
1.0
 10
-18.336
 20
-27.8149
 30
0.0
 10
-18.336
 20
-27.8149
 30
0.0
 10
-18.336
 20
-20.4383
 30
0.0
 10
-18.336
 20
-20.4383
 30
0.0
  0
SPLINE
  5
97
330
1F
100
AcDbEntity
  8
VRSTVA_1
100
AcDbSpline
210
0.0
220
0.0
230
1.0
 70
    24
 71
     3
 72
     8
 73
     4
 74
     0
 42
0.0000000001
 43
0.0000000001
 40
0.0
 40
0.0
 40
0.0
 40
0.0
 40
1.0
 40
1.0
 40
1.0
 40
1.0
 10
-20.4868
 20
3.1562
 30
0.0
 10
-20.4868
 20
3.1562
 30
0.0
 10
16.0763
 20
3.1562
 30
0.0
 10
16.0763
 20
3.1562
 30
0.0
  0
SPLINE
  5
98
330
1F
100
AcDbEntity
  8
VRSTVA_1
100
AcDbSpline
210
0.0
220
0.0
230
1.0
 70
    24
 71
     3
 72
     8
 73
     4
 74
     0
 42
0.0000000001
 43
0.0000000001
 40
0.0
 40
0.0
 40
0.0
 40
0.0
 40
1.0
 40
1.0
 40
1.0
 40
1.0
 10
16.8429
 20
1.8657
 30
0.0
 10
16.8429
 20
1.8657
 30
0.0
 10
-21.2535
 20
1.8657
 30
0.0
 10
-21.2535
 20
1.8657
 30
0.0
  0
SPLINE
  5
99
330
1F
100
AcDbEntity
  8
VRSTVA_1
100
AcDbSpline
210
0.0
220
0.0
230
1.0
 70
    24
 71
     3
 72
     8
 73
     4
 74
     0
 42
0.0000000001
 43
0.0000000001
 40
0.0
 40
0.0
 40
0.0
 40
0.0
 40
1.0
 40
1.0
 40
1.0
 40
1.0
 10
17.0548
 20
1.688
 30
0.0
 10
17.0548
 20
1.688
 30
0.0
 10
-21.4653
 20
1.688
 30
0.0
 10
-21.4653
 20
1.688
 30
0.0
  0
SPLINE
  5
9A
330
1F
100
AcDbEntity
  8
VRSTVA_1
100
AcDbSpline
210
0.0
220
0.0
230
1.0
 70
    24
 71
     3
 72
     8
 73
     4
 74
     0
 42
0.0000000001
 43
0.0000000001
 40
0.0
 40
0.0
 40
0.0
 40
0.0
 40
1.0
 40
1.0
 40
1.0
 40
1.0
 10
-22.4645
 20
-3.9787
 30
0.0
 10
-22.4645
 20
-3.9787
 30
0.0
 10
18.054
 20
-3.9787
 30
0.0
 10
18.054
 20
-3.9787
 30
0.0
  0
SPLINE
  5
9B
330
1F
100
AcDbEntity
  8
VRSTVA_1
100
AcDbSpline
210
0.0
220
0.0
230
1.0
 70
    24
 71
     3
 72
     8
 73
     4
 74
     0
 42
0.0000000001
 43
0.0000000001
 40
0.0
 40
0.0
 40
0.0
 40
0.0
 40
1.0
 40
1.0
 40
1.0
 40
1.0
 10
-23.928
 20
-4.1564
 30
0.0
 10
-23.928
 20
-4.1564
 30
0.0
 10
19.5175
 20
-4.1564
 30
0.0
 10
19.5175
 20
-4.1564
 30
0.0
  0
SPLINE
  5
9C
330
1F
100
AcDbEntity
  8
VRSTVA_1
100
AcDbSpline
210
0.0
220
0.0
230
1.0
 70
    24
 71
     3
 72
     8
 73
     4
 74
     0
 42
0.0000000001
 43
0.0000000001
 40
0.0
 40
0.0
 40
0.0
 40
0.0
 40
1.0
 40
1.0
 40
1.0
 40
1.0
 10
27.6904
 20
-4.8017
 30
0.0
 10
27.6904
 20
-4.8017
 30
0.0
 10
22.5286
 20
-4.8017
 30
0.0
 10
22.5286
 20
-4.8017
 30
0.0
  0
SPLINE
  5
9D
330
1F
100
AcDbEntity
  8
VRSTVA_1
100
AcDbSpline
210
0.0
220
0.0
230
1.0
 70
    24
 71
     3
 72
     8
 73
     4
 74
     0
 42
0.0000000001
 43
0.0000000001
 40
0.0
 40
0.0
 40
0.0
 40
0.0
 40
1.0
 40
1.0
 40
1.0
 40
1.0
 10
23.8191
 20
-4.833
 30
0.0
 10
23.8191
 20
-4.833
 30
0.0
 10
26.8302
 20
-4.833
 30
0.0
 10
26.8302
 20
-4.833
 30
0.0
  0
SPLINE
  5
9E
330
1F
100
AcDbEntity
  8
VRSTVA_1
100
AcDbSpline
210
0.0
220
0.0
230
1.0
 70
    27
 71
     3
 72
     8
 73
     4
 74
     0
 42
0.0000000001
 43
0.0000000001
 40
0.0
 40
0.0
 40
0.0
 40
0.0
 40
1.0
 40
1.0
 40
1.0
 40
1.0
 10
27.6904
 20
-5.0167
 30
0.0
 10
27.6904
 20
-5.0167
 30
0.0
 10
27.6904
 20
-5.0167
 30
0.0
 10
27.6904
 20
-5.0167
 30
0.0
  0
SPLINE
  5
9F
330
1F
100
AcDbEntity
  8
VRSTVA_1
100
AcDbSpline
210
0.0
220
0.0
230
1.0
 70
    24
 71
     3
 72
     8
 73
     4
 74
     0
 42
0.0000000001
 43
0.0000000001
 40
0.0
 40
0.0
 40
0.0
 40
0.0
 40
1.0
 40
1.0
 40
1.0
 40
1.0
 10
-23.928
 20
-5.0167
 30
0.0
 10
-23.928
 20
-5.0167
 30
0.0
 10
19.5175
 20
-5.0167
 30
0.0
 10
19.5175
 20
-5.0167
 30
0.0
  0
SPLINE
  5
A0
330
1F
100
AcDbEntity
  8
VRSTVA_1
100
AcDbSpline
210
0.0
220
0.0
230
1.0
 70
    24
 71
     3
 72
     8
 73
     4
 74
     0
 42
0.0000000001
 43
0.0000000001
 40
0.0
 40
0.0
 40
0.0
 40
0.0
 40
1.0
 40
1.0
 40
1.0
 40
1.0
 10
26.8302
 20
-5.0486
 30
0.0
 10
26.8302
 20
-5.0486
 30
0.0
 10
23.8191
 20
-5.0486
 30
0.0
 10
23.8191
 20
-5.0486
 30
0.0
  0
SPLINE
  5
A1
330
1F
100
AcDbEntity
  8
VRSTVA_1
100
AcDbSpline
210
0.0
220
0.0
230
1.0
 70
    24
 71
     3
 72
     8
 73
     4
 74
     0
 42
0.0000000001
 43
0.0000000001
 40
0.0
 40
0.0
 40
0.0
 40
0.0
 40
1.0
 40
1.0
 40
1.0
 40
1.0
 10
-23.928
 20
-5.877
 30
0.0
 10
-23.928
 20
-5.877
 30
0.0
 10
19.5175
 20
-5.877
 30
0.0
 10
19.5175
 20
-5.877
 30
0.0
  0
SPLINE
  5
A2
330
1F
100
AcDbEntity
  8
VRSTVA_1
100
AcDbSpline
210
0.0
220
0.0
230
1.0
 70
    24
 71
     3
 72
     8
 73
     4
 74
     0
 42
0.0000000001
 43
0.0000000001
 40
0.0
 40
0.0
 40
0.0
 40
0.0
 40
1.0
 40
1.0
 40
1.0
 40
1.0
 10
20.3778
 20
-6.3072
 30
0.0
 10
20.3778
 20
-6.3072
 30
0.0
 10
22.5286
 20
-6.3072
 30
0.0
 10
22.5286
 20
-6.3072
 30
0.0
  0
SPLINE
  5
A3
330
1F
100
AcDbEntity
  8
VRSTVA_1
100
AcDbSpline
210
0.0
220
0.0
230
1.0
 70
    24
 71
     3
 72
     8
 73
     4
 74
     0
 42
0.0000000001
 43
0.0000000001
 40
0.0
 40
0.0
 40
0.0
 40
0.0
 40
1.0
 40
1.0
 40
1.0
 40
1.0
 10
-22.6376
 20
-6.3072
 30
0.0
 10
-22.6376
 20
-6.3072
 30
0.0
 10
18.2271
 20
-6.3072
 30
0.0
 10
18.2271
 20
-6.3072
 30
0.0
  0
SPLINE
  5
A4
330
1F
100
AcDbEntity
  8
VRSTVA_1
100
AcDbSpline
210
0.0
220
0.0
230
1.0
 70
    24
 71
     3
 72
     8
 73
     4
 74
     0
 42
0.0000000001
 43
0.0000000001
 40
0.0
 40
0.0
 40
0.0
 40
0.0
 40
1.0
 40
1.0
 40
1.0
 40
1.0
 10
22.5286
 20
-7.1675
 30
0.0
 10
22.5286
 20
-7.1675
 30
0.0
 10
20.3778
 20
-7.1675
 30
0.0
 10
20.3778
 20
-7.1675
 30
0.0
  0
SPLINE
  5
A5
330
1F
100
AcDbEntity
  8
VRSTVA_1
100
AcDbSpline
210
0.0
220
0.0
230
1.0
 70
    24
 71
     3
 72
     8
 73
     4
 74
     0
 42
0.0000000001
 43
0.0000000001
 40
0.0
 40
0.0
 40
0.0
 40
0.0
 40
1.0
 40
1.0
 40
1.0
 40
1.0
 10
18.6572
 20
-7.1675
 30
0.0
 10
18.6572
 20
-7.1675
 30
0.0
 10
20.3778
 20
-7.1675
 30
0.0
 10
20.3778
 20
-7.1675
 30
0.0
  0
SPLINE
  5
A6
330
1F
100
AcDbEntity
  8
VRSTVA_1
100
AcDbSpline
210
0.0
220
0.0
230
1.0
 70
    24
 71
     3
 72
     8
 73
     4
 74
     0
 42
0.0000000001
 43
0.0000000001
 40
0.0
 40
0.0
 40
0.0
 40
0.0
 40
1.0
 40
1.0
 40
1.0
 40
1.0
 10
23.8191
 20
-7.6802
 30
0.0
 10
23.8191
 20
-7.6802
 30
0.0
 10
26.8302
 20
-7.6802
 30
0.0
 10
26.8302
 20
-7.6802
 30
0.0
  0
SPLINE
  5
A7
330
1F
100
AcDbEntity
  8
VRSTVA_1
100
AcDbSpline
210
0.0
220
0.0
230
1.0
 70
    24
 71
     3
 72
     8
 73
     4
 74
     0
 42
0.0000000001
 43
0.0000000001
 40
0.0
 40
0.0
 40
0.0
 40
0.0
 40
1.0
 40
1.0
 40
1.0
 40
1.0
 10
23.8191
 20
-8.8968
 30
0.0
 10
23.8191
 20
-8.8968
 30
0.0
 10
26.8302
 20
-8.8968
 30
0.0
 10
26.8302
 20
-8.8968
 30
0.0
  0
SPLINE
  5
A8
330
1F
100
AcDbEntity
  8
VRSTVA_1
100
AcDbSpline
210
0.0
220
0.0
230
1.0
 70
    24
 71
     3
 72
     8
 73
     4
 74
     0
 42
0.0000000001
 43
0.0000000001
 40
0.0
 40
0.0
 40
0.0
 40
0.0
 40
1.0
 40
1.0
 40
1.0
 40
1.0
 10
26.8302
 20
-9.0493
 30
0.0
 10
26.8302
 20
-9.0493
 30
0.0
 10
23.8191
 20
-9.0493
 30
0.0
 10
23.8191
 20
-9.0493
 30
0.0
  0
SPLINE
  5
A9
330
1F
100
AcDbEntity
  8
VRSTVA_1
100
AcDbSpline
210
0.0
220
0.0
230
1.0
 70
    24
 71
     3
 72
     8
 73
     4
 74
     0
 42
0.0000000001
 43
0.0000000001
 40
0.0
 40
0.0
 40
0.0
 40
0.0
 40
1.0
 40
1.0
 40
1.0
 40
1.0
 10
23.8191
 20
-15.7706
 30
0.0
 10
23.8191
 20
-15.7706
 30
0.0
 10
26.8302
 20
-15.7706
 30
0.0
 10
26.8302
 20
-15.7706
 30
0.0
  0
SPLINE
  5
AA
330
1F
100
AcDbEntity
  8
VRSTVA_1
100
AcDbSpline
210
0.0
220
0.0
230
1.0
 70
    24
 71
     3
 72
     8
 73
     4
 74
     0
 42
0.0000000001
 43
0.0000000001
 40
0.0
 40
0.0
 40
0.0
 40
0.0
 40
1.0
 40
1.0
 40
1.0
 40
1.0
 10
23.8191
 20
-17.4912
 30
0.0
 10
23.8191
 20
-17.4912
 30
0.0
 10
26.8302
 20
-17.4912
 30
0.0
 10
26.8302
 20
-17.4912
 30
0.0
  0
SPLINE
  5
AB
330
1F
100
AcDbEntity
  8
VRSTVA_1
100
AcDbSpline
210
0.0
220
0.0
230
1.0
 70
    24
 71
     3
 72
     8
 73
     4
 74
     0
 42
0.0000000001
 43
0.0000000001
 40
0.0
 40
0.0
 40
0.0
 40
0.0
 40
1.0
 40
1.0
 40
1.0
 40
1.0
 10
13.9255
 20
-27.8149
 30
0.0
 10
13.9255
 20
-27.8149
 30
0.0
 10
13.9255
 20
-26.2786
 30
0.0
 10
13.9255
 20
-26.2786
 30
0.0
  0
SPLINE
  5
AC
330
1F
100
AcDbEntity
  8
VRSTVA_1
100
AcDbSpline
210
0.0
220
0.0
230
1.0
 70
    24
 71
     3
 72
     8
 73
     4
 74
     0
 42
0.0000000001
 43
0.0000000001
 40
0.0
 40
0.0
 40
0.0
 40
0.0
 40
1.0
 40
1.0
 40
1.0
 40
1.0
 10
-22.6376
 20
-18.2361
 30
0.0
 10
-22.6376
 20
-18.2361
 30
0.0
 10
17.5096
 20
-24.868
 30
0.0
 10
17.5096
 20
-24.868
 30
0.0
  0
SPLINE
  5
AD
330
1F
100
AcDbEntity
  8
VRSTVA_1
100
AcDbSpline
210
0.0
220
0.0
230
1.0
 70
    24
 71
     3
 72
     8
 73
     4
 74
     0
 42
0.0000000001
 43
0.0000000001
 40
0.0
 40
0.0
 40
0.0
 40
0.0
 40
1.0
 40
1.0
 40
1.0
 40
1.0
 10
-21.5712
 20
-19.5069
 30
0.0
 10
-21.5712
 20
-19.5069
 30
0.0
 10
16.7125
 20
-26.2574
 30
0.0
 10
16.7125
 20
-26.2574
 30
0.0
  0
SPLINE
  5
AE
330
1F
100
AcDbEntity
  8
VRSTVA_1
100
AcDbSpline
210
0.0
220
0.0
230
1.0
 70
    24
 71
     3
 72
     8
 73
     4
 74
     0
 42
0.0000000001
 43
0.0000000001
 40
0.0
 40
0.0
 40
0.0
 40
0.0
 40
1.0
 40
1.0
 40
1.0
 40
1.0
 10
-18.336
 20
-20.4383
 30
0.0
 10
-18.336
 20
-20.4383
 30
0.0
 10
13.9255
 20
-26.2786
 30
0.0
 10
13.9255
 20
-26.2786
 30
0.0
  0
SPLINE
  5
AF
330
1F
100
AcDbEntity
  8
VRSTVA_1
100
AcDbSpline
210
0.0
220
0.0
230
1.0
 70
    24
 71
     3
 72
     8
 73
     4
 74
     0
 42
0.0000000001
 43
0.0000000001
 40
0.0
 40
0.0
 40
0.0
 40
0.0
 40
1.0
 40
1.0
 40
1.0
 40
1.0
 10
16.0763
 20
3.1562
 30
0.0
 10
16.0763
 20
3.1562
 30
0.0
 10
16.0763
 20
1.8657
 30
0.0
 10
16.0763
 20
1.8657
 30
0.0
  0
SPLINE
  5
B0
330
1F
100
AcDbEntity
  8
VRSTVA_1
100
AcDbSpline
210
0.0
220
0.0
230
1.0
 70
    24
 71
     3
 72
     8
 73
     4
 74
     0
 42
0.0000000001
 43
0.0000000001
 40
0.0
 40
0.0
 40
0.0
 40
0.0
 40
1.0
 40
1.0
 40
1.0
 40
1.0
 10
26.8302
 20
-24.2124
 30
0.0
 10
26.8302
 20
-24.2124
 30
0.0
 10
23.8191
 20
-24.2124
 30
0.0
 10
23.8191
 20
-24.2124
 30
0.0
  0
SPLINE
  5
B1
330
1F
100
AcDbEntity
  8
VRSTVA_1
100
AcDbSpline
210
0.0
220
0.0
230
1.0
 70
    24
 71
     3
 72
     8
 73
     4
 74
     0
 42
0.0000000001
 43
0.0000000001
 40
0.0
 40
0.0
 40
0.0
 40
0.0
 40
1.0
 40
1.0
 40
1.0
 40
1.0
 10
23.8191
 20
-24.3649
 30
0.0
 10
23.8191
 20
-24.3649
 30
0.0
 10
26.8302
 20
-24.3649
 30
0.0
 10
26.8302
 20
-24.3649
 30
0.0
  0
SPLINE
  5
B2
330
1F
100
AcDbEntity
  8
VRSTVA_1
100
AcDbSpline
210
0.0
220
0.0
230
1.0
 70
    24
 71
     3
 72
     8
 73
     4
 74
     0
 42
0.0000000001
 43
0.0000000001
 40
0.0
 40
0.0
 40
0.0
 40
0.0
 40
1.0
 40
1.0
 40
1.0
 40
1.0
 10
23.8191
 20
-25.5816
 30
0.0
 10
23.8191
 20
-25.5816
 30
0.0
 10
26.8302
 20
-25.5816
 30
0.0
 10
26.8302
 20
-25.5816
 30
0.0
  0
SPLINE
  5
B3
330
1F
100
AcDbEntity
  8
VRSTVA_1
100
AcDbSpline
210
0.0
220
0.0
230
1.0
 70
    24
 71
     3
 72
     8
 73
     4
 74
     0
 42
0.0000000001
 43
0.0000000001
 40
0.0
 40
0.0
 40
0.0
 40
0.0
 40
1.0
 40
1.0
 40
1.0
 40
1.0
 10
22.5286
 20
-26.0942
 30
0.0
 10
22.5286
 20
-26.0942
 30
0.0
 10
20.3778
 20
-26.0942
 30
0.0
 10
20.3778
 20
-26.0942
 30
0.0
  0
SPLINE
  5
B4
330
1F
100
AcDbEntity
  8
VRSTVA_1
100
AcDbSpline
210
0.0
220
0.0
230
1.0
 70
    24
 71
     3
 72
     8
 73
     4
 74
     0
 42
0.0000000001
 43
0.0000000001
 40
0.0
 40
0.0
 40
0.0
 40
0.0
 40
1.0
 40
1.0
 40
1.0
 40
1.0
 10
17.7082
 20
-26.0942
 30
0.0
 10
17.7082
 20
-26.0942
 30
0.0
 10
20.3778
 20
-26.0942
 30
0.0
 10
20.3778
 20
-26.0942
 30
0.0
  0
SPLINE
  5
B5
330
1F
100
AcDbEntity
  8
VRSTVA_1
100
AcDbSpline
210
0.0
220
0.0
230
1.0
 70
    24
 71
     3
 72
     8
 73
     4
 74
     0
 42
0.0000000001
 43
0.0000000001
 40
0.0
 40
0.0
 40
0.0
 40
0.0
 40
1.0
 40
1.0
 40
1.0
 40
1.0
 10
17.0548
 20
1.688
 30
0.0
 10
17.0548
 20
1.688
 30
0.0
 10
18.054
 20
-3.9787
 30
0.0
 10
18.054
 20
-3.9787
 30
0.0
  0
SPLINE
  5
B6
330
1F
100
AcDbEntity
  8
VRSTVA_1
100
AcDbSpline
210
0.0
220
0.0
230
1.0
 70
    24
 71
     3
 72
     8
 73
     4
 74
     0
 42
0.0000000001
 43
0.0000000001
 40
0.0
 40
0.0
 40
0.0
 40
0.0
 40
1.0
 40
1.0
 40
1.0
 40
1.0
 10
18.2271
 20
-6.3072
 30
0.0
 10
18.2271
 20
-6.3072
 30
0.0
 10
18.2271
 20
-6.7374
 30
0.0
 10
18.2271
 20
-6.7374
 30
0.0
  0
SPLINE
  5
B7
330
1F
100
AcDbEntity
  8
VRSTVA_1
100
AcDbSpline
210
0.0
220
0.0
230
1.0
 70
    24
 71
     3
 72
     8
 73
     4
 74
     0
 42
0.0000000001
 43
0.0000000001
 40
0.0
 40
0.0
 40
0.0
 40
0.0
 40
1.0
 40
1.0
 40
1.0
 40
1.0
 10
19.5175
 20
-4.1564
 30
0.0
 10
19.5175
 20
-4.1564
 30
0.0
 10
19.5175
 20
-5.877
 30
0.0
 10
19.5175
 20
-5.877
 30
0.0
  0
SPLINE
  5
B8
330
1F
100
AcDbEntity
  8
VRSTVA_1
100
AcDbSpline
210
0.0
220
0.0
230
1.0
 70
    24
 71
     3
 72
     8
 73
     4
 74
     0
 42
0.0000000001
 43
0.0000000001
 40
0.0
 40
0.0
 40
0.0
 40
0.0
 40
1.0
 40
1.0
 40
1.0
 40
1.0
 10
20.3778
 20
-26.9546
 30
0.0
 10
20.3778
 20
-26.9546
 30
0.0
 10
22.5286
 20
-26.9546
 30
0.0
 10
22.5286
 20
-26.9546
 30
0.0
  0
SPLINE
  5
B9
330
1F
100
AcDbEntity
  8
VRSTVA_1
100
AcDbSpline
210
0.0
220
0.0
230
1.0
 70
    24
 71
     3
 72
     8
 73
     4
 74
     0
 42
0.0000000001
 43
0.0000000001
 40
0.0
 40
0.0
 40
0.0
 40
0.0
 40
1.0
 40
1.0
 40
1.0
 40
1.0
 10
-18.336
 20
-27.8149
 30
0.0
 10
-18.336
 20
-27.8149
 30
0.0
 10
13.9255
 20
-27.8149
 30
0.0
 10
13.9255
 20
-27.8149
 30
0.0
  0
SPLINE
  5
BA
330
1F
100
AcDbEntity
  8
VRSTVA_1
100
AcDbSpline
210
0.0
220
0.0
230
1.0
 70
    24
 71
     3
 72
     8
 73
     4
 74
     0
 42
0.0000000001
 43
0.0000000001
 40
0.0
 40
0.0
 40
0.0
 40
0.0
 40
1.0
 40
1.0
 40
1.0
 40
1.0
 10
26.8302
 20
-28.2131
 30
0.0
 10
26.8302
 20
-28.2131
 30
0.0
 10
23.8191
 20
-28.2131
 30
0.0
 10
23.8191
 20
-28.2131
 30
0.0
  0
SPLINE
  5
BB
330
1F
100
AcDbEntity
  8
VRSTVA_1
100
AcDbSpline
210
0.0
220
0.0
230
1.0
 70
    27
 71
     3
 72
     8
 73
     4
 74
     0
 42
0.0000000001
 43
0.0000000001
 40
0.0
 40
0.0
 40
0.0
 40
0.0
 40
1.0
 40
1.0
 40
1.0
 40
1.0
 10
27.6904
 20
-28.245
 30
0.0
 10
27.6904
 20
-28.245
 30
0.0
 10
27.6904
 20
-28.245
 30
0.0
 10
27.6904
 20
-28.245
 30
0.0
  0
SPLINE
  5
BC
330
1F
100
AcDbEntity
  8
VRSTVA_1
100
AcDbSpline
210
0.0
220
0.0
230
1.0
 70
    24
 71
     3
 72
     8
 73
     4
 74
     0
 42
0.0000000001
 43
0.0000000001
 40
0.0
 40
0.0
 40
0.0
 40
0.0
 40
1.0
 40
1.0
 40
1.0
 40
1.0
 10
23.8191
 20
-28.4288
 30
0.0
 10
23.8191
 20
-28.4288
 30
0.0
 10
26.8302
 20
-28.4288
 30
0.0
 10
26.8302
 20
-28.4288
 30
0.0
  0
SPLINE
  5
BD
330
1F
100
AcDbEntity
  8
VRSTVA_1
100
AcDbSpline
210
0.0
220
0.0
230
1.0
 70
    24
 71
     3
 72
     8
 73
     4
 74
     0
 42
0.0000000001
 43
0.0000000001
 40
0.0
 40
0.0
 40
0.0
 40
0.0
 40
1.0
 40
1.0
 40
1.0
 40
1.0
 10
27.6904
 20
-28.4601
 30
0.0
 10
27.6904
 20
-28.4601
 30
0.0
 10
22.5286
 20
-28.4601
 30
0.0
 10
22.5286
 20
-28.4601
 30
0.0
  0
SPLINE
  5
BE
330
1F
100
AcDbEntity
  8
VRSTVA_1
100
AcDbSpline
210
0.0
220
0.0
230
1.0
 70
    24
 71
     3
 72
     8
 73
     4
 74
     0
 42
0.0000000001
 43
0.0000000001
 40
0.0
 40
0.0
 40
0.0
 40
0.0
 40
1.0
 40
1.0
 40
1.0
 40
1.0
 10
20.3778
 20
-26.9546
 30
0.0
 10
20.3778
 20
-26.9546
 30
0.0
 10
20.3778
 20
-6.3072
 30
0.0
 10
20.3778
 20
-6.3072
 30
0.0
  0
SPLINE
  5
BF
330
1F
100
AcDbEntity
  8
VRSTVA_1
100
AcDbSpline
210
0.0
220
0.0
230
1.0
 70
    24
 71
     3
 72
     8
 73
     4
 74
     0
 42
0.0000000001
 43
0.0000000001
 40
0.0
 40
0.0
 40
0.0
 40
0.0
 40
1.0
 40
1.0
 40
1.0
 40
1.0
 10
-17.0455
 20
-29.1053
 30
0.0
 10
-17.0455
 20
-29.1053
 30
0.0
 10
12.6351
 20
-29.1053
 30
0.0
 10
12.6351
 20
-29.1053
 30
0.0
  0
SPLINE
  5
C0
330
1F
100
AcDbEntity
  8
VRSTVA_1
100
AcDbSpline
210
0.0
220
0.0
230
1.0
 70
    24
 71
     3
 72
     8
 73
     4
 74
     0
 42
0.0000000001
 43
0.0000000001
 40
0.0
 40
0.0
 40
0.0
 40
0.0
 40
1.0
 40
1.0
 40
1.0
 40
1.0
 10
22.5286
 20
-28.4601
 30
0.0
 10
22.5286
 20
-28.4601
 30
0.0
 10
22.5286
 20
-4.8017
 30
0.0
 10
22.5286
 20
-4.8017
 30
0.0
  0
SPLINE
  5
C1
330
1F
100
AcDbEntity
  8
VRSTVA_1
100
AcDbSpline
210
0.0
220
0.0
230
1.0
 70
    24
 71
     3
 72
     8
 73
     4
 74
     0
 42
0.0000000001
 43
0.0000000001
 40
0.0
 40
0.0
 40
0.0
 40
0.0
 40
1.0
 40
1.0
 40
1.0
 40
1.0
 10
23.8191
 20
-24.3649
 30
0.0
 10
23.8191
 20
-24.3649
 30
0.0
 10
23.8191
 20
-17.4912
 30
0.0
 10
23.8191
 20
-17.4912
 30
0.0
  0
SPLINE
  5
C2
330
1F
100
AcDbEntity
  8
VRSTVA_1
100
AcDbSpline
210
0.0
220
0.0
230
1.0
 70
    24
 71
     3
 72
     8
 73
     4
 74
     0
 42
0.0000000001
 43
0.0000000001
 40
0.0
 40
0.0
 40
0.0
 40
0.0
 40
1.0
 40
1.0
 40
1.0
 40
1.0
 10
23.8191
 20
-28.4288
 30
0.0
 10
23.8191
 20
-28.4288
 30
0.0
 10
23.8191
 20
-25.5816
 30
0.0
 10
23.8191
 20
-25.5816
 30
0.0
  0
SPLINE
  5
C3
330
1F
100
AcDbEntity
  8
VRSTVA_1
100
AcDbSpline
210
0.0
220
0.0
230
1.0
 70
    24
 71
     3
 72
     8
 73
     4
 74
     0
 42
0.0000000001
 43
0.0000000001
 40
0.0
 40
0.0
 40
0.0
 40
0.0
 40
1.0
 40
1.0
 40
1.0
 40
1.0
 10
23.8191
 20
-8.8968
 30
0.0
 10
23.8191
 20
-8.8968
 30
0.0
 10
23.8191
 20
-15.7706
 30
0.0
 10
23.8191
 20
-15.7706
 30
0.0
  0
SPLINE
  5
C4
330
1F
100
AcDbEntity
  8
VRSTVA_1
100
AcDbSpline
210
0.0
220
0.0
230
1.0
 70
    24
 71
     3
 72
     8
 73
     4
 74
     0
 42
0.0000000001
 43
0.0000000001
 40
0.0
 40
0.0
 40
0.0
 40
0.0
 40
1.0
 40
1.0
 40
1.0
 40
1.0
 10
23.8191
 20
-4.833
 30
0.0
 10
23.8191
 20
-4.833
 30
0.0
 10
23.8191
 20
-7.6802
 30
0.0
 10
23.8191
 20
-7.6802
 30
0.0
  0
SPLINE
  5
C5
330
1F
100
AcDbEntity
  8
VRSTVA_1
100
AcDbSpline
210
0.0
220
0.0
230
1.0
 70
    24
 71
     3
 72
     8
 73
     4
 74
     0
 42
0.0000000001
 43
0.0000000001
 40
0.0
 40
0.0
 40
0.0
 40
0.0
 40
1.0
 40
1.0
 40
1.0
 40
1.0
 10
26.8302
 20
-24.3649
 30
0.0
 10
26.8302
 20
-24.3649
 30
0.0
 10
26.8302
 20
-24.2124
 30
0.0
 10
26.8302
 20
-24.2124
 30
0.0
  0
SPLINE
  5
C6
330
1F
100
AcDbEntity
  8
VRSTVA_1
100
AcDbSpline
210
0.0
220
0.0
230
1.0
 70
    24
 71
     3
 72
     8
 73
     4
 74
     0
 42
0.0000000001
 43
0.0000000001
 40
0.0
 40
0.0
 40
0.0
 40
0.0
 40
1.0
 40
1.0
 40
1.0
 40
1.0
 10
26.8302
 20
-28.4288
 30
0.0
 10
26.8302
 20
-28.4288
 30
0.0
 10
26.8302
 20
-28.2131
 30
0.0
 10
26.8302
 20
-28.2131
 30
0.0
  0
SPLINE
  5
C7
330
1F
100
AcDbEntity
  8
VRSTVA_1
100
AcDbSpline
210
0.0
220
0.0
230
1.0
 70
    24
 71
     3
 72
     8
 73
     4
 74
     0
 42
0.0000000001
 43
0.0000000001
 40
0.0
 40
0.0
 40
0.0
 40
0.0
 40
1.0
 40
1.0
 40
1.0
 40
1.0
 10
26.8302
 20
-8.8968
 30
0.0
 10
26.8302
 20
-8.8968
 30
0.0
 10
26.8302
 20
-9.0493
 30
0.0
 10
26.8302
 20
-9.0493
 30
0.0
  0
SPLINE
  5
C8
330
1F
100
AcDbEntity
  8
VRSTVA_1
100
AcDbSpline
210
0.0
220
0.0
230
1.0
 70
    24
 71
     3
 72
     8
 73
     4
 74
     0
 42
0.0000000001
 43
0.0000000001
 40
0.0
 40
0.0
 40
0.0
 40
0.0
 40
1.0
 40
1.0
 40
1.0
 40
1.0
 10
26.8302
 20
-4.833
 30
0.0
 10
26.8302
 20
-4.833
 30
0.0
 10
26.8302
 20
-5.0486
 30
0.0
 10
26.8302
 20
-5.0486
 30
0.0
  0
SPLINE
  5
C9
330
1F
100
AcDbEntity
  8
VRSTVA_1
100
AcDbSpline
210
0.0
220
0.0
230
1.0
 70
    24
 71
     3
 72
     8
 73
     4
 74
     0
 42
0.0000000001
 43
0.0000000001
 40
0.0
 40
0.0
 40
0.0
 40
0.0
 40
1.0
 40
1.0
 40
1.0
 40
1.0
 10
27.6904
 20
-28.4601
 30
0.0
 10
27.6904
 20
-28.4601
 30
0.0
 10
27.6904
 20
-4.8017
 30
0.0
 10
27.6904
 20
-4.8017
 30
0.0
  0
SPLINE
  5
CA
330
1F
100
AcDbEntity
  8
VRSTVA_1
100
AcDbSpline
210
0.0
220
0.0
230
1.0
 70
    24
 71
     3
 72
     8
 73
     4
 74
     0
 42
0.0000000001
 43
0.0000000001
 40
0.0
 40
0.0
 40
0.0
 40
0.0
 40
1.0
 40
1.0
 40
1.0
 40
1.0
 10
28.5508
 20
-27.3847
 30
0.0
 10
28.5508
 20
-27.3847
 30
0.0
 10
28.5508
 20
-5.877
 30
0.0
 10
28.5508
 20
-5.877
 30
0.0
  0
SPLINE
  5
CB
330
1F
100
AcDbEntity
  8
VRSTVA_1
100
AcDbSpline
210
0.0
220
0.0
230
1.0
 70
    24
 71
     3
 72
     8
 73
     4
 74
     0
 42
0.0000000001
 43
0.0000000001
 40
0.0
 40
0.0
 40
0.0
 40
0.0
 40
1.0
 40
1.0
 40
1.0
 40
1.0
 10
15.6915
 20
11.6955
 30
0.0
 10
15.6915
 20
11.6955
 30
0.0
 10
15.6915
 20
26.759
 30
0.0
 10
15.6915
 20
26.759
 30
0.0
  0
SPLINE
  5
CC
330
1F
100
AcDbEntity
  8
VRSTVA_1
100
AcDbSpline
210
0.0
220
0.0
230
1.0
 70
    24
 71
     3
 72
     8
 73
     4
 74
     0
 42
0.0000000001
 43
0.0000000001
 40
0.0
 40
0.0
 40
0.0
 40
0.0
 40
1.0
 40
1.0
 40
1.0
 40
1.0
 10
-20.3035
 20
11.8473
 30
0.0
 10
-20.3035
 20
11.8473
 30
0.0
 10
-20.3035
 20
26.759
 30
0.0
 10
-20.3035
 20
26.759
 30
0.0
  0
SPLINE
  5
CD
330
1F
100
AcDbEntity
  8
VRSTVA_1
100
AcDbSpline
210
0.0
220
0.0
230
1.0
 70
    24
 71
     3
 72
     8
 73
     4
 74
     0
 42
0.0000000001
 43
0.0000000001
 40
0.0
 40
0.0
 40
0.0
 40
0.0
 40
1.0
 40
1.0
 40
1.0
 40
1.0
 10
-21.8312
 20
3.2437
 30
0.0
 10
-21.8312
 20
3.2437
 30
0.0
 10
-32.3427
 20
3.2437
 30
0.0
 10
-32.3427
 20
3.2437
 30
0.0
  0
SPLINE
  5
CE
330
1F
100
AcDbEntity
  8
VRSTVA_1
100
AcDbSpline
210
0.0
220
0.0
230
1.0
 70
    24
 71
     3
 72
     8
 73
     4
 74
     0
 42
0.0000000001
 43
0.0000000001
 40
0.0
 40
0.0
 40
0.0
 40
0.0
 40
1.0
 40
1.0
 40
1.0
 40
1.0
 10
-18.7132
 20
-29.1896
 30
0.0
 10
-18.7132
 20
-29.1896
 30
0.0
 10
-32.3427
 20
-29.1896
 30
0.0
 10
-32.3427
 20
-29.1896
 30
0.0
  0
SPLINE
  5
CF
330
1F
100
AcDbEntity
  8
VRSTVA_1
100
AcDbSpline
210
0.0
220
0.0
230
1.0
 70
    24
 71
     3
 72
     8
 73
     4
 74
     0
 42
0.0000000001
 43
0.0000000001
 40
0.0
 40
0.0
 40
0.0
 40
0.0
 40
1.0
 40
1.0
 40
1.0
 40
1.0
 10
7.8967
 20
12.1683
 30
0.0
 10
7.8967
 20
12.1683
 30
0.0
 10
7.8967
 20
18.6507
 30
0.0
 10
7.8967
 20
18.6507
 30
0.0
  0
SPLINE
  5
D0
330
1F
100
AcDbEntity
  8
VRSTVA_1
100
AcDbSpline
210
0.0
220
0.0
230
1.0
 70
    24
 71
     3
 72
     8
 73
     4
 74
     0
 42
0.0000000001
 43
0.0000000001
 40
0.0
 40
0.0
 40
0.0
 40
0.0
 40
1.0
 40
1.0
 40
1.0
 40
1.0
 10
-12.2866
 20
12.0586
 30
0.0
 10
-12.2866
 20
12.0586
 30
0.0
 10
-12.2866
 20
18.6507
 30
0.0
 10
-12.2866
 20
18.6507
 30
0.0
  0
SPLINE
  5
D1
330
1F
100
AcDbEntity
  8
VRSTVA_1
 62
   250
100
AcDbSpline
210
0.0
220
0.0
230
1.0
 70
    24
 71
     3
 72
     8
 73
     4
 74
     0
 42
0.0000000001
 43
0.0000000001
 40
0.0
 40
0.0
 40
0.0
 40
0.0
 40
1.0
 40
1.0
 40
1.0
 40
1.0
 10
-32.0845
 20
2.7071
 30
0.0
 10
-32.0845
 20
2.7071
 30
0.0
 10
-32.0845
 20
-28.5749
 30
0.0
 10
-32.0845
 20
-28.5749
 30
0.0
  0
SPLINE
  5
D2
330
1F
100
AcDbEntity
  8
VRSTVA_1
 62
   250
100
AcDbSpline
210
0.0
220
0.0
230
1.0
 70
    24
 71
     3
 72
     8
 73
     4
 74
     0
 42
0.0000000001
 43
0.0000000001
 40
0.0
 40
0.0
 40
0.0
 40
0.0
 40
1.0
 40
1.0
 40
1.0
 40
1.0
 10
14.252
 20
26.476
 30
0.0
 10
14.252
 20
26.476
 30
0.0
 10
-18.698
 20
26.476
 30
0.0
 10
-18.698
 20
26.476
 30
0.0
  0
SPLINE
  5
D3
330
1F
100
AcDbEntity
  8
VRSTVA_1
 62
   250
100
AcDbSpline
210
0.0
220
0.0
230
1.0
 70
    11
 71
     3
 72
    84
 73
    80
 74
     0
 42
0.0000000001
 43
0.0000000001
 40
0.0
 40
0.0
 40
0.0
 40
0.0
 40
0.0476190476190476
 40
0.0476190476190476
 40
0.0476190476190476
 40
0.0476190476190476
 40
0.0952380952380952
 40
0.0952380952380952
 40
0.0952380952380952
 40
0.0952380952380952
 40
0.1428571428571428
 40
0.1428571428571428
 40
0.1428571428571428
 40
0.1428571428571428
 40
0.1904761904761905
 40
0.1904761904761905
 40
0.1904761904761905
 40
0.1904761904761905
 40
0.2380952380952381
 40
0.2380952380952381
 40
0.2380952380952381
 40
0.2380952380952381
 40
0.2857142857142857
 40
0.2857142857142857
 40
0.2857142857142857
 40
0.2857142857142857
 40
0.3333333333333333
 40
0.3333333333333333
 40
0.3333333333333333
 40
0.3333333333333333
 40
0.3809523809523809
 40
0.3809523809523809
 40
0.3809523809523809
 40
0.3809523809523809
 40
0.4285714285714285
 40
0.4285714285714285
 40
0.4285714285714285
 40
0.4285714285714285
 40
0.4761904761904762
 40
0.4761904761904762
 40
0.4761904761904762
 40
0.4761904761904762
 40
0.5238095238095238
 40
0.5238095238095238
 40
0.5238095238095238
 40
0.5238095238095238
 40
0.5714285714285714
 40
0.5714285714285714
 40
0.5714285714285714
 40
0.5714285714285714
 40
0.6190476190476191
 40
0.6190476190476191
 40
0.6190476190476191
 40
0.6190476190476191
 40
0.6666666666666666
 40
0.6666666666666666
 40
0.6666666666666666
 40
0.6666666666666666
 40
0.7142857142857143
 40
0.7142857142857143
 40
0.7142857142857143
 40
0.7142857142857143
 40
0.7619047619047619
 40
0.7619047619047619
 40
0.7619047619047619
 40
0.7619047619047619
 40
0.8095238095238095
 40
0.8095238095238095
 40
0.8095238095238095
 40
0.8095238095238095
 40
0.8571428571428571
 40
0.8571428571428571
 40
0.8571428571428571
 40
0.8571428571428571
 40
0.9047619047619048
 40
0.9047619047619048
 40
0.9047619047619048
 40
0.9047619047619048
 40
1.0
 40
1.0
 40
1.0
 40
1.0
 10
-3.1032
 20
28.9306
 30
0.0
 10
-3.1032
 20
28.9306
 30
0.0
 10
-2.8718
 20
29.1897
 30
0.0
 10
-2.8718
 20
29.1897
 30
0.0
 10
-2.8718
 20
29.1897
 30
0.0
 10
-2.8718
 20
29.1897
 30
0.0
 10
-2.7354
 20
29.074
 30
0.0
 10
-2.7354
 20
29.074
 30
0.0
 10
-2.7354
 20
29.074
 30
0.0
 10
-2.7354
 20
29.074
 30
0.0
 10
-2.9776
 20
28.8012
 30
0.0
 10
-2.9776
 20
28.8012
 30
0.0
 10
-2.9776
 20
28.8012
 30
0.0
 10
-2.8986
 20
28.6836
 30
0.0
 10
-2.8455
 20
28.5806
 30
0.0
 10
-2.8177
 20
28.4927
 30
0.0
 10
-2.8177
 20
28.4927
 30
0.0
 10
-2.781
 20
28.3769
 30
0.0
 10
-2.7627
 20
28.2471
 30
0.0
 10
-2.7627
 20
28.1041
 30
0.0
 10
-2.7627
 20
28.1041
 30
0.0
 10
-2.7627
 20
27.8972
 30
0.0
 10
-2.8045
 20
27.7128
 30
0.0
 10
-2.8883
 20
27.5515
 30
0.0
 10
-2.8883
 20
27.5515
 30
0.0
 10
-2.972
 20
27.3896
 30
0.0
 10
-3.0891
 20
27.2674
 30
0.0
 10
-3.2401
 20
27.1846
 30
0.0
 10
-3.2401
 20
27.1846
 30
0.0
 10
-3.3916
 20
27.1023
 30
0.0
 10
-3.5519
 20
27.0609
 30
0.0
 10
-3.7217
 20
27.0609
 30
0.0
 10
-3.7217
 20
27.0609
 30
0.0
 10
-3.8487
 20
27.0609
 30
0.0
 10
-3.9635
 20
27.0787
 30
0.0
 10
-4.0665
 20
27.1145
 30
0.0
 10
-4.0665
 20
27.1145
 30
0.0
 10
-4.1455
 20
27.1422
 30
0.0
 10
-4.2377
 20
27.1949
 30
0.0
 10
-4.3436
 20
27.273
 30
0.0
 10
-4.3436
 20
27.273
 30
0.0
 10
-4.3436
 20
27.273
 30
0.0
 10
-4.575
 20
27.0138
 30
0.0
 10
-4.575
 20
27.0138
 30
0.0
 10
-4.575
 20
27.0138
 30
0.0
 10
-4.575
 20
27.0138
 30
0.0
 10
-4.7114
 20
27.1295
 30
0.0
 10
-4.7114
 20
27.1295
 30
0.0
 10
-4.7114
 20
27.1295
 30
0.0
 10
-4.7114
 20
27.1295
 30
0.0
 10
-4.4687
 20
27.4009
 30
0.0
 10
-4.4687
 20
27.4009
 30
0.0
 10
-4.4687
 20
27.4009
 30
0.0
 10
-4.559
 20
27.5378
 30
0.0
 10
-4.6192
 20
27.6549
 30
0.0
 10
-4.6493
 20
27.7518
 30
0.0
 10
-4.6493
 20
27.7518
 30
0.0
 10
-4.6794
 20
27.8487
 30
0.0
 10
-4.6949
 20
27.9654
 30
0.0
 10
-4.6949
 20
28.1013
 30
0.0
 10
-4.6949
 20
28.1013
 30
0.0
 10
-4.6949
 20
28.3087
 30
0.0
 10
-4.6535
 20
28.4936
 30
0.0
 10
-4.5708
 20
28.6559
 30
0.0
 10
-4.5708
 20
28.6559
 30
0.0
 10
-4.488
 20
28.8182
 30
0.0
 10
-4.3723
 20
28.9409
 30
0.0
 10
-4.2227
 20
29.0246
 30
0.0
 10
-4.2227
 20
29.0246
 30
0.0
 10
-4.0736
 20
29.1079
 30
0.0
 10
-3.9075
 20
29.1498
 30
0.0
 10
-3.7246
 20
29.1498
 30
0.0
 10
-3.7246
 20
29.1498
 30
0.0
 10
-3.6013
 20
29.1498
 30
0.0
 10
-3.4936
 20
29.1338
 30
0.0
 10
-3.4014
 20
29.1008
 30
0.0
 10
-3.4014
 20
29.1008
 30
0.0
 10
-3.3092
 20
29.0684
 30
0.0
 10
-3.2095
 20
29.0115
 30
0.0
 10
-3.1032
 20
28.9306
 30
0.0
  0
SPLINE
  5
D4
330
1F
100
AcDbEntity
  8
VRSTVA_1
 62
   250
100
AcDbSpline
210
0.0
220
0.0
230
1.0
 70
    11
 71
     3
 72
    32
 73
    28
 74
     0
 42
0.0000000001
 43
0.0000000001
 40
0.0
 40
0.0
 40
0.0
 40
0.0
 40
0.125
 40
0.125
 40
0.125
 40
0.125
 40
0.25
 40
0.25
 40
0.25
 40
0.25
 40
0.375
 40
0.375
 40
0.375
 40
0.375
 40
0.5
 40
0.5
 40
0.5
 40
0.5
 40
0.625
 40
0.625
 40
0.625
 40
0.625
 40
0.75
 40
0.75
 40
0.75
 40
0.75
 40
1.0
 40
1.0
 40
1.0
 40
1.0
 10
-3.2683
 20
28.7448
 30
0.0
 10
-3.3549
 20
28.8125
 30
0.0
 10
-3.4306
 20
28.8591
 30
0.0
 10
-3.495
 20
28.884
 30
0.0
 10
-3.495
 20
28.884
 30
0.0
 10
-3.5599
 20
28.9085
 30
0.0
 10
-3.6361
 20
28.9212
 30
0.0
 10
-3.7232
 20
28.9212
 30
0.0
 10
-3.7232
 20
28.9212
 30
0.0
 10
-3.9245
 20
28.9212
 30
0.0
 10
-4.0905
 20
28.853
 30
0.0
 10
-4.2222
 20
28.7166
 30
0.0
 10
-4.2222
 20
28.7166
 30
0.0
 10
-4.3535
 20
28.5801
 30
0.0
 10
-4.4193
 20
28.3765
 30
0.0
 10
-4.4193
 20
28.1051
 30
0.0
 10
-4.4193
 20
28.1051
 30
0.0
 10
-4.4193
 20
27.9988
 30
0.0
 10
-4.409
 20
27.9042
 30
0.0
 10
-4.3887
 20
27.8214
 30
0.0
 10
-4.3887
 20
27.8214
 30
0.0
 10
-4.3741
 20
27.7598
 30
0.0
 10
-4.3436
 20
27.6841
 30
0.0
 10
-4.2965
 20
27.5943
 30
0.0
 10
-4.2965
 20
27.5943
 30
0.0
 10
-4.2965
 20
27.5943
 30
0.0
 10
-3.2683
 20
28.7448
 30
0.0
 10
-3.2683
 20
28.7448
 30
0.0
  0
SPLINE
  5
D5
330
1F
100
AcDbEntity
  8
VRSTVA_1
 62
   250
100
AcDbSpline
210
0.0
220
0.0
230
1.0
 70
    11
 71
     3
 72
    28
 73
    24
 74
     0
 42
0.0000000001
 43
0.0000000001
 40
0.0
 40
0.0
 40
0.0
 40
0.0
 40
0.1428571428571428
 40
0.1428571428571428
 40
0.1428571428571428
 40
0.1428571428571428
 40
0.2857142857142857
 40
0.2857142857142857
 40
0.2857142857142857
 40
0.2857142857142857
 40
0.4285714285714285
 40
0.4285714285714285
 40
0.4285714285714285
 40
0.4285714285714285
 40
0.5714285714285714
 40
0.5714285714285714
 40
0.5714285714285714
 40
0.5714285714285714
 40
0.7142857142857143
 40
0.7142857142857143
 40
0.7142857142857143
 40
0.7142857142857143
 40
1.0
 40
1.0
 40
1.0
 40
1.0
 10
-3.1554
 20
28.6027
 30
0.0
 10
-3.1554
 20
28.6027
 30
0.0
 10
-4.1794
 20
27.4564
 30
0.0
 10
-4.1794
 20
27.4564
 30
0.0
 10
-4.1794
 20
27.4564
 30
0.0
 10
-4.1089
 20
27.3986
 30
0.0
 10
-4.0435
 20
27.3581
 30
0.0
 10
-3.9837
 20
27.3351
 30
0.0
 10
-3.9837
 20
27.3351
 30
0.0
 10
-3.9057
 20
27.3045
 30
0.0
 10
-3.821
 20
27.2895
 30
0.0
 10
-3.7302
 20
27.2895
 30
0.0
 10
-3.7302
 20
27.2895
 30
0.0
 10
-3.5298
 20
27.2895
 30
0.0
 10
-3.3647
 20
27.36
 30
0.0
 10
-3.234
 20
27.5016
 30
0.0
 10
-3.234
 20
27.5016
 30
0.0
 10
-3.1037
 20
27.6432
 30
0.0
 10
-3.0383
 20
27.8417
 30
0.0
 10
-3.0383
 20
28.0971
 30
0.0
 10
-3.0383
 20
28.0971
 30
0.0
 10
-3.0383
 20
28.288
 30
0.0
 10
-3.0773
 20
28.4569
 30
0.0
 10
-3.1554
 20
28.6027
 30
0.0
  0
SPLINE
  5
D6
330
1F
100
AcDbEntity
  8
VRSTVA_1
 62
   250
100
AcDbSpline
210
0.0
220
0.0
230
1.0
 70
    11
 71
     3
 72
    68
 73
    64
 74
     0
 42
0.0000000001
 43
0.0000000001
 40
0.0
 40
0.0
 40
0.0
 40
0.0
 40
0.0588235294117647
 40
0.0588235294117647
 40
0.0588235294117647
 40
0.0588235294117647
 40
0.1176470588235294
 40
0.1176470588235294
 40
0.1176470588235294
 40
0.1176470588235294
 40
0.1764705882352941
 40
0.1764705882352941
 40
0.1764705882352941
 40
0.1764705882352941
 40
0.2352941176470588
 40
0.2352941176470588
 40
0.2352941176470588
 40
0.2352941176470588
 40
0.2941176470588235
 40
0.2941176470588235
 40
0.2941176470588235
 40
0.2941176470588235
 40
0.3529411764705883
 40
0.3529411764705883
 40
0.3529411764705883
 40
0.3529411764705883
 40
0.4117647058823529
 40
0.4117647058823529
 40
0.4117647058823529
 40
0.4117647058823529
 40
0.4705882352941176
 40
0.4705882352941176
 40
0.4705882352941176
 40
0.4705882352941176
 40
0.5294117647058824
 40
0.5294117647058824
 40
0.5294117647058824
 40
0.5294117647058824
 40
0.5882352941176471
 40
0.5882352941176471
 40
0.5882352941176471
 40
0.5882352941176471
 40
0.6470588235294118
 40
0.6470588235294118
 40
0.6470588235294118
 40
0.6470588235294118
 40
0.7058823529411765
 40
0.7058823529411765
 40
0.7058823529411765
 40
0.7058823529411765
 40
0.7647058823529411
 40
0.7647058823529411
 40
0.7647058823529411
 40
0.7647058823529411
 40
0.8235294117647058
 40
0.8235294117647058
 40
0.8235294117647058
 40
0.8235294117647058
 40
0.8823529411764706
 40
0.8823529411764706
 40
0.8823529411764706
 40
0.8823529411764706
 40
1.0
 40
1.0
 40
1.0
 40
1.0
 10
-2.1314
 20
28.1907
 30
0.0
 10
-2.2345
 20
28.2283
 30
0.0
 10
-2.3107
 20
28.2819
 30
0.0
 10
-2.3605
 20
28.352
 30
0.0
 10
-2.3605
 20
28.352
 30
0.0
 10
-2.4099
 20
28.4216
 30
0.0
 10
-2.4348
 20
28.5054
 30
0.0
 10
-2.4348
 20
28.6027
 30
0.0
 10
-2.4348
 20
28.6027
 30
0.0
 10
-2.4348
 20
28.7499
 30
0.0
 10
-2.3821
 20
28.8732
 30
0.0
 10
-2.2763
 20
28.9734
 30
0.0
 10
-2.2763
 20
28.9734
 30
0.0
 10
-2.1705
 20
29.0736
 30
0.0
 10
-2.0303
 20
29.1239
 30
0.0
 10
-1.8549
 20
29.1239
 30
0.0
 10
-1.8549
 20
29.1239
 30
0.0
 10
-1.6785
 20
29.1239
 30
0.0
 10
-1.5364
 20
29.0726
 30
0.0
 10
-1.4287
 20
28.9701
 30
0.0
 10
-1.4287
 20
28.9701
 30
0.0
 10
-1.3215
 20
28.8675
 30
0.0
 10
-1.2678
 20
28.7429
 30
0.0
 10
-1.2678
 20
28.5957
 30
0.0
 10
-1.2678
 20
28.5957
 30
0.0
 10
-1.2678
 20
28.5021
 30
0.0
 10
-1.2923
 20
28.4207
 30
0.0
 10
-1.3412
 20
28.3511
 30
0.0
 10
-1.3412
 20
28.3511
 30
0.0
 10
-1.3906
 20
28.2819
 30
0.0
 10
-1.4649
 20
28.2283
 30
0.0
 10
-1.5651
 20
28.1907
 30
0.0
 10
-1.5651
 20
28.1907
 30
0.0
 10
-1.4414
 20
28.1502
 30
0.0
 10
-1.3469
 20
28.0853
 30
0.0
 10
-1.282
 20
27.995
 30
0.0
 10
-1.282
 20
27.995
 30
0.0
 10
-1.2175
 20
27.9052
 30
0.0
 10
-1.1851
 20
27.7975
 30
0.0
 10
-1.1851
 20
27.6728
 30
0.0
 10
-1.1851
 20
27.6728
 30
0.0
 10
-1.1851
 20
27.4997
 30
0.0
 10
-1.2462
 20
27.3548
 30
0.0
 10
-1.368
 20
27.2373
 30
0.0
 10
-1.368
 20
27.2373
 30
0.0
 10
-1.4903
 20
27.1197
 30
0.0
 10
-1.6512
 20
27.0609
 30
0.0
 10
-1.8506
 20
27.0609
 30
0.0
 10
-1.8506
 20
27.0609
 30
0.0
 10
-2.0501
 20
27.0609
 30
0.0
 10
-2.2105
 20
27.1197
 30
0.0
 10
-2.3328
 20
27.2377
 30
0.0
 10
-2.3328
 20
27.2377
 30
0.0
 10
-2.4551
 20
27.3558
 30
0.0
 10
-2.5162
 20
27.503
 30
0.0
 10
-2.5162
 20
27.6794
 30
0.0
 10
-2.5162
 20
27.6794
 30
0.0
 10
-2.5162
 20
27.8106
 30
0.0
 10
-2.4828
 20
27.9207
 30
0.0
 10
-2.416
 20
28.0096
 30
0.0
 10
-2.416
 20
28.0096
 30
0.0
 10
-2.3497
 20
28.098
 30
0.0
 10
-2.2547
 20
28.1587
 30
0.0
 10
-2.1314
 20
28.1907
 30
0.0
  0
SPLINE
  5
D7
330
1F
100
AcDbEntity
  8
VRSTVA_1
 62
   250
100
AcDbSpline
210
0.0
220
0.0
230
1.0
 70
    11
 71
     3
 72
    36
 73
    32
 74
     0
 42
0.0000000001
 43
0.0000000001
 40
0.0
 40
0.0
 40
0.0
 40
0.0
 40
0.1111111111111111
 40
0.1111111111111111
 40
0.1111111111111111
 40
0.1111111111111111
 40
0.2222222222222222
 40
0.2222222222222222
 40
0.2222222222222222
 40
0.2222222222222222
 40
0.3333333333333333
 40
0.3333333333333333
 40
0.3333333333333333
 40
0.3333333333333333
 40
0.4444444444444444
 40
0.4444444444444444
 40
0.4444444444444444
 40
0.4444444444444444
 40
0.5555555555555556
 40
0.5555555555555556
 40
0.5555555555555556
 40
0.5555555555555556
 40
0.6666666666666666
 40
0.6666666666666666
 40
0.6666666666666666
 40
0.6666666666666666
 40
0.7777777777777778
 40
0.7777777777777778
 40
0.7777777777777778
 40
0.7777777777777778
 40
1.0
 40
1.0
 40
1.0
 40
1.0
 10
-2.1813
 20
28.6112
 30
0.0
 10
-2.1813
 20
28.5157
 30
0.0
 10
-2.1503
 20
28.4376
 30
0.0
 10
-2.0891
 20
28.3769
 30
0.0
 10
-2.0891
 20
28.3769
 30
0.0
 10
-2.0275
 20
28.3163
 30
0.0
 10
-1.9475
 20
28.2857
 30
0.0
 10
-1.8492
 20
28.2857
 30
0.0
 10
-1.8492
 20
28.2857
 30
0.0
 10
-1.7537
 20
28.2857
 30
0.0
 10
-1.6752
 20
28.3158
 30
0.0
 10
-1.614
 20
28.376
 30
0.0
 10
-1.614
 20
28.376
 30
0.0
 10
-1.5529
 20
28.4362
 30
0.0
 10
-1.5228
 20
28.5101
 30
0.0
 10
-1.5228
 20
28.5971
 30
0.0
 10
-1.5228
 20
28.5971
 30
0.0
 10
-1.5228
 20
28.6883
 30
0.0
 10
-1.5538
 20
28.7645
 30
0.0
 10
-1.6169
 20
28.8266
 30
0.0
 10
-1.6169
 20
28.8266
 30
0.0
 10
-1.6799
 20
28.8887
 30
0.0
 10
-1.758
 20
28.9198
 30
0.0
 10
-1.852
 20
28.9198
 30
0.0
 10
-1.852
 20
28.9198
 30
0.0
 10
-1.9466
 20
28.9198
 30
0.0
 10
-2.0251
 20
28.8892
 30
0.0
 10
-2.0877
 20
28.829
 30
0.0
 10
-2.0877
 20
28.829
 30
0.0
 10
-2.1503
 20
28.7683
 30
0.0
 10
-2.1813
 20
28.6954
 30
0.0
 10
-2.1813
 20
28.6112
 30
0.0
  0
SPLINE
  5
D8
330
1F
100
AcDbEntity
  8
VRSTVA_1
 62
   250
100
AcDbSpline
210
0.0
220
0.0
230
1.0
 70
    11
 71
     3
 72
    40
 73
    36
 74
     0
 42
0.0000000001
 43
0.0000000001
 40
0.0
 40
0.0
 40
0.0
 40
0.0
 40
0.1
 40
0.1
 40
0.1
 40
0.1
 40
0.2
 40
0.2
 40
0.2
 40
0.2
 40
0.3
 40
0.3
 40
0.3
 40
0.3
 40
0.4
 40
0.4
 40
0.4
 40
0.4
 40
0.5
 40
0.5
 40
0.5
 40
0.5
 40
0.6
 40
0.6
 40
0.6
 40
0.6
 40
0.7
 40
0.7
 40
0.7
 40
0.7
 40
0.8
 40
0.8
 40
0.8
 40
0.8
 40
1.0
 40
1.0
 40
1.0
 40
1.0
 10
-2.2613
 20
27.678
 30
0.0
 10
-2.2613
 20
27.6074
 30
0.0
 10
-2.2443
 20
27.5388
 30
0.0
 10
-2.2109
 20
27.4729
 30
0.0
 10
-2.2109
 20
27.4729
 30
0.0
 10
-2.1775
 20
27.4066
 30
0.0
 10
-2.1277
 20
27.3553
 30
0.0
 10
-2.0614
 20
27.3191
 30
0.0
 10
-2.0614
 20
27.3191
 30
0.0
 10
-1.995
 20
27.2829
 30
0.0
 10
-1.924
 20
27.2645
 30
0.0
 10
-1.8478
 20
27.2645
 30
0.0
 10
-1.8478
 20
27.2645
 30
0.0
 10
-1.7293
 20
27.2645
 30
0.0
 10
-1.6314
 20
27.3026
 30
0.0
 10
-1.5543
 20
27.3793
 30
0.0
 10
-1.5543
 20
27.3793
 30
0.0
 10
-1.4772
 20
27.4555
 30
0.0
 10
-1.4386
 20
27.5524
 30
0.0
 10
-1.4386
 20
27.67
 30
0.0
 10
-1.4386
 20
27.67
 30
0.0
 10
-1.4386
 20
27.7895
 30
0.0
 10
-1.4781
 20
27.8882
 30
0.0
 10
-1.5576
 20
27.9663
 30
0.0
 10
-1.5576
 20
27.9663
 30
0.0
 10
-1.6371
 20
28.0444
 30
0.0
 10
-1.7368
 20
28.0834
 30
0.0
 10
-1.8563
 20
28.0834
 30
0.0
 10
-1.8563
 20
28.0834
 30
0.0
 10
-1.9729
 20
28.0834
 30
0.0
 10
-2.0694
 20
28.0449
 30
0.0
 10
-2.146
 20
27.9677
 30
0.0
 10
-2.146
 20
27.9677
 30
0.0
 10
-2.2227
 20
27.8901
 30
0.0
 10
-2.2613
 20
27.7937
 30
0.0
 10
-2.2613
 20
27.678
 30
0.0
  0
SPLINE
  5
D9
330
1F
100
AcDbEntity
  8
VRSTVA_1
 62
   250
100
AcDbSpline
210
0.0
220
0.0
230
1.0
 70
    11
 71
     3
 72
    80
 73
    76
 74
     0
 42
0.0000000001
 43
0.0000000001
 40
0.0
 40
0.0
 40
0.0
 40
0.0
 40
0.05
 40
0.05
 40
0.05
 40
0.05
 40
0.1
 40
0.1
 40
0.1
 40
0.1
 40
0.15
 40
0.15
 40
0.15
 40
0.15
 40
0.2
 40
0.2
 40
0.2
 40
0.2
 40
0.25
 40
0.25
 40
0.25
 40
0.25
 40
0.3
 40
0.3
 40
0.3
 40
0.3
 40
0.35
 40
0.35
 40
0.35
 40
0.35
 40
0.4
 40
0.4
 40
0.4
 40
0.4
 40
0.45
 40
0.45
 40
0.45
 40
0.45
 40
0.5
 40
0.5
 40
0.5
 40
0.5
 40
0.55
 40
0.55
 40
0.55
 40
0.55
 40
0.6
 40
0.6
 40
0.6
 40
0.6
 40
0.65
 40
0.65
 40
0.65
 40
0.65
 40
0.7
 40
0.7
 40
0.7
 40
0.7
 40
0.75
 40
0.75
 40
0.75
 40
0.75
 40
0.8
 40
0.8
 40
0.8
 40
0.8
 40
0.85
 40
0.85
 40
0.85
 40
0.85
 40
0.9
 40
0.9
 40
0.9
 40
0.9
 40
1.0
 40
1.0
 40
1.0
 40
1.0
 10
0.3431
 20
28.6206
 30
0.0
 10
0.3431
 20
28.6206
 30
0.0
 10
0.0967
 20
28.6013
 30
0.0
 10
0.0967
 20
28.6013
 30
0.0
 10
0.0967
 20
28.6013
 30
0.0
 10
0.0746
 20
28.6987
 30
0.0
 10
0.0435
 20
28.7697
 30
0.0
 10
0.0031
 20
28.8134
 30
0.0
 10
0.0031
 20
28.8134
 30
0.0
 10
-0.0642
 20
28.8845
 30
0.0
 10
-0.147
 20
28.9198
 30
0.0
 10
-0.2453
 20
28.9198
 30
0.0
 10
-0.2453
 20
28.9198
 30
0.0
 10
-0.3243
 20
28.9198
 30
0.0
 10
-0.3934
 20
28.8976
 30
0.0
 10
-0.4532
 20
28.8534
 30
0.0
 10
-0.4532
 20
28.8534
 30
0.0
 10
-0.5313
 20
28.7965
 30
0.0
 10
-0.5929
 20
28.7133
 30
0.0
 10
-0.638
 20
28.6041
 30
0.0
 10
-0.638
 20
28.6041
 30
0.0
 10
-0.6827
 20
28.495
 30
0.0
 10
-0.7062
 20
28.3393
 30
0.0
 10
-0.7081
 20
28.1371
 30
0.0
 10
-0.7081
 20
28.1371
 30
0.0
 10
-0.6484
 20
28.2278
 30
0.0
 10
-0.5755
 20
28.2956
 30
0.0
 10
-0.4889
 20
28.3398
 30
0.0
 10
-0.4889
 20
28.3398
 30
0.0
 10
-0.4029
 20
28.3835
 30
0.0
 10
-0.3121
 20
28.4056
 30
0.0
 10
-0.2175
 20
28.4056
 30
0.0
 10
-0.2175
 20
28.4056
 30
0.0
 10
-0.052
 20
28.4056
 30
0.0
 10
0.0887
 20
28.345
 30
0.0
 10
0.2049
 20
28.2231
 30
0.0
 10
0.2049
 20
28.2231
 30
0.0
 10
0.321
 20
28.1013
 30
0.0
 10
0.3794
 20
27.9442
 30
0.0
 10
0.3794
 20
27.7514
 30
0.0
 10
0.3794
 20
27.7514
 30
0.0
 10
0.3794
 20
27.6244
 30
0.0
 10
0.3516
 20
27.5068
 30
0.0
 10
0.297
 20
27.3976
 30
0.0
 10
0.297
 20
27.3976
 30
0.0
 10
0.2425
 20
27.289
 30
0.0
 10
0.1672
 20
27.2053
 30
0.0
 10
0.0717
 20
27.1474
 30
0.0
 10
0.0717
 20
27.1474
 30
0.0
 10
-0.0237
 20
27.0896
 30
0.0
 10
-0.1319
 20
27.0609
 30
0.0
 10
-0.2533
 20
27.0609
 30
0.0
 10
-0.2533
 20
27.0609
 30
0.0
 10
-0.4602
 20
27.0609
 30
0.0
 10
-0.6286
 20
27.1366
 30
0.0
 10
-0.7589
 20
27.289
 30
0.0
 10
-0.7589
 20
27.289
 30
0.0
 10
-0.8897
 20
27.4409
 30
0.0
 10
-0.9546
 20
27.6916
 30
0.0
 10
-0.9546
 20
28.0406
 30
0.0
 10
-0.9546
 20
28.0406
 30
0.0
 10
-0.9546
 20
28.431
 30
0.0
 10
-0.8826
 20
28.7147
 30
0.0
 10
-0.7382
 20
28.892
 30
0.0
 10
-0.7382
 20
28.892
 30
0.0
 10
-0.6126
 20
29.0463
 30
0.0
 10
-0.4433
 20
29.1239
 30
0.0
 10
-0.2298
 20
29.1239
 30
0.0
 10
-0.2298
 20
29.1239
 30
0.0
 10
-0.0712
 20
29.1239
 30
0.0
 10
0.059
 20
29.0792
 30
0.0
 10
0.1606
 20
28.9898
 30
0.0
 10
0.1606
 20
28.9898
 30
0.0
 10
0.2622
 20
28.9009
 30
0.0
 10
0.3229
 20
28.7777
 30
0.0
 10
0.3431
 20
28.6206
 30
0.0
  0
SPLINE
  5
DA
330
1F
100
AcDbEntity
  8
VRSTVA_1
 62
   250
100
AcDbSpline
210
0.0
220
0.0
230
1.0
 70
    11
 71
     3
 72
    40
 73
    36
 74
     0
 42
0.0000000001
 43
0.0000000001
 40
0.0
 40
0.0
 40
0.0
 40
0.0
 40
0.1
 40
0.1
 40
0.1
 40
0.1
 40
0.2
 40
0.2
 40
0.2
 40
0.2
 40
0.3
 40
0.3
 40
0.3
 40
0.3
 40
0.4
 40
0.4
 40
0.4
 40
0.4
 40
0.5
 40
0.5
 40
0.5
 40
0.5
 40
0.6
 40
0.6
 40
0.6
 40
0.6
 40
0.7
 40
0.7
 40
0.7
 40
0.7
 40
0.8
 40
0.8
 40
0.8
 40
0.8
 40
1.0
 40
1.0
 40
1.0
 40
1.0
 10
-0.6696
 20
27.75
 30
0.0
 10
-0.6696
 20
27.6643
 30
0.0
 10
-0.6512
 20
27.5825
 30
0.0
 10
-0.615
 20
27.5044
 30
0.0
 10
-0.615
 20
27.5044
 30
0.0
 10
-0.5788
 20
27.4263
 30
0.0
 10
-0.528
 20
27.3671
 30
0.0
 10
-0.4631
 20
27.3262
 30
0.0
 10
-0.4631
 20
27.3262
 30
0.0
 10
-0.3977
 20
27.2852
 30
0.0
 10
-0.329
 20
27.2645
 30
0.0
 10
-0.2575
 20
27.2645
 30
0.0
 10
-0.2575
 20
27.2645
 30
0.0
 10
-0.1526
 20
27.2645
 30
0.0
 10
-0.0628
 20
27.3069
 30
0.0
 10
0.0125
 20
27.3915
 30
0.0
 10
0.0125
 20
27.3915
 30
0.0
 10
0.0877
 20
27.4762
 30
0.0
 10
0.1254
 20
27.591
 30
0.0
 10
0.1254
 20
27.7358
 30
0.0
 10
0.1254
 20
27.7358
 30
0.0
 10
0.1254
 20
27.8755
 30
0.0
 10
0.0882
 20
27.9856
 30
0.0
 10
0.0139
 20
28.066
 30
0.0
 10
0.0139
 20
28.066
 30
0.0
 10
-0.0604
 20
28.1465
 30
0.0
 10
-0.154
 20
28.1865
 30
0.0
 10
-0.2669
 20
28.1865
 30
0.0
 10
-0.2669
 20
28.1865
 30
0.0
 10
-0.3793
 20
28.1865
 30
0.0
 10
-0.4744
 20
28.1465
 30
0.0
 10
-0.5524
 20
28.066
 30
0.0
 10
-0.5524
 20
28.066
 30
0.0
 10
-0.6305
 20
27.9856
 30
0.0
 10
-0.6696
 20
27.8802
 30
0.0
 10
-0.6696
 20
27.75
 30
0.0
  0
SPLINE
  5
DB
330
1F
100
AcDbEntity
  8
VRSTVA_1
 62
   250
100
AcDbSpline
210
0.0
220
0.0
230
1.0
 70
    11
 71
     3
 72
    20
 73
    16
 74
     0
 42
0.0000000001
 43
0.0000000001
 40
0.0
 40
0.0
 40
0.0
 40
0.0
 40
0.2
 40
0.2
 40
0.2
 40
0.2
 40
0.4
 40
0.4
 40
0.4
 40
0.4
 40
0.6
 40
0.6
 40
0.6
 40
0.6
 40
1.0
 40
1.0
 40
1.0
 40
1.0
 10
12.4979
 20
27.0263
 30
0.0
 10
12.4979
 20
27.0263
 30
0.0
 10
15.623
 20
26.5853
 30
0.0
 10
15.623
 20
26.5853
 30
0.0
 10
15.623
 20
26.5853
 30
0.0
 10
15.623
 20
26.5853
 30
0.0
 10
15.623
 20
26.4874
 30
0.0
 10
15.623
 20
26.4874
 30
0.0
 10
15.623
 20
26.4874
 30
0.0
 10
15.623
 20
26.4874
 30
0.0
 10
12.4979
 20
26.017
 30
0.0
 10
12.4979
 20
26.017
 30
0.0
 10
12.4979
 20
26.017
 30
0.0
 10
12.4979
 20
26.017
 30
0.0
 10
12.4979
 20
27.0263
 30
0.0
 10
12.4979
 20
27.0263
 30
0.0
  0
SPLINE
  5
DC
330
1F
100
AcDbEntity
  8
VRSTVA_1
 62
   250
100
AcDbSpline
210
0.0
220
0.0
230
1.0
 70
    11
 71
     3
 72
    20
 73
    16
 74
     0
 42
0.0000000001
 43
0.0000000001
 40
0.0
 40
0.0
 40
0.0
 40
0.0
 40
0.2
 40
0.2
 40
0.2
 40
0.2
 40
0.4
 40
0.4
 40
0.4
 40
0.4
 40
0.6
 40
0.6
 40
0.6
 40
0.6
 40
1.0
 40
1.0
 40
1.0
 40
1.0
 10
-17.1003
 20
25.9292
 30
0.0
 10
-17.1003
 20
25.9292
 30
0.0
 10
-20.2253
 20
26.3702
 30
0.0
 10
-20.2253
 20
26.3702
 30
0.0
 10
-20.2253
 20
26.3702
 30
0.0
 10
-20.2253
 20
26.3702
 30
0.0
 10
-20.2253
 20
26.4682
 30
0.0
 10
-20.2253
 20
26.4682
 30
0.0
 10
-20.2253
 20
26.4682
 30
0.0
 10
-20.2253
 20
26.4682
 30
0.0
 10
-17.1003
 20
26.9385
 30
0.0
 10
-17.1003
 20
26.9385
 30
0.0
 10
-17.1003
 20
26.9385
 30
0.0
 10
-17.1003
 20
26.9385
 30
0.0
 10
-17.1003
 20
25.9292
 30
0.0
 10
-17.1003
 20
25.9292
 30
0.0
  0
SPLINE
  5
DD
330
1F
100
AcDbEntity
  8
VRSTVA_1
 62
   250
100
AcDbSpline
210
0.0
220
0.0
230
1.0
 70
    11
 71
     3
 72
    20
 73
    16
 74
     0
 42
0.0000000001
 43
0.0000000001
 40
0.0
 40
0.0
 40
0.0
 40
0.0
 40
0.2
 40
0.2
 40
0.2
 40
0.2
 40
0.4
 40
0.4
 40
0.4
 40
0.4
 40
0.6
 40
0.6
 40
0.6
 40
0.6
 40
1.0
 40
1.0
 40
1.0
 40
1.0
 10
-32.5892
 20
0.0211
 30
0.0
 10
-32.5892
 20
0.0211
 30
0.0
 10
-32.1482
 20
3.1461
 30
0.0
 10
-32.1482
 20
3.1461
 30
0.0
 10
-32.1482
 20
3.1461
 30
0.0
 10
-32.1482
 20
3.1461
 30
0.0
 10
-32.0502
 20
3.1461
 30
0.0
 10
-32.0502
 20
3.1461
 30
0.0
 10
-32.0502
 20
3.1461
 30
0.0
 10
-32.0502
 20
3.1461
 30
0.0
 10
-31.5799
 20
0.0211
 30
0.0
 10
-31.5799
 20
0.0211
 30
0.0
 10
-31.5799
 20
0.0211
 30
0.0
 10
-31.5799
 20
0.0211
 30
0.0
 10
-32.5892
 20
0.0211
 30
0.0
 10
-32.5892
 20
0.0211
 30
0.0
  0
SPLINE
  5
DE
330
1F
100
AcDbEntity
  8
VRSTVA_1
 62
   250
100
AcDbSpline
210
0.0
220
0.0
230
1.0
 70
    11
 71
     3
 72
    20
 73
    16
 74
     0
 42
0.0000000001
 43
0.0000000001
 40
0.0
 40
0.0
 40
0.0
 40
0.0
 40
0.2
 40
0.2
 40
0.2
 40
0.2
 40
0.4
 40
0.4
 40
0.4
 40
0.4
 40
0.6
 40
0.6
 40
0.6
 40
0.6
 40
1.0
 40
1.0
 40
1.0
 40
1.0
 10
-31.5736
 20
-25.9953
 30
0.0
 10
-31.5736
 20
-25.9953
 30
0.0
 10
-32.0146
 20
-29.1203
 30
0.0
 10
-32.0146
 20
-29.1203
 30
0.0
 10
-32.0146
 20
-29.1203
 30
0.0
 10
-32.0146
 20
-29.1203
 30
0.0
 10
-32.1126
 20
-29.1203
 30
0.0
 10
-32.1126
 20
-29.1203
 30
0.0
 10
-32.1126
 20
-29.1203
 30
0.0
 10
-32.1126
 20
-29.1203
 30
0.0
 10
-32.5829
 20
-25.9953
 30
0.0
 10
-32.5829
 20
-25.9953
 30
0.0
 10
-32.5829
 20
-25.9953
 30
0.0
 10
-32.5829
 20
-25.9953
 30
0.0
 10
-31.5736
 20
-25.9953
 30
0.0
 10
-31.5736
 20
-25.9953
 30
0.0
  0
SPLINE
  5
DF
330
1F
100
AcDbEntity
  8
VRSTVA_1
 62
   250
100
AcDbSpline
210
0.0
220
0.0
230
1.0
 70
    11
 71
     3
 72
    48
 73
    44
 74
     0
 42
0.0000000001
 43
0.0000000001
 40
0.0
 40
0.0
 40
0.0
 40
0.0
 40
0.0833333333333333
 40
0.0833333333333333
 40
0.0833333333333333
 40
0.0833333333333333
 40
0.1666666666666667
 40
0.1666666666666667
 40
0.1666666666666667
 40
0.1666666666666667
 40
0.25
 40
0.25
 40
0.25
 40
0.25
 40
0.3333333333333333
 40
0.3333333333333333
 40
0.3333333333333333
 40
0.3333333333333333
 40
0.4166666666666667
 40
0.4166666666666667
 40
0.4166666666666667
 40
0.4166666666666667
 40
0.5
 40
0.5
 40
0.5
 40
0.5
 40
0.5833333333333334
 40
0.5833333333333334
 40
0.5833333333333334
 40
0.5833333333333334
 40
0.6666666666666666
 40
0.6666666666666666
 40
0.6666666666666666
 40
0.6666666666666666
 40
0.75
 40
0.75
 40
0.75
 40
0.75
 40
0.8333333333333334
 40
0.8333333333333334
 40
0.8333333333333334
 40
0.8333333333333334
 40
1.0
 40
1.0
 40
1.0
 40
1.0
 10
-34.5134
 20
-14.8892
 30
0.0
 10
-34.5134
 20
-14.8892
 30
0.0
 10
-34.7519
 20
-14.8892
 30
0.0
 10
-34.7519
 20
-14.8892
 30
0.0
 10
-34.7519
 20
-14.8892
 30
0.0
 10
-34.7519
 20
-14.8892
 30
0.0
 10
-34.7519
 20
-13.5816
 30
0.0
 10
-34.7519
 20
-13.5816
 30
0.0
 10
-34.7519
 20
-13.5816
 30
0.0
 10
-34.7519
 20
-13.5816
 30
0.0
 10
-34.5591
 20
-13.5816
 30
0.0
 10
-34.5591
 20
-13.5816
 30
0.0
 10
-34.5591
 20
-13.5816
 30
0.0
 10
-34.4222
 20
-13.7101
 30
0.0
 10
-34.2402
 20
-13.8375
 30
0.0
 10
-34.0135
 20
-13.964
 30
0.0
 10
-34.0135
 20
-13.964
 30
0.0
 10
-33.7868
 20
-14.0901
 30
0.0
 10
-33.553
 20
-14.1879
 30
0.0
 10
-33.3136
 20
-14.2566
 30
0.0
 10
-33.3136
 20
-14.2566
 30
0.0
 10
-33.1443
 20
-14.3065
 30
0.0
 10
-32.9594
 20
-14.338
 30
0.0
 10
-32.7581
 20
-14.3516
 30
0.0
 10
-32.7581
 20
-14.3516
 30
0.0
 10
-32.7581
 20
-14.3516
 30
0.0
 10
-32.7581
 20
-14.6065
 30
0.0
 10
-32.7581
 20
-14.6065
 30
0.0
 10
-32.7581
 20
-14.6065
 30
0.0
 10
-32.9171
 20
-14.6037
 30
0.0
 10
-33.109
 20
-14.5727
 30
0.0
 10
-33.3343
 20
-14.5129
 30
0.0
 10
-33.3343
 20
-14.5129
 30
0.0
 10
-33.5591
 20
-14.4532
 30
0.0
 10
-33.7764
 20
-14.3676
 30
0.0
 10
-33.9852
 20
-14.2561
 30
0.0
 10
-33.9852
 20
-14.2561
 30
0.0
 10
-34.1941
 20
-14.1442
 30
0.0
 10
-34.3705
 20
-14.0257
 30
0.0
 10
-34.5134
 20
-13.8996
 30
0.0
 10
-34.5134
 20
-13.8996
 30
0.0
 10
-34.5134
 20
-13.8996
 30
0.0
 10
-34.5134
 20
-14.8892
 30
0.0
 10
-34.5134
 20
-14.8892
 30
0.0
  0
SPLINE
  5
E0
330
1F
100
AcDbEntity
  8
VRSTVA_1
 62
   250
100
AcDbSpline
210
0.0
220
0.0
230
1.0
 70
    11
 71
     3
 72
    92
 73
    88
 74
     0
 42
0.0000000001
 43
0.0000000001
 40
0.0
 40
0.0
 40
0.0
 40
0.0
 40
0.0434782608695652
 40
0.0434782608695652
 40
0.0434782608695652
 40
0.0434782608695652
 40
0.0869565217391304
 40
0.0869565217391304
 40
0.0869565217391304
 40
0.0869565217391304
 40
0.1304347826086956
 40
0.1304347826086956
 40
0.1304347826086956
 40
0.1304347826086956
 40
0.1739130434782609
 40
0.1739130434782609
 40
0.1739130434782609
 40
0.1739130434782609
 40
0.2173913043478261
 40
0.2173913043478261
 40
0.2173913043478261
 40
0.2173913043478261
 40
0.2608695652173913
 40
0.2608695652173913
 40
0.2608695652173913
 40
0.2608695652173913
 40
0.3043478260869565
 40
0.3043478260869565
 40
0.3043478260869565
 40
0.3043478260869565
 40
0.3478260869565217
 40
0.3478260869565217
 40
0.3478260869565217
 40
0.3478260869565217
 40
0.391304347826087
 40
0.391304347826087
 40
0.391304347826087
 40
0.391304347826087
 40
0.4347826086956522
 40
0.4347826086956522
 40
0.4347826086956522
 40
0.4347826086956522
 40
0.4782608695652174
 40
0.4782608695652174
 40
0.4782608695652174
 40
0.4782608695652174
 40
0.5217391304347826
 40
0.5217391304347826
 40
0.5217391304347826
 40
0.5217391304347826
 40
0.5652173913043478
 40
0.5652173913043478
 40
0.5652173913043478
 40
0.5652173913043478
 40
0.6086956521739131
 40
0.6086956521739131
 40
0.6086956521739131
 40
0.6086956521739131
 40
0.6521739130434783
 40
0.6521739130434783
 40
0.6521739130434783
 40
0.6521739130434783
 40
0.6956521739130435
 40
0.6956521739130435
 40
0.6956521739130435
 40
0.6956521739130435
 40
0.7391304347826086
 40
0.7391304347826086
 40
0.7391304347826086
 40
0.7391304347826086
 40
0.782608695652174
 40
0.782608695652174
 40
0.782608695652174
 40
0.782608695652174
 40
0.8260869565217391
 40
0.8260869565217391
 40
0.8260869565217391
 40
0.8260869565217391
 40
0.8695652173913043
 40
0.8695652173913043
 40
0.8695652173913043
 40
0.8695652173913043
 40
0.9130434782608695
 40
0.9130434782608695
 40
0.9130434782608695
 40
0.9130434782608695
 40
1.0
 40
1.0
 40
1.0
 40
1.0
 10
-32.9966
 20
-12.0323
 30
0.0
 10
-32.9966
 20
-12.0323
 30
0.0
 10
-32.7581
 20
-12.0323
 30
0.0
 10
-32.7581
 20
-12.0323
 30
0.0
 10
-32.7581
 20
-12.0323
 30
0.0
 10
-32.7581
 20
-12.0323
 30
0.0
 10
-32.7581
 20
-13.3676
 30
0.0
 10
-32.7581
 20
-13.3676
 30
0.0
 10
-32.7581
 20
-13.3676
 30
0.0
 10
-32.8178
 20
-13.3695
 30
0.0
 10
-32.8752
 20
-13.3601
 30
0.0
 10
-32.9302
 20
-13.3389
 30
0.0
 10
-32.9302
 20
-13.3389
 30
0.0
 10
-33.0215
 20
-13.305
 30
0.0
 10
-33.1109
 20
-13.2505
 30
0.0
 10
-33.1993
 20
-13.1757
 30
0.0
 10
-33.1993
 20
-13.1757
 30
0.0
 10
-33.2872
 20
-13.1004
 30
0.0
 10
-33.3893
 20
-12.9923
 30
0.0
 10
-33.505
 20
-12.8512
 30
0.0
 10
-33.505
 20
-12.8512
 30
0.0
 10
-33.6852
 20
-12.6315
 30
0.0
 10
-33.8277
 20
-12.4829
 30
0.0
 10
-33.933
 20
-12.4057
 30
0.0
 10
-33.933
 20
-12.4057
 30
0.0
 10
-34.0379
 20
-12.3286
 30
0.0
 10
-34.1376
 20
-12.29
 30
0.0
 10
-34.2312
 20
-12.29
 30
0.0
 10
-34.2312
 20
-12.29
 30
0.0
 10
-34.3295
 20
-12.29
 30
0.0
 10
-34.4123
 20
-12.3253
 30
0.0
 10
-34.4801
 20
-12.3954
 30
0.0
 10
-34.4801
 20
-12.3954
 30
0.0
 10
-34.5473
 20
-12.4659
 30
0.0
 10
-34.5812
 20
-12.5577
 30
0.0
 10
-34.5812
 20
-12.6705
 30
0.0
 10
-34.5812
 20
-12.6705
 30
0.0
 10
-34.5812
 20
-12.79
 30
0.0
 10
-34.5454
 20
-12.8855
 30
0.0
 10
-34.4735
 20
-12.957
 30
0.0
 10
-34.4735
 20
-12.957
 30
0.0
 10
-34.402
 20
-13.0289
 30
0.0
 10
-34.3027
 20
-13.0652
 30
0.0
 10
-34.1762
 20
-13.0661
 30
0.0
 10
-34.1762
 20
-13.0661
 30
0.0
 10
-34.1762
 20
-13.0661
 30
0.0
 10
-34.2021
 20
-13.321
 30
0.0
 10
-34.2021
 20
-13.321
 30
0.0
 10
-34.2021
 20
-13.321
 30
0.0
 10
-34.3926
 20
-13.3036
 30
0.0
 10
-34.5374
 20
-13.2378
 30
0.0
 10
-34.6371
 20
-13.124
 30
0.0
 10
-34.6371
 20
-13.124
 30
0.0
 10
-34.7369
 20
-13.0101
 30
0.0
 10
-34.7867
 20
-12.8568
 30
0.0
 10
-34.7867
 20
-12.6649
 30
0.0
 10
-34.7867
 20
-12.6649
 30
0.0
 10
-34.7867
 20
-12.4711
 30
0.0
 10
-34.7326
 20
-12.3178
 30
0.0
 10
-34.6254
 20
-12.2049
 30
0.0
 10
-34.6254
 20
-12.2049
 30
0.0
 10
-34.5177
 20
-12.0915
 30
0.0
 10
-34.3846
 20
-12.0351
 30
0.0
 10
-34.2256
 20
-12.0351
 30
0.0
 10
-34.2256
 20
-12.0351
 30
0.0
 10
-34.1447
 20
-12.0351
 30
0.0
 10
-34.0652
 20
-12.0516
 30
0.0
 10
-33.9871
 20
-12.085
 30
0.0
 10
-33.9871
 20
-12.085
 30
0.0
 10
-33.909
 20
-12.1179
 30
0.0
 10
-33.8267
 20
-12.1729
 30
0.0
 10
-33.7407
 20
-12.2496
 30
0.0
 10
-33.7407
 20
-12.2496
 30
0.0
 10
-33.6541
 20
-12.3262
 30
0.0
 10
-33.5356
 20
-12.4537
 30
0.0
 10
-33.3851
 20
-12.632
 30
0.0
 10
-33.3851
 20
-12.632
 30
0.0
 10
-33.26
 20
-12.7806
 30
0.0
 10
-33.1753
 20
-12.8761
 30
0.0
 10
-33.1306
 20
-12.9184
 30
0.0
 10
-33.1306
 20
-12.9184
 30
0.0
 10
-33.0864
 20
-12.9607
 30
0.0
 10
-33.0417
 20
-12.9955
 30
0.0
 10
-32.9966
 20
-13.0233
 30
0.0
 10
-32.9966
 20
-13.0233
 30
0.0
 10
-32.9966
 20
-13.0233
 30
0.0
 10
-32.9966
 20
-12.0323
 30
0.0
 10
-32.9966
 20
-12.0323
 30
0.0
  0
SPLINE
  5
E1
330
1F
100
AcDbEntity
  8
VRSTVA_1
 62
   250
100
AcDbSpline
210
0.0
220
0.0
230
1.0
 70
    24
 71
     3
 72
     8
 73
     4
 74
     0
 42
0.0000000001
 43
0.0000000001
 40
0.0
 40
0.0
 40
0.0
 40
0.0
 40
1.0
 40
1.0
 40
1.0
 40
1.0
 10
7.3673
 20
18.0785
 30
0.0
 10
7.3673
 20
18.0785
 30
0.0
 10
-11.8615
 20
18.0785
 30
0.0
 10
-11.8615
 20
18.0785
 30
0.0
  0
SPLINE
  5
E2
330
1F
100
AcDbEntity
  8
VRSTVA_1
 62
   250
100
AcDbSpline
210
0.0
220
0.0
230
1.0
 70
    11
 71
     3
 72
   120
 73
   116
 74
     0
 42
0.0000000001
 43
0.0000000001
 40
0.0
 40
0.0
 40
0.0
 40
0.0
 40
0.0333333333333333
 40
0.0333333333333333
 40
0.0333333333333333
 40
0.0333333333333333
 40
0.0666666666666667
 40
0.0666666666666667
 40
0.0666666666666667
 40
0.0666666666666667
 40
0.1
 40
0.1
 40
0.1
 40
0.1
 40
0.1333333333333333
 40
0.1333333333333333
 40
0.1333333333333333
 40
0.1333333333333333
 40
0.1666666666666667
 40
0.1666666666666667
 40
0.1666666666666667
 40
0.1666666666666667
 40
0.2
 40
0.2
 40
0.2
 40
0.2
 40
0.2333333333333333
 40
0.2333333333333333
 40
0.2333333333333333
 40
0.2333333333333333
 40
0.2666666666666667
 40
0.2666666666666667
 40
0.2666666666666667
 40
0.2666666666666667
 40
0.3
 40
0.3
 40
0.3
 40
0.3
 40
0.3333333333333333
 40
0.3333333333333333
 40
0.3333333333333333
 40
0.3333333333333333
 40
0.3666666666666666
 40
0.3666666666666666
 40
0.3666666666666666
 40
0.3666666666666666
 40
0.4
 40
0.4
 40
0.4
 40
0.4
 40
0.4333333333333333
 40
0.4333333333333333
 40
0.4333333333333333
 40
0.4333333333333333
 40
0.4666666666666667
 40
0.4666666666666667
 40
0.4666666666666667
 40
0.4666666666666667
 40
0.5
 40
0.5
 40
0.5
 40
0.5
 40
0.5333333333333333
 40
0.5333333333333333
 40
0.5333333333333333
 40
0.5333333333333333
 40
0.5666666666666667
 40
0.5666666666666667
 40
0.5666666666666667
 40
0.5666666666666667
 40
0.6
 40
0.6
 40
0.6
 40
0.6
 40
0.6333333333333333
 40
0.6333333333333333
 40
0.6333333333333333
 40
0.6333333333333333
 40
0.6666666666666666
 40
0.6666666666666666
 40
0.6666666666666666
 40
0.6666666666666666
 40
0.7
 40
0.7
 40
0.7
 40
0.7
 40
0.7333333333333333
 40
0.7333333333333333
 40
0.7333333333333333
 40
0.7333333333333333
 40
0.7666666666666667
 40
0.7666666666666667
 40
0.7666666666666667
 40
0.7666666666666667
 40
0.8
 40
0.8
 40
0.8
 40
0.8
 40
0.8333333333333334
 40
0.8333333333333334
 40
0.8333333333333334
 40
0.8333333333333334
 40
0.8666666666666667
 40
0.8666666666666667
 40
0.8666666666666667
 40
0.8666666666666667
 40
0.9
 40
0.9
 40
0.9
 40
0.9
 40
0.9333333333333333
 40
0.9333333333333333
 40
0.9333333333333333
 40
0.9333333333333333
 40
1.0
 40
1.0
 40
1.0
 40
1.0
 10
-8.5194
 20
19.8906
 30
0.0
 10
-8.5194
 20
19.8906
 30
0.0
 10
-8.5194
 20
20.1272
 30
0.0
 10
-8.5194
 20
20.1272
 30
0.0
 10
-8.5194
 20
20.1272
 30
0.0
 10
-8.5194
 20
20.1272
 30
0.0
 10
-7.6638
 20
20.1286
 30
0.0
 10
-7.6638
 20
20.1286
 30
0.0
 10
-7.6638
 20
20.1286
 30
0.0
 10
-7.6638
 20
20.1286
 30
0.0
 10
-7.6638
 20
19.3793
 30
0.0
 10
-7.6638
 20
19.3793
 30
0.0
 10
-7.6638
 20
19.3793
 30
0.0
 10
-7.795
 20
19.2744
 30
0.0
 10
-7.9305
 20
19.1958
 30
0.0
 10
-8.0702
 20
19.1427
 30
0.0
 10
-8.0702
 20
19.1427
 30
0.0
 10
-8.2099
 20
19.09
 30
0.0
 10
-8.3533
 20
19.0637
 30
0.0
 10
-8.5001
 20
19.0637
 30
0.0
 10
-8.5001
 20
19.0637
 30
0.0
 10
-8.6986
 20
19.0637
 30
0.0
 10
-8.8792
 20
19.106
 30
0.0
 10
-9.041
 20
19.1911
 30
0.0
 10
-9.041
 20
19.1911
 30
0.0
 10
-9.2033
 20
19.2758
 30
0.0
 10
-9.3256
 20
19.399
 30
0.0
 10
-9.4084
 20
19.5594
 30
0.0
 10
-9.4084
 20
19.5594
 30
0.0
 10
-9.4912
 20
19.7203
 30
0.0
 10
-9.5326
 20
19.9
 30
0.0
 10
-9.5326
 20
20.0985
 30
0.0
 10
-9.5326
 20
20.0985
 30
0.0
 10
-9.5326
 20
20.2951
 30
0.0
 10
-9.4912
 20
20.4785
 30
0.0
 10
-9.4088
 20
20.6488
 30
0.0
 10
-9.4088
 20
20.6488
 30
0.0
 10
-9.327
 20
20.8195
 30
0.0
 10
-9.2085
 20
20.9461
 30
0.0
 10
-9.0542
 20
21.0289
 30
0.0
 10
-9.0542
 20
21.0289
 30
0.0
 10
-8.8999
 20
21.1112
 30
0.0
 10
-8.7221
 20
21.1526
 30
0.0
 10
-8.5208
 20
21.1526
 30
0.0
 10
-8.5208
 20
21.1526
 30
0.0
 10
-8.375
 20
21.1526
 30
0.0
 10
-8.2428
 20
21.129
 30
0.0
 10
-8.1247
 20
21.0815
 30
0.0
 10
-8.1247
 20
21.0815
 30
0.0
 10
-8.0067
 20
21.0345
 30
0.0
 10
-7.914
 20
20.9686
 30
0.0
 10
-7.8472
 20
20.884
 30
0.0
 10
-7.8472
 20
20.884
 30
0.0
 10
-7.78
 20
20.7993
 30
0.0
 10
-7.7292
 20
20.6893
 30
0.0
 10
-7.6939
 20
20.5533
 30
0.0
 10
-7.6939
 20
20.5533
 30
0.0
 10
-7.6939
 20
20.5533
 30
0.0
 10
-7.9352
 20
20.487
 30
0.0
 10
-7.9352
 20
20.487
 30
0.0
 10
-7.9352
 20
20.487
 30
0.0
 10
-7.9658
 20
20.59
 30
0.0
 10
-8.0034
 20
20.6709
 30
0.0
 10
-8.0481
 20
20.7297
 30
0.0
 10
-8.0481
 20
20.7297
 30
0.0
 10
-8.0932
 20
20.7885
 30
0.0
 10
-8.1577
 20
20.8355
 30
0.0
 10
-8.2414
 20
20.8708
 30
0.0
 10
-8.2414
 20
20.8708
 30
0.0
 10
-8.3247
 20
20.9061
 30
0.0
 10
-8.4178
 20
20.924
 30
0.0
 10
-8.5194
 20
20.924
 30
0.0
 10
-8.5194
 20
20.924
 30
0.0
 10
-8.6417
 20
20.924
 30
0.0
 10
-8.7475
 20
20.9051
 30
0.0
 10
-8.8364
 20
20.868
 30
0.0
 10
-8.8364
 20
20.868
 30
0.0
 10
-8.9258
 20
20.8308
 30
0.0
 10
-8.9973
 20
20.7819
 30
0.0
 10
-9.0523
 20
20.7212
 30
0.0
 10
-9.0523
 20
20.7212
 30
0.0
 10
-9.1069
 20
20.6606
 30
0.0
 10
-9.1492
 20
20.5942
 30
0.0
 10
-9.1798
 20
20.5213
 30
0.0
 10
-9.1798
 20
20.5213
 30
0.0
 10
-9.231
 20
20.3967
 30
0.0
 10
-9.2569
 20
20.2612
 30
0.0
 10
-9.2569
 20
20.1149
 30
0.0
 10
-9.2569
 20
20.1149
 30
0.0
 10
-9.2569
 20
19.9348
 30
0.0
 10
-9.2259
 20
19.7843
 30
0.0
 10
-9.1638
 20
19.6629
 30
0.0
 10
-9.1638
 20
19.6629
 30
0.0
 10
-9.1017
 20
19.5416
 30
0.0
 10
-9.0114
 20
19.4517
 30
0.0
 10
-8.8929
 20
19.3929
 30
0.0
 10
-8.8929
 20
19.3929
 30
0.0
 10
-8.7743
 20
19.3341
 30
0.0
 10
-8.6487
 20
19.3045
 30
0.0
 10
-8.5156
 20
19.3045
 30
0.0
 10
-8.5156
 20
19.3045
 30
0.0
 10
-8.3994
 20
19.3045
 30
0.0
 10
-8.2866
 20
19.3271
 30
0.0
 10
-8.1765
 20
19.3718
 30
0.0
 10
-8.1765
 20
19.3718
 30
0.0
 10
-8.0659
 20
19.416
 30
0.0
 10
-7.9827
 20
19.4635
 30
0.0
 10
-7.9258
 20
19.5143
 30
0.0
 10
-7.9258
 20
19.5143
 30
0.0
 10
-7.9258
 20
19.5143
 30
0.0
 10
-7.9258
 20
19.8906
 30
0.0
 10
-7.9258
 20
19.8906
 30
0.0
 10
-7.9258
 20
19.8906
 30
0.0
 10
-7.9258
 20
19.8906
 30
0.0
 10
-8.5194
 20
19.8906
 30
0.0
 10
-8.5194
 20
19.8906
 30
0.0
  0
SPLINE
  5
E3
330
1F
100
AcDbEntity
  8
VRSTVA_1
 62
   250
100
AcDbSpline
210
0.0
220
0.0
230
1.0
 70
    11
 71
     3
 72
    80
 73
    76
 74
     0
 42
0.0000000001
 43
0.0000000001
 40
0.0
 40
0.0
 40
0.0
 40
0.0
 40
0.05
 40
0.05
 40
0.05
 40
0.05
 40
0.1
 40
0.1
 40
0.1
 40
0.1
 40
0.15
 40
0.15
 40
0.15
 40
0.15
 40
0.2
 40
0.2
 40
0.2
 40
0.2
 40
0.25
 40
0.25
 40
0.25
 40
0.25
 40
0.3
 40
0.3
 40
0.3
 40
0.3
 40
0.35
 40
0.35
 40
0.35
 40
0.35
 40
0.4
 40
0.4
 40
0.4
 40
0.4
 40
0.45
 40
0.45
 40
0.45
 40
0.45
 40
0.5
 40
0.5
 40
0.5
 40
0.5
 40
0.55
 40
0.55
 40
0.55
 40
0.55
 40
0.6
 40
0.6
 40
0.6
 40
0.6
 40
0.65
 40
0.65
 40
0.65
 40
0.65
 40
0.7
 40
0.7
 40
0.7
 40
0.7
 40
0.75
 40
0.75
 40
0.75
 40
0.75
 40
0.8
 40
0.8
 40
0.8
 40
0.8
 40
0.85
 40
0.85
 40
0.85
 40
0.85
 40
0.9
 40
0.9
 40
0.9
 40
0.9
 40
1.0
 40
1.0
 40
1.0
 40
1.0
 10
-6.0834
 20
20.6234
 30
0.0
 10
-6.0834
 20
20.6234
 30
0.0
 10
-6.3298
 20
20.6041
 30
0.0
 10
-6.3298
 20
20.6041
 30
0.0
 10
-6.3298
 20
20.6041
 30
0.0
 10
-6.3519
 20
20.7015
 30
0.0
 10
-6.383
 20
20.7725
 30
0.0
 10
-6.4234
 20
20.8162
 30
0.0
 10
-6.4234
 20
20.8162
 30
0.0
 10
-6.4907
 20
20.8873
 30
0.0
 10
-6.5735
 20
20.9226
 30
0.0
 10
-6.6718
 20
20.9226
 30
0.0
 10
-6.6718
 20
20.9226
 30
0.0
 10
-6.7508
 20
20.9226
 30
0.0
 10
-6.8199
 20
20.9004
 30
0.0
 10
-6.8797
 20
20.8562
 30
0.0
 10
-6.8797
 20
20.8562
 30
0.0
 10
-6.9578
 20
20.7993
 30
0.0
 10
-7.0194
 20
20.7161
 30
0.0
 10
-7.0645
 20
20.6069
 30
0.0
 10
-7.0645
 20
20.6069
 30
0.0
 10
-7.1092
 20
20.4978
 30
0.0
 10
-7.1327
 20
20.3421
 30
0.0
 10
-7.1346
 20
20.1399
 30
0.0
 10
-7.1346
 20
20.1399
 30
0.0
 10
-7.0749
 20
20.2306
 30
0.0
 10
-7.002
 20
20.2984
 30
0.0
 10
-6.9154
 20
20.3426
 30
0.0
 10
-6.9154
 20
20.3426
 30
0.0
 10
-6.8294
 20
20.3863
 30
0.0
 10
-6.7386
 20
20.4084
 30
0.0
 10
-6.644
 20
20.4084
 30
0.0
 10
-6.644
 20
20.4084
 30
0.0
 10
-6.4785
 20
20.4084
 30
0.0
 10
-6.3378
 20
20.3478
 30
0.0
 10
-6.2216
 20
20.2259
 30
0.0
 10
-6.2216
 20
20.2259
 30
0.0
 10
-6.1055
 20
20.1041
 30
0.0
 10
-6.0471
 20
19.947
 30
0.0
 10
-6.0471
 20
19.7542
 30
0.0
 10
-6.0471
 20
19.7542
 30
0.0
 10
-6.0471
 20
19.6272
 30
0.0
 10
-6.0749
 20
19.5096
 30
0.0
 10
-6.1295
 20
19.4004
 30
0.0
 10
-6.1295
 20
19.4004
 30
0.0
 10
-6.184
 20
19.2918
 30
0.0
 10
-6.2593
 20
19.2081
 30
0.0
 10
-6.3548
 20
19.1502
 30
0.0
 10
-6.3548
 20
19.1502
 30
0.0
 10
-6.4502
 20
19.0924
 30
0.0
 10
-6.5584
 20
19.0637
 30
0.0
 10
-6.6798
 20
19.0637
 30
0.0
 10
-6.6798
 20
19.0637
 30
0.0
 10
-6.8867
 20
19.0637
 30
0.0
 10
-7.0551
 20
19.1394
 30
0.0
 10
-7.1854
 20
19.2918
 30
0.0
 10
-7.1854
 20
19.2918
 30
0.0
 10
-7.3162
 20
19.4437
 30
0.0
 10
-7.3811
 20
19.6944
 30
0.0
 10
-7.3811
 20
20.0434
 30
0.0
 10
-7.3811
 20
20.0434
 30
0.0
 10
-7.3811
 20
20.4338
 30
0.0
 10
-7.3091
 20
20.7175
 30
0.0
 10
-7.1647
 20
20.8948
 30
0.0
 10
-7.1647
 20
20.8948
 30
0.0
 10
-7.0391
 20
21.0491
 30
0.0
 10
-6.8698
 20
21.1267
 30
0.0
 10
-6.6563
 20
21.1267
 30
0.0
 10
-6.6563
 20
21.1267
 30
0.0
 10
-6.4977
 20
21.1267
 30
0.0
 10
-6.3675
 20
21.082
 30
0.0
 10
-6.2659
 20
20.9926
 30
0.0
 10
-6.2659
 20
20.9926
 30
0.0
 10
-6.1643
 20
20.9037
 30
0.0
 10
-6.1036
 20
20.7805
 30
0.0
 10
-6.0834
 20
20.6234
 30
0.0
  0
SPLINE
  5
E4
330
1F
100
AcDbEntity
  8
VRSTVA_1
 62
   250
100
AcDbSpline
210
0.0
220
0.0
230
1.0
 70
    11
 71
     3
 72
    40
 73
    36
 74
     0
 42
0.0000000001
 43
0.0000000001
 40
0.0
 40
0.0
 40
0.0
 40
0.0
 40
0.1
 40
0.1
 40
0.1
 40
0.1
 40
0.2
 40
0.2
 40
0.2
 40
0.2
 40
0.3
 40
0.3
 40
0.3
 40
0.3
 40
0.4
 40
0.4
 40
0.4
 40
0.4
 40
0.5
 40
0.5
 40
0.5
 40
0.5
 40
0.6
 40
0.6
 40
0.6
 40
0.6
 40
0.7
 40
0.7
 40
0.7
 40
0.7
 40
0.8
 40
0.8
 40
0.8
 40
0.8
 40
1.0
 40
1.0
 40
1.0
 40
1.0
 10
-7.0961
 20
19.7528
 30
0.0
 10
-7.0961
 20
19.6671
 30
0.0
 10
-7.0777
 20
19.5853
 30
0.0
 10
-7.0415
 20
19.5072
 30
0.0
 10
-7.0415
 20
19.5072
 30
0.0
 10
-7.0053
 20
19.4291
 30
0.0
 10
-6.9545
 20
19.3699
 30
0.0
 10
-6.8896
 20
19.329
 30
0.0
 10
-6.8896
 20
19.329
 30
0.0
 10
-6.8242
 20
19.288
 30
0.0
 10
-6.7555
 20
19.2673
 30
0.0
 10
-6.684
 20
19.2673
 30
0.0
 10
-6.684
 20
19.2673
 30
0.0
 10
-6.5791
 20
19.2673
 30
0.0
 10
-6.4893
 20
19.3097
 30
0.0
 10
-6.414
 20
19.3943
 30
0.0
 10
-6.414
 20
19.3943
 30
0.0
 10
-6.3388
 20
19.479
 30
0.0
 10
-6.3011
 20
19.5938
 30
0.0
 10
-6.3011
 20
19.7386
 30
0.0
 10
-6.3011
 20
19.7386
 30
0.0
 10
-6.3011
 20
19.8783
 30
0.0
 10
-6.3383
 20
19.9884
 30
0.0
 10
-6.4126
 20
20.0688
 30
0.0
 10
-6.4126
 20
20.0688
 30
0.0
 10
-6.4869
 20
20.1493
 30
0.0
 10
-6.5805
 20
20.1893
 30
0.0
 10
-6.6934
 20
20.1893
 30
0.0
 10
-6.6934
 20
20.1893
 30
0.0
 10
-6.8058
 20
20.1893
 30
0.0
 10
-6.9009
 20
20.1493
 30
0.0
 10
-6.9789
 20
20.0688
 30
0.0
 10
-6.9789
 20
20.0688
 30
0.0
 10
-7.057
 20
19.9884
 30
0.0
 10
-7.0961
 20
19.883
 30
0.0
 10
-7.0961
 20
19.7528
 30
0.0
  0
SPLINE
  5
E5
330
1F
100
AcDbEntity
  8
VRSTVA_1
 62
   250
100
AcDbSpline
210
0.0
220
0.0
230
1.0
 70
    11
 71
     3
 72
    20
 73
    16
 74
     0
 42
0.0000000001
 43
0.0000000001
 40
0.0
 40
0.0
 40
0.0
 40
0.0
 40
0.2
 40
0.2
 40
0.2
 40
0.2
 40
0.4
 40
0.4
 40
0.4
 40
0.4
 40
0.6
 40
0.6
 40
0.6
 40
0.6
 40
1.0
 40
1.0
 40
1.0
 40
1.0
 10
-5.9178
 20
19.0637
 30
0.0
 10
-5.9178
 20
19.0637
 30
0.0
 10
-5.3322
 20
21.1526
 30
0.0
 10
-5.3322
 20
21.1526
 30
0.0
 10
-5.3322
 20
21.1526
 30
0.0
 10
-5.3322
 20
21.1526
 30
0.0
 10
-5.1337
 20
21.1526
 30
0.0
 10
-5.1337
 20
21.1526
 30
0.0
 10
-5.1337
 20
21.1526
 30
0.0
 10
-5.1337
 20
21.1526
 30
0.0
 10
-5.7179
 20
19.0637
 30
0.0
 10
-5.7179
 20
19.0637
 30
0.0
 10
-5.7179
 20
19.0637
 30
0.0
 10
-5.7179
 20
19.0637
 30
0.0
 10
-5.9178
 20
19.0637
 30
0.0
 10
-5.9178
 20
19.0637
 30
0.0
  0
SPLINE
  5
E6
330
1F
100
AcDbEntity
  8
VRSTVA_1
 62
   250
100
AcDbSpline
210
0.0
220
0.0
230
1.0
 70
    11
 71
     3
 72
    48
 73
    44
 74
     0
 42
0.0000000001
 43
0.0000000001
 40
0.0
 40
0.0
 40
0.0
 40
0.0
 40
0.0833333333333333
 40
0.0833333333333333
 40
0.0833333333333333
 40
0.0833333333333333
 40
0.1666666666666667
 40
0.1666666666666667
 40
0.1666666666666667
 40
0.1666666666666667
 40
0.25
 40
0.25
 40
0.25
 40
0.25
 40
0.3333333333333333
 40
0.3333333333333333
 40
0.3333333333333333
 40
0.3333333333333333
 40
0.4166666666666667
 40
0.4166666666666667
 40
0.4166666666666667
 40
0.4166666666666667
 40
0.5
 40
0.5
 40
0.5
 40
0.5
 40
0.5833333333333334
 40
0.5833333333333334
 40
0.5833333333333334
 40
0.5833333333333334
 40
0.6666666666666666
 40
0.6666666666666666
 40
0.6666666666666666
 40
0.6666666666666666
 40
0.75
 40
0.75
 40
0.75
 40
0.75
 40
0.8333333333333334
 40
0.8333333333333334
 40
0.8333333333333334
 40
0.8333333333333334
 40
1.0
 40
1.0
 40
1.0
 40
1.0
 10
-4.2217
 20
19.098
 30
0.0
 10
-4.2217
 20
19.098
 30
0.0
 10
-4.2217
 20
19.5815
 30
0.0
 10
-4.2217
 20
19.5815
 30
0.0
 10
-4.2217
 20
19.5815
 30
0.0
 10
-4.2217
 20
19.5815
 30
0.0
 10
-5.098
 20
19.5815
 30
0.0
 10
-5.098
 20
19.5815
 30
0.0
 10
-5.098
 20
19.5815
 30
0.0
 10
-5.098
 20
19.5815
 30
0.0
 10
-5.098
 20
19.8092
 30
0.0
 10
-5.098
 20
19.8092
 30
0.0
 10
-5.098
 20
19.8092
 30
0.0
 10
-5.098
 20
19.8092
 30
0.0
 10
-4.176
 20
21.1182
 30
0.0
 10
-4.176
 20
21.1182
 30
0.0
 10
-4.176
 20
21.1182
 30
0.0
 10
-4.176
 20
21.1182
 30
0.0
 10
-3.9733
 20
21.1182
 30
0.0
 10
-3.9733
 20
21.1182
 30
0.0
 10
-3.9733
 20
21.1182
 30
0.0
 10
-3.9733
 20
21.1182
 30
0.0
 10
-3.9733
 20
19.8092
 30
0.0
 10
-3.9733
 20
19.8092
 30
0.0
 10
-3.9733
 20
19.8092
 30
0.0
 10
-3.9733
 20
19.8092
 30
0.0
 10
-3.7005
 20
19.8092
 30
0.0
 10
-3.7005
 20
19.8092
 30
0.0
 10
-3.7005
 20
19.8092
 30
0.0
 10
-3.7005
 20
19.8092
 30
0.0
 10
-3.7005
 20
19.5815
 30
0.0
 10
-3.7005
 20
19.5815
 30
0.0
 10
-3.7005
 20
19.5815
 30
0.0
 10
-3.7005
 20
19.5815
 30
0.0
 10
-3.9733
 20
19.5815
 30
0.0
 10
-3.9733
 20
19.5815
 30
0.0
 10
-3.9733
 20
19.5815
 30
0.0
 10
-3.9733
 20
19.5815
 30
0.0
 10
-3.9733
 20
19.098
 30
0.0
 10
-3.9733
 20
19.098
 30
0.0
 10
-3.9733
 20
19.098
 30
0.0
 10
-3.9733
 20
19.098
 30
0.0
 10
-4.2217
 20
19.098
 30
0.0
 10
-4.2217
 20
19.098
 30
0.0
  0
SPLINE
  5
E7
330
1F
100
AcDbEntity
  8
VRSTVA_1
 62
   250
100
AcDbSpline
210
0.0
220
0.0
230
1.0
 70
    11
 71
     3
 72
    16
 73
    12
 74
     0
 42
0.0000000001
 43
0.0000000001
 40
0.0
 40
0.0
 40
0.0
 40
0.0
 40
0.25
 40
0.25
 40
0.25
 40
0.25
 40
0.5
 40
0.5
 40
0.5
 40
0.5
 40
1.0
 40
1.0
 40
1.0
 40
1.0
 10
-4.2217
 20
19.8092
 30
0.0
 10
-4.2217
 20
19.8092
 30
0.0
 10
-4.2217
 20
20.7198
 30
0.0
 10
-4.2217
 20
20.7198
 30
0.0
 10
-4.2217
 20
20.7198
 30
0.0
 10
-4.2217
 20
20.7198
 30
0.0
 10
-4.8538
 20
19.8092
 30
0.0
 10
-4.8538
 20
19.8092
 30
0.0
 10
-4.8538
 20
19.8092
 30
0.0
 10
-4.8538
 20
19.8092
 30
0.0
 10
-4.2217
 20
19.8092
 30
0.0
 10
-4.2217
 20
19.8092
 30
0.0
  0
SPLINE
  5
E8
330
1F
100
AcDbEntity
  8
VRSTVA_1
 62
   250
100
AcDbSpline
210
0.0
220
0.0
230
1.0
 70
    11
 71
     3
 72
    28
 73
    24
 74
     0
 42
0.0000000001
 43
0.0000000001
 40
0.0
 40
0.0
 40
0.0
 40
0.0
 40
0.1428571428571428
 40
0.1428571428571428
 40
0.1428571428571428
 40
0.1428571428571428
 40
0.2857142857142857
 40
0.2857142857142857
 40
0.2857142857142857
 40
0.2857142857142857
 40
0.4285714285714285
 40
0.4285714285714285
 40
0.4285714285714285
 40
0.4285714285714285
 40
0.5714285714285714
 40
0.5714285714285714
 40
0.5714285714285714
 40
0.5714285714285714
 40
0.7142857142857143
 40
0.7142857142857143
 40
0.7142857142857143
 40
0.7142857142857143
 40
1.0
 40
1.0
 40
1.0
 40
1.0
 10
-3.3656
 20
20.4028
 30
0.0
 10
-3.3656
 20
20.4028
 30
0.0
 10
-3.4347
 20
20.7876
 30
0.0
 10
-3.4347
 20
20.7876
 30
0.0
 10
-3.4347
 20
20.7876
 30
0.0
 10
-3.4347
 20
20.7876
 30
0.0
 10
-3.4347
 20
21.1182
 30
0.0
 10
-3.4347
 20
21.1182
 30
0.0
 10
-3.4347
 20
21.1182
 30
0.0
 10
-3.4347
 20
21.1182
 30
0.0
 10
-3.1521
 20
21.1182
 30
0.0
 10
-3.1521
 20
21.1182
 30
0.0
 10
-3.1521
 20
21.1182
 30
0.0
 10
-3.1521
 20
21.1182
 30
0.0
 10
-3.1521
 20
20.7876
 30
0.0
 10
-3.1521
 20
20.7876
 30
0.0
 10
-3.1521
 20
20.7876
 30
0.0
 10
-3.1521
 20
20.7876
 30
0.0
 10
-3.2141
 20
20.4028
 30
0.0
 10
-3.2141
 20
20.4028
 30
0.0
 10
-3.2141
 20
20.4028
 30
0.0
 10
-3.2141
 20
20.4028
 30
0.0
 10
-3.3656
 20
20.4028
 30
0.0
 10
-3.3656
 20
20.4028
 30
0.0
  0
SPLINE
  5
E9
330
1F
100
AcDbEntity
  8
VRSTVA_1
 62
   250
100
AcDbSpline
210
0.0
220
0.0
230
1.0
 70
    11
 71
     3
 72
    28
 73
    24
 74
     0
 42
0.0000000001
 43
0.0000000001
 40
0.0
 40
0.0
 40
0.0
 40
0.0
 40
0.1428571428571428
 40
0.1428571428571428
 40
0.1428571428571428
 40
0.1428571428571428
 40
0.2857142857142857
 40
0.2857142857142857
 40
0.2857142857142857
 40
0.2857142857142857
 40
0.4285714285714285
 40
0.4285714285714285
 40
0.4285714285714285
 40
0.4285714285714285
 40
0.5714285714285714
 40
0.5714285714285714
 40
0.5714285714285714
 40
0.5714285714285714
 40
0.7142857142857143
 40
0.7142857142857143
 40
0.7142857142857143
 40
0.7142857142857143
 40
1.0
 40
1.0
 40
1.0
 40
1.0
 10
-2.9093
 20
20.4028
 30
0.0
 10
-2.9093
 20
20.4028
 30
0.0
 10
-2.9771
 20
20.7876
 30
0.0
 10
-2.9771
 20
20.7876
 30
0.0
 10
-2.9771
 20
20.7876
 30
0.0
 10
-2.9771
 20
20.7876
 30
0.0
 10
-2.9771
 20
21.1182
 30
0.0
 10
-2.9771
 20
21.1182
 30
0.0
 10
-2.9771
 20
21.1182
 30
0.0
 10
-2.9771
 20
21.1182
 30
0.0
 10
-2.6944
 20
21.1182
 30
0.0
 10
-2.6944
 20
21.1182
 30
0.0
 10
-2.6944
 20
21.1182
 30
0.0
 10
-2.6944
 20
21.1182
 30
0.0
 10
-2.6944
 20
20.7876
 30
0.0
 10
-2.6944
 20
20.7876
 30
0.0
 10
-2.6944
 20
20.7876
 30
0.0
 10
-2.6944
 20
20.7876
 30
0.0
 10
-2.7607
 20
20.4028
 30
0.0
 10
-2.7607
 20
20.4028
 30
0.0
 10
-2.7607
 20
20.4028
 30
0.0
 10
-2.7607
 20
20.4028
 30
0.0
 10
-2.9093
 20
20.4028
 30
0.0
 10
-2.9093
 20
20.4028
 30
0.0
  0
SPLINE
  5
EA
330
1F
100
AcDbEntity
  8
VRSTVA_1
 62
   250
100
AcDbSpline
210
0.0
220
0.0
230
1.0
 70
    11
 71
     3
 72
    44
 73
    40
 74
     0
 42
0.0000000001
 43
0.0000000001
 40
0.0
 40
0.0
 40
0.0
 40
0.0
 40
0.0909090909090909
 40
0.0909090909090909
 40
0.0909090909090909
 40
0.0909090909090909
 40
0.1818181818181818
 40
0.1818181818181818
 40
0.1818181818181818
 40
0.1818181818181818
 40
0.2727272727272727
 40
0.2727272727272727
 40
0.2727272727272727
 40
0.2727272727272727
 40
0.3636363636363636
 40
0.3636363636363636
 40
0.3636363636363636
 40
0.3636363636363636
 40
0.4545454545454545
 40
0.4545454545454545
 40
0.4545454545454545
 40
0.4545454545454545
 40
0.5454545454545454
 40
0.5454545454545454
 40
0.5454545454545454
 40
0.5454545454545454
 40
0.6363636363636364
 40
0.6363636363636364
 40
0.6363636363636364
 40
0.6363636363636364
 40
0.7272727272727273
 40
0.7272727272727273
 40
0.7272727272727273
 40
0.7272727272727273
 40
0.8181818181818182
 40
0.8181818181818182
 40
0.8181818181818182
 40
0.8181818181818182
 40
1.0
 40
1.0
 40
1.0
 40
1.0
 10
-1.1182
 20
18.5039
 30
0.0
 10
-1.2551
 20
18.6766
 30
0.0
 10
-1.3708
 20
18.8788
 30
0.0
 10
-1.4653
 20
19.1102
 30
0.0
 10
-1.4653
 20
19.1102
 30
0.0
 10
-1.5598
 20
19.3421
 30
0.0
 10
-1.6074
 20
19.5815
 30
0.0
 10
-1.6074
 20
19.8299
 30
0.0
 10
-1.6074
 20
19.8299
 30
0.0
 10
-1.6074
 20
20.0486
 30
0.0
 10
-1.5721
 20
20.2579
 30
0.0
 10
-1.5011
 20
20.4583
 30
0.0
 10
-1.5011
 20
20.4583
 30
0.0
 10
-1.4183
 20
20.6907
 30
0.0
 10
-1.2908
 20
20.9221
 30
0.0
 10
-1.1182
 20
21.1526
 30
0.0
 10
-1.1182
 20
21.1526
 30
0.0
 10
-1.1182
 20
21.1526
 30
0.0
 10
-0.9404
 20
21.1526
 30
0.0
 10
-0.9404
 20
21.1526
 30
0.0
 10
-0.9404
 20
21.1526
 30
0.0
 10
-1.0514
 20
20.9616
 30
0.0
 10
-1.1248
 20
20.8252
 30
0.0
 10
-1.1605
 20
20.7433
 30
0.0
 10
-1.1605
 20
20.7433
 30
0.0
 10
-1.217
 20
20.6168
 30
0.0
 10
-1.2607
 20
20.4842
 30
0.0
 10
-1.2932
 20
20.3464
 30
0.0
 10
-1.2932
 20
20.3464
 30
0.0
 10
-1.3327
 20
20.1747
 30
0.0
 10
-1.3524
 20
20.002
 30
0.0
 10
-1.3524
 20
19.8285
 30
0.0
 10
-1.3524
 20
19.8285
 30
0.0
 10
-1.3524
 20
19.3863
 30
0.0
 10
-1.2151
 20
18.9451
 30
0.0
 10
-0.9404
 20
18.5039
 30
0.0
 10
-0.9404
 20
18.5039
 30
0.0
 10
-0.9404
 20
18.5039
 30
0.0
 10
-1.1182
 20
18.5039
 30
0.0
 10
-1.1182
 20
18.5039
 30
0.0
  0
SPLINE
  5
EB
330
1F
100
AcDbEntity
  8
VRSTVA_1
 62
   250
100
AcDbSpline
210
0.0
220
0.0
230
1.0
 70
    11
 71
     3
 72
    84
 73
    80
 74
     0
 42
0.0000000001
 43
0.0000000001
 40
0.0
 40
0.0
 40
0.0
 40
0.0
 40
0.0476190476190476
 40
0.0476190476190476
 40
0.0476190476190476
 40
0.0476190476190476
 40
0.0952380952380952
 40
0.0952380952380952
 40
0.0952380952380952
 40
0.0952380952380952
 40
0.1428571428571428
 40
0.1428571428571428
 40
0.1428571428571428
 40
0.1428571428571428
 40
0.1904761904761905
 40
0.1904761904761905
 40
0.1904761904761905
 40
0.1904761904761905
 40
0.2380952380952381
 40
0.2380952380952381
 40
0.2380952380952381
 40
0.2380952380952381
 40
0.2857142857142857
 40
0.2857142857142857
 40
0.2857142857142857
 40
0.2857142857142857
 40
0.3333333333333333
 40
0.3333333333333333
 40
0.3333333333333333
 40
0.3333333333333333
 40
0.3809523809523809
 40
0.3809523809523809
 40
0.3809523809523809
 40
0.3809523809523809
 40
0.4285714285714285
 40
0.4285714285714285
 40
0.4285714285714285
 40
0.4285714285714285
 40
0.4761904761904762
 40
0.4761904761904762
 40
0.4761904761904762
 40
0.4761904761904762
 40
0.5238095238095238
 40
0.5238095238095238
 40
0.5238095238095238
 40
0.5238095238095238
 40
0.5714285714285714
 40
0.5714285714285714
 40
0.5714285714285714
 40
0.5714285714285714
 40
0.6190476190476191
 40
0.6190476190476191
 40
0.6190476190476191
 40
0.6190476190476191
 40
0.6666666666666666
 40
0.6666666666666666
 40
0.6666666666666666
 40
0.6666666666666666
 40
0.7142857142857143
 40
0.7142857142857143
 40
0.7142857142857143
 40
0.7142857142857143
 40
0.7619047619047619
 40
0.7619047619047619
 40
0.7619047619047619
 40
0.7619047619047619
 40
0.8095238095238095
 40
0.8095238095238095
 40
0.8095238095238095
 40
0.8095238095238095
 40
0.8571428571428571
 40
0.8571428571428571
 40
0.8571428571428571
 40
0.8571428571428571
 40
0.9047619047619048
 40
0.9047619047619048
 40
0.9047619047619048
 40
0.9047619047619048
 40
1.0
 40
1.0
 40
1.0
 40
1.0
 10
0.8842
 20
20.9334
 30
0.0
 10
0.8842
 20
20.9334
 30
0.0
 10
1.1156
 20
21.1925
 30
0.0
 10
1.1156
 20
21.1925
 30
0.0
 10
1.1156
 20
21.1925
 30
0.0
 10
1.1156
 20
21.1925
 30
0.0
 10
1.252
 20
21.0768
 30
0.0
 10
1.252
 20
21.0768
 30
0.0
 10
1.252
 20
21.0768
 30
0.0
 10
1.252
 20
21.0768
 30
0.0
 10
1.0098
 20
20.804
 30
0.0
 10
1.0098
 20
20.804
 30
0.0
 10
1.0098
 20
20.804
 30
0.0
 10
1.0888
 20
20.6864
 30
0.0
 10
1.1419
 20
20.5834
 30
0.0
 10
1.1697
 20
20.4955
 30
0.0
 10
1.1697
 20
20.4955
 30
0.0
 10
1.2064
 20
20.3797
 30
0.0
 10
1.2247
 20
20.2499
 30
0.0
 10
1.2247
 20
20.1069
 30
0.0
 10
1.2247
 20
20.1069
 30
0.0
 10
1.2247
 20
19.9
 30
0.0
 10
1.1829
 20
19.7156
 30
0.0
 10
1.0991
 20
19.5543
 30
0.0
 10
1.0991
 20
19.5543
 30
0.0
 10
1.0154
 20
19.3924
 30
0.0
 10
0.8983
 20
19.2702
 30
0.0
 10
0.7473
 20
19.1874
 30
0.0
 10
0.7473
 20
19.1874
 30
0.0
 10
0.5958
 20
19.1051
 30
0.0
 10
0.4355
 20
19.0637
 30
0.0
 10
0.2657
 20
19.0637
 30
0.0
 10
0.2657
 20
19.0637
 30
0.0
 10
0.1387
 20
19.0637
 30
0.0
 10
0.0239
 20
19.0815
 30
0.0
 10
-0.0791
 20
19.1173
 30
0.0
 10
-0.0791
 20
19.1173
 30
0.0
 10
-0.1581
 20
19.145
 30
0.0
 10
-0.2503
 20
19.1977
 30
0.0
 10
-0.3562
 20
19.2758
 30
0.0
 10
-0.3562
 20
19.2758
 30
0.0
 10
-0.3562
 20
19.2758
 30
0.0
 10
-0.5876
 20
19.0166
 30
0.0
 10
-0.5876
 20
19.0166
 30
0.0
 10
-0.5876
 20
19.0166
 30
0.0
 10
-0.5876
 20
19.0166
 30
0.0
 10
-0.724
 20
19.1323
 30
0.0
 10
-0.724
 20
19.1323
 30
0.0
 10
-0.724
 20
19.1323
 30
0.0
 10
-0.724
 20
19.1323
 30
0.0
 10
-0.4813
 20
19.4037
 30
0.0
 10
-0.4813
 20
19.4037
 30
0.0
 10
-0.4813
 20
19.4037
 30
0.0
 10
-0.5716
 20
19.5406
 30
0.0
 10
-0.6318
 20
19.6577
 30
0.0
 10
-0.6619
 20
19.7546
 30
0.0
 10
-0.6619
 20
19.7546
 30
0.0
 10
-0.692
 20
19.8515
 30
0.0
 10
-0.7075
 20
19.9682
 30
0.0
 10
-0.7075
 20
20.1041
 30
0.0
 10
-0.7075
 20
20.1041
 30
0.0
 10
-0.7075
 20
20.3115
 30
0.0
 10
-0.6661
 20
20.4964
 30
0.0
 10
-0.5834
 20
20.6587
 30
0.0
 10
-0.5834
 20
20.6587
 30
0.0
 10
-0.5006
 20
20.821
 30
0.0
 10
-0.3849
 20
20.9437
 30
0.0
 10
-0.2353
 20
21.0274
 30
0.0
 10
-0.2353
 20
21.0274
 30
0.0
 10
-0.0862
 20
21.1107
 30
0.0
 10
0.0799
 20
21.1526
 30
0.0
 10
0.2628
 20
21.1526
 30
0.0
 10
0.2628
 20
21.1526
 30
0.0
 10
0.3861
 20
21.1526
 30
0.0
 10
0.4938
 20
21.1366
 30
0.0
 10
0.586
 20
21.1036
 30
0.0
 10
0.586
 20
21.1036
 30
0.0
 10
0.6782
 20
21.0712
 30
0.0
 10
0.7779
 20
21.0143
 30
0.0
 10
0.8842
 20
20.9334
 30
0.0
  0
SPLINE
  5
EC
330
1F
100
AcDbEntity
  8
VRSTVA_1
 62
   250
100
AcDbSpline
210
0.0
220
0.0
230
1.0
 70
    11
 71
     3
 72
    32
 73
    28
 74
     0
 42
0.0000000001
 43
0.0000000001
 40
0.0
 40
0.0
 40
0.0
 40
0.0
 40
0.125
 40
0.125
 40
0.125
 40
0.125
 40
0.25
 40
0.25
 40
0.25
 40
0.25
 40
0.375
 40
0.375
 40
0.375
 40
0.375
 40
0.5
 40
0.5
 40
0.5
 40
0.5
 40
0.625
 40
0.625
 40
0.625
 40
0.625
 40
0.75
 40
0.75
 40
0.75
 40
0.75
 40
1.0
 40
1.0
 40
1.0
 40
1.0
 10
0.7191
 20
20.7476
 30
0.0
 10
0.6325
 20
20.8153
 30
0.0
 10
0.5568
 20
20.8619
 30
0.0
 10
0.4924
 20
20.8868
 30
0.0
 10
0.4924
 20
20.8868
 30
0.0
 10
0.4275
 20
20.9113
 30
0.0
 10
0.3513
 20
20.924
 30
0.0
 10
0.2642
 20
20.924
 30
0.0
 10
0.2642
 20
20.924
 30
0.0
 10
0.0629
 20
20.924
 30
0.0
 10
-0.1031
 20
20.8558
 30
0.0
 10
-0.2348
 20
20.7194
 30
0.0
 10
-0.2348
 20
20.7194
 30
0.0
 10
-0.3661
 20
20.5829
 30
0.0
 10
-0.4319
 20
20.3793
 30
0.0
 10
-0.4319
 20
20.1079
 30
0.0
 10
-0.4319
 20
20.1079
 30
0.0
 10
-0.4319
 20
20.0016
 30
0.0
 10
-0.4216
 20
19.907
 30
0.0
 10
-0.4013
 20
19.8242
 30
0.0
 10
-0.4013
 20
19.8242
 30
0.0
 10
-0.3867
 20
19.7626
 30
0.0
 10
-0.3562
 20
19.6869
 30
0.0
 10
-0.3091
 20
19.5971
 30
0.0
 10
-0.3091
 20
19.5971
 30
0.0
 10
-0.3091
 20
19.5971
 30
0.0
 10
0.7191
 20
20.7476
 30
0.0
 10
0.7191
 20
20.7476
 30
0.0
  0
SPLINE
  5
ED
330
1F
100
AcDbEntity
  8
VRSTVA_1
 62
   250
100
AcDbSpline
210
0.0
220
0.0
230
1.0
 70
    11
 71
     3
 72
    28
 73
    24
 74
     0
 42
0.0000000001
 43
0.0000000001
 40
0.0
 40
0.0
 40
0.0
 40
0.0
 40
0.1428571428571428
 40
0.1428571428571428
 40
0.1428571428571428
 40
0.1428571428571428
 40
0.2857142857142857
 40
0.2857142857142857
 40
0.2857142857142857
 40
0.2857142857142857
 40
0.4285714285714285
 40
0.4285714285714285
 40
0.4285714285714285
 40
0.4285714285714285
 40
0.5714285714285714
 40
0.5714285714285714
 40
0.5714285714285714
 40
0.5714285714285714
 40
0.7142857142857143
 40
0.7142857142857143
 40
0.7142857142857143
 40
0.7142857142857143
 40
1.0
 40
1.0
 40
1.0
 40
1.0
 10
0.832
 20
20.6055
 30
0.0
 10
0.832
 20
20.6055
 30
0.0
 10
-0.192
 20
19.4592
 30
0.0
 10
-0.192
 20
19.4592
 30
0.0
 10
-0.192
 20
19.4592
 30
0.0
 10
-0.1215
 20
19.4014
 30
0.0
 10
-0.0561
 20
19.3609
 30
0.0
 10
0.0037
 20
19.3379
 30
0.0
 10
0.0037
 20
19.3379
 30
0.0
 10
0.0817
 20
19.3073
 30
0.0
 10
0.1664
 20
19.2923
 30
0.0
 10
0.2572
 20
19.2923
 30
0.0
 10
0.2572
 20
19.2923
 30
0.0
 10
0.4576
 20
19.2923
 30
0.0
 10
0.6227
 20
19.3628
 30
0.0
 10
0.7534
 20
19.5044
 30
0.0
 10
0.7534
 20
19.5044
 30
0.0
 10
0.8837
 20
19.646
 30
0.0
 10
0.9491
 20
19.8445
 30
0.0
 10
0.9491
 20
20.0999
 30
0.0
 10
0.9491
 20
20.0999
 30
0.0
 10
0.9491
 20
20.2908
 30
0.0
 10
0.9101
 20
20.4597
 30
0.0
 10
0.832
 20
20.6055
 30
0.0
  0
SPLINE
  5
EE
330
1F
100
AcDbEntity
  8
VRSTVA_1
 62
   250
100
AcDbSpline
210
0.0
220
0.0
230
1.0
 70
    11
 71
     3
 72
    48
 73
    44
 74
     0
 42
0.0000000001
 43
0.0000000001
 40
0.0
 40
0.0
 40
0.0
 40
0.0
 40
0.0833333333333333
 40
0.0833333333333333
 40
0.0833333333333333
 40
0.0833333333333333
 40
0.1666666666666667
 40
0.1666666666666667
 40
0.1666666666666667
 40
0.1666666666666667
 40
0.25
 40
0.25
 40
0.25
 40
0.25
 40
0.3333333333333333
 40
0.3333333333333333
 40
0.3333333333333333
 40
0.3333333333333333
 40
0.4166666666666667
 40
0.4166666666666667
 40
0.4166666666666667
 40
0.4166666666666667
 40
0.5
 40
0.5
 40
0.5
 40
0.5
 40
0.5833333333333334
 40
0.5833333333333334
 40
0.5833333333333334
 40
0.5833333333333334
 40
0.6666666666666666
 40
0.6666666666666666
 40
0.6666666666666666
 40
0.6666666666666666
 40
0.75
 40
0.75
 40
0.75
 40
0.75
 40
0.8333333333333334
 40
0.8333333333333334
 40
0.8333333333333334
 40
0.8333333333333334
 40
1.0
 40
1.0
 40
1.0
 40
1.0
 10
2.2689
 20
19.098
 30
0.0
 10
2.2689
 20
19.098
 30
0.0
 10
2.2689
 20
19.5815
 30
0.0
 10
2.2689
 20
19.5815
 30
0.0
 10
2.2689
 20
19.5815
 30
0.0
 10
2.2689
 20
19.5815
 30
0.0
 10
1.3926
 20
19.5815
 30
0.0
 10
1.3926
 20
19.5815
 30
0.0
 10
1.3926
 20
19.5815
 30
0.0
 10
1.3926
 20
19.5815
 30
0.0
 10
1.3926
 20
19.8092
 30
0.0
 10
1.3926
 20
19.8092
 30
0.0
 10
1.3926
 20
19.8092
 30
0.0
 10
1.3926
 20
19.8092
 30
0.0
 10
2.3146
 20
21.1182
 30
0.0
 10
2.3146
 20
21.1182
 30
0.0
 10
2.3146
 20
21.1182
 30
0.0
 10
2.3146
 20
21.1182
 30
0.0
 10
2.5173
 20
21.1182
 30
0.0
 10
2.5173
 20
21.1182
 30
0.0
 10
2.5173
 20
21.1182
 30
0.0
 10
2.5173
 20
21.1182
 30
0.0
 10
2.5173
 20
19.8092
 30
0.0
 10
2.5173
 20
19.8092
 30
0.0
 10
2.5173
 20
19.8092
 30
0.0
 10
2.5173
 20
19.8092
 30
0.0
 10
2.7901
 20
19.8092
 30
0.0
 10
2.7901
 20
19.8092
 30
0.0
 10
2.7901
 20
19.8092
 30
0.0
 10
2.7901
 20
19.8092
 30
0.0
 10
2.7901
 20
19.5815
 30
0.0
 10
2.7901
 20
19.5815
 30
0.0
 10
2.7901
 20
19.5815
 30
0.0
 10
2.7901
 20
19.5815
 30
0.0
 10
2.5173
 20
19.5815
 30
0.0
 10
2.5173
 20
19.5815
 30
0.0
 10
2.5173
 20
19.5815
 30
0.0
 10
2.5173
 20
19.5815
 30
0.0
 10
2.5173
 20
19.098
 30
0.0
 10
2.5173
 20
19.098
 30
0.0
 10
2.5173
 20
19.098
 30
0.0
 10
2.5173
 20
19.098
 30
0.0
 10
2.2689
 20
19.098
 30
0.0
 10
2.2689
 20
19.098
 30
0.0
  0
SPLINE
  5
EF
330
1F
100
AcDbEntity
  8
VRSTVA_1
 62
   250
100
AcDbSpline
210
0.0
220
0.0
230
1.0
 70
    11
 71
     3
 72
    16
 73
    12
 74
     0
 42
0.0000000001
 43
0.0000000001
 40
0.0
 40
0.0
 40
0.0
 40
0.0
 40
0.25
 40
0.25
 40
0.25
 40
0.25
 40
0.5
 40
0.5
 40
0.5
 40
0.5
 40
1.0
 40
1.0
 40
1.0
 40
1.0
 10
2.2689
 20
19.8092
 30
0.0
 10
2.2689
 20
19.8092
 30
0.0
 10
2.2689
 20
20.7198
 30
0.0
 10
2.2689
 20
20.7198
 30
0.0
 10
2.2689
 20
20.7198
 30
0.0
 10
2.2689
 20
20.7198
 30
0.0
 10
1.6368
 20
19.8092
 30
0.0
 10
1.6368
 20
19.8092
 30
0.0
 10
1.6368
 20
19.8092
 30
0.0
 10
1.6368
 20
19.8092
 30
0.0
 10
2.2689
 20
19.8092
 30
0.0
 10
2.2689
 20
19.8092
 30
0.0
  0
SPLINE
  5
F0
330
1F
100
AcDbEntity
  8
VRSTVA_1
 62
   250
100
AcDbSpline
210
0.0
220
0.0
230
1.0
 70
    11
 71
     3
 72
    68
 73
    64
 74
     0
 42
0.0000000001
 43
0.0000000001
 40
0.0
 40
0.0
 40
0.0
 40
0.0
 40
0.0588235294117647
 40
0.0588235294117647
 40
0.0588235294117647
 40
0.0588235294117647
 40
0.1176470588235294
 40
0.1176470588235294
 40
0.1176470588235294
 40
0.1176470588235294
 40
0.1764705882352941
 40
0.1764705882352941
 40
0.1764705882352941
 40
0.1764705882352941
 40
0.2352941176470588
 40
0.2352941176470588
 40
0.2352941176470588
 40
0.2352941176470588
 40
0.2941176470588235
 40
0.2941176470588235
 40
0.2941176470588235
 40
0.2941176470588235
 40
0.3529411764705883
 40
0.3529411764705883
 40
0.3529411764705883
 40
0.3529411764705883
 40
0.4117647058823529
 40
0.4117647058823529
 40
0.4117647058823529
 40
0.4117647058823529
 40
0.4705882352941176
 40
0.4705882352941176
 40
0.4705882352941176
 40
0.4705882352941176
 40
0.5294117647058824
 40
0.5294117647058824
 40
0.5294117647058824
 40
0.5294117647058824
 40
0.5882352941176471
 40
0.5882352941176471
 40
0.5882352941176471
 40
0.5882352941176471
 40
0.6470588235294118
 40
0.6470588235294118
 40
0.6470588235294118
 40
0.6470588235294118
 40
0.7058823529411765
 40
0.7058823529411765
 40
0.7058823529411765
 40
0.7058823529411765
 40
0.7647058823529411
 40
0.7647058823529411
 40
0.7647058823529411
 40
0.7647058823529411
 40
0.8235294117647058
 40
0.8235294117647058
 40
0.8235294117647058
 40
0.8235294117647058
 40
0.8823529411764706
 40
0.8823529411764706
 40
0.8823529411764706
 40
0.8823529411764706
 40
1.0
 40
1.0
 40
1.0
 40
1.0
 10
3.4256
 20
20.1935
 30
0.0
 10
3.3225
 20
20.2311
 30
0.0
 10
3.2463
 20
20.2847
 30
0.0
 10
3.1965
 20
20.3548
 30
0.0
 10
3.1965
 20
20.3548
 30
0.0
 10
3.1471
 20
20.4244
 30
0.0
 10
3.1222
 20
20.5082
 30
0.0
 10
3.1222
 20
20.6055
 30
0.0
 10
3.1222
 20
20.6055
 30
0.0
 10
3.1222
 20
20.7527
 30
0.0
 10
3.1749
 20
20.876
 30
0.0
 10
3.2807
 20
20.9762
 30
0.0
 10
3.2807
 20
20.9762
 30
0.0
 10
3.3865
 20
21.0764
 30
0.0
 10
3.5267
 20
21.1267
 30
0.0
 10
3.7021
 20
21.1267
 30
0.0
 10
3.7021
 20
21.1267
 30
0.0
 10
3.8785
 20
21.1267
 30
0.0
 10
4.0206
 20
21.0754
 30
0.0
 10
4.1283
 20
20.9729
 30
0.0
 10
4.1283
 20
20.9729
 30
0.0
 10
4.2355
 20
20.8703
 30
0.0
 10
4.2892
 20
20.7457
 30
0.0
 10
4.2892
 20
20.5985
 30
0.0
 10
4.2892
 20
20.5985
 30
0.0
 10
4.2892
 20
20.5049
 30
0.0
 10
4.2647
 20
20.4235
 30
0.0
 10
4.2158
 20
20.3539
 30
0.0
 10
4.2158
 20
20.3539
 30
0.0
 10
4.1664
 20
20.2847
 30
0.0
 10
4.0921
 20
20.2311
 30
0.0
 10
3.9919
 20
20.1935
 30
0.0
 10
3.9919
 20
20.1935
 30
0.0
 10
4.1156
 20
20.153
 30
0.0
 10
4.2101
 20
20.0881
 30
0.0
 10
4.275
 20
19.9978
 30
0.0
 10
4.275
 20
19.9978
 30
0.0
 10
4.3395
 20
19.908
 30
0.0
 10
4.3719
 20
19.8003
 30
0.0
 10
4.3719
 20
19.6756
 30
0.0
 10
4.3719
 20
19.6756
 30
0.0
 10
4.3719
 20
19.5025
 30
0.0
 10
4.3108
 20
19.3576
 30
0.0
 10
4.189
 20
19.2401
 30
0.0
 10
4.189
 20
19.2401
 30
0.0
 10
4.0667
 20
19.1225
 30
0.0
 10
3.9058
 20
19.0637
 30
0.0
 10
3.7064
 20
19.0637
 30
0.0
 10
3.7064
 20
19.0637
 30
0.0
 10
3.5069
 20
19.0637
 30
0.0
 10
3.3465
 20
19.1225
 30
0.0
 10
3.2242
 20
19.2405
 30
0.0
 10
3.2242
 20
19.2405
 30
0.0
 10
3.1019
 20
19.3586
 30
0.0
 10
3.0408
 20
19.5058
 30
0.0
 10
3.0408
 20
19.6822
 30
0.0
 10
3.0408
 20
19.6822
 30
0.0
 10
3.0408
 20
19.8134
 30
0.0
 10
3.0742
 20
19.9235
 30
0.0
 10
3.141
 20
20.0124
 30
0.0
 10
3.141
 20
20.0124
 30
0.0
 10
3.2073
 20
20.1008
 30
0.0
 10
3.3023
 20
20.1615
 30
0.0
 10
3.4256
 20
20.1935
 30
0.0
  0
SPLINE
  5
F1
330
1F
100
AcDbEntity
  8
VRSTVA_1
 62
   250
100
AcDbSpline
210
0.0
220
0.0
230
1.0
 70
    11
 71
     3
 72
    36
 73
    32
 74
     0
 42
0.0000000001
 43
0.0000000001
 40
0.0
 40
0.0
 40
0.0
 40
0.0
 40
0.1111111111111111
 40
0.1111111111111111
 40
0.1111111111111111
 40
0.1111111111111111
 40
0.2222222222222222
 40
0.2222222222222222
 40
0.2222222222222222
 40
0.2222222222222222
 40
0.3333333333333333
 40
0.3333333333333333
 40
0.3333333333333333
 40
0.3333333333333333
 40
0.4444444444444444
 40
0.4444444444444444
 40
0.4444444444444444
 40
0.4444444444444444
 40
0.5555555555555556
 40
0.5555555555555556
 40
0.5555555555555556
 40
0.5555555555555556
 40
0.6666666666666666
 40
0.6666666666666666
 40
0.6666666666666666
 40
0.6666666666666666
 40
0.7777777777777778
 40
0.7777777777777778
 40
0.7777777777777778
 40
0.7777777777777778
 40
1.0
 40
1.0
 40
1.0
 40
1.0
 10
3.3757
 20
20.614
 30
0.0
 10
3.3757
 20
20.5185
 30
0.0
 10
3.4067
 20
20.4404
 30
0.0
 10
3.4679
 20
20.3797
 30
0.0
 10
3.4679
 20
20.3797
 30
0.0
 10
3.5295
 20
20.3191
 30
0.0
 10
3.6095
 20
20.2885
 30
0.0
 10
3.7078
 20
20.2885
 30
0.0
 10
3.7078
 20
20.2885
 30
0.0
 10
3.8033
 20
20.2885
 30
0.0
 10
3.8818
 20
20.3186
 30
0.0
 10
3.943
 20
20.3788
 30
0.0
 10
3.943
 20
20.3788
 30
0.0
 10
4.0041
 20
20.439
 30
0.0
 10
4.0342
 20
20.5129
 30
0.0
 10
4.0342
 20
20.5999
 30
0.0
 10
4.0342
 20
20.5999
 30
0.0
 10
4.0342
 20
20.6911
 30
0.0
 10
4.0032
 20
20.7673
 30
0.0
 10
3.9401
 20
20.8294
 30
0.0
 10
3.9401
 20
20.8294
 30
0.0
 10
3.8771
 20
20.8915
 30
0.0
 10
3.799
 20
20.9226
 30
0.0
 10
3.705
 20
20.9226
 30
0.0
 10
3.705
 20
20.9226
 30
0.0
 10
3.6104
 20
20.9226
 30
0.0
 10
3.5319
 20
20.892
 30
0.0
 10
3.4693
 20
20.8318
 30
0.0
 10
3.4693
 20
20.8318
 30
0.0
 10
3.4067
 20
20.7711
 30
0.0
 10
3.3757
 20
20.6982
 30
0.0
 10
3.3757
 20
20.614
 30
0.0
  0
SPLINE
  5
F2
330
1F
100
AcDbEntity
  8
VRSTVA_1
 62
   250
100
AcDbSpline
210
0.0
220
0.0
230
1.0
 70
    11
 71
     3
 72
    40
 73
    36
 74
     0
 42
0.0000000001
 43
0.0000000001
 40
0.0
 40
0.0
 40
0.0
 40
0.0
 40
0.1
 40
0.1
 40
0.1
 40
0.1
 40
0.2
 40
0.2
 40
0.2
 40
0.2
 40
0.3
 40
0.3
 40
0.3
 40
0.3
 40
0.4
 40
0.4
 40
0.4
 40
0.4
 40
0.5
 40
0.5
 40
0.5
 40
0.5
 40
0.6
 40
0.6
 40
0.6
 40
0.6
 40
0.7
 40
0.7
 40
0.7
 40
0.7
 40
0.8
 40
0.8
 40
0.8
 40
0.8
 40
1.0
 40
1.0
 40
1.0
 40
1.0
 10
3.2957
 20
19.6808
 30
0.0
 10
3.2957
 20
19.6102
 30
0.0
 10
3.3127
 20
19.5416
 30
0.0
 10
3.3461
 20
19.4757
 30
0.0
 10
3.3461
 20
19.4757
 30
0.0
 10
3.3795
 20
19.4094
 30
0.0
 10
3.4293
 20
19.3581
 30
0.0
 10
3.4956
 20
19.3219
 30
0.0
 10
3.4956
 20
19.3219
 30
0.0
 10
3.562
 20
19.2857
 30
0.0
 10
3.633
 20
19.2673
 30
0.0
 10
3.7092
 20
19.2673
 30
0.0
 10
3.7092
 20
19.2673
 30
0.0
 10
3.8277
 20
19.2673
 30
0.0
 10
3.9256
 20
19.3054
 30
0.0
 10
4.0027
 20
19.3821
 30
0.0
 10
4.0027
 20
19.3821
 30
0.0
 10
4.0798
 20
19.4583
 30
0.0
 10
4.1184
 20
19.5552
 30
0.0
 10
4.1184
 20
19.6728
 30
0.0
 10
4.1184
 20
19.6728
 30
0.0
 10
4.1184
 20
19.7923
 30
0.0
 10
4.0789
 20
19.891
 30
0.0
 10
3.9994
 20
19.9691
 30
0.0
 10
3.9994
 20
19.9691
 30
0.0
 10
3.9199
 20
20.0472
 30
0.0
 10
3.8202
 20
20.0862
 30
0.0
 10
3.7007
 20
20.0862
 30
0.0
 10
3.7007
 20
20.0862
 30
0.0
 10
3.5841
 20
20.0862
 30
0.0
 10
3.4876
 20
20.0477
 30
0.0
 10
3.411
 20
19.9705
 30
0.0
 10
3.411
 20
19.9705
 30
0.0
 10
3.3343
 20
19.8929
 30
0.0
 10
3.2957
 20
19.7965
 30
0.0
 10
3.2957
 20
19.6808
 30
0.0
  0
SPLINE
  5
F3
330
1F
100
AcDbEntity
  8
VRSTVA_1
 62
   250
100
AcDbSpline
210
0.0
220
0.0
230
1.0
 70
    11
 71
     3
 72
    44
 73
    40
 74
     0
 42
0.0000000001
 43
0.0000000001
 40
0.0
 40
0.0
 40
0.0
 40
0.0
 40
0.0909090909090909
 40
0.0909090909090909
 40
0.0909090909090909
 40
0.0909090909090909
 40
0.1818181818181818
 40
0.1818181818181818
 40
0.1818181818181818
 40
0.1818181818181818
 40
0.2727272727272727
 40
0.2727272727272727
 40
0.2727272727272727
 40
0.2727272727272727
 40
0.3636363636363636
 40
0.3636363636363636
 40
0.3636363636363636
 40
0.3636363636363636
 40
0.4545454545454545
 40
0.4545454545454545
 40
0.4545454545454545
 40
0.4545454545454545
 40
0.5454545454545454
 40
0.5454545454545454
 40
0.5454545454545454
 40
0.5454545454545454
 40
0.6363636363636364
 40
0.6363636363636364
 40
0.6363636363636364
 40
0.6363636363636364
 40
0.7272727272727273
 40
0.7272727272727273
 40
0.7272727272727273
 40
0.7272727272727273
 40
0.8181818181818182
 40
0.8181818181818182
 40
0.8181818181818182
 40
0.8181818181818182
 40
1.0
 40
1.0
 40
1.0
 40
1.0
 10
4.8446
 20
18.5039
 30
0.0
 10
4.8446
 20
18.5039
 30
0.0
 10
4.6668
 20
18.5039
 30
0.0
 10
4.6668
 20
18.5039
 30
0.0
 10
4.6668
 20
18.5039
 30
0.0
 10
4.9415
 20
18.9451
 30
0.0
 10
5.0789
 20
19.3863
 30
0.0
 10
5.0789
 20
19.8285
 30
0.0
 10
5.0789
 20
19.8285
 30
0.0
 10
5.0789
 20
20.0011
 30
0.0
 10
5.0591
 20
20.1723
 30
0.0
 10
5.0196
 20
20.3426
 30
0.0
 10
5.0196
 20
20.3426
 30
0.0
 10
4.9886
 20
20.4799
 30
0.0
 10
4.9448
 20
20.6126
 30
0.0
 10
4.8889
 20
20.7391
 30
0.0
 10
4.8889
 20
20.7391
 30
0.0
 10
4.8531
 20
20.8219
 30
0.0
 10
4.7793
 20
20.9597
 30
0.0
 10
4.6668
 20
21.1526
 30
0.0
 10
4.6668
 20
21.1526
 30
0.0
 10
4.6668
 20
21.1526
 30
0.0
 10
4.8446
 20
21.1526
 30
0.0
 10
4.8446
 20
21.1526
 30
0.0
 10
4.8446
 20
21.1526
 30
0.0
 10
5.0173
 20
20.9221
 30
0.0
 10
5.1452
 20
20.6907
 30
0.0
 10
5.228
 20
20.4583
 30
0.0
 10
5.228
 20
20.4583
 30
0.0
 10
5.2985
 20
20.2579
 30
0.0
 10
5.3338
 20
20.0486
 30
0.0
 10
5.3338
 20
19.8299
 30
0.0
 10
5.3338
 20
19.8299
 30
0.0
 10
5.3338
 20
19.5815
 30
0.0
 10
5.2863
 20
19.3421
 30
0.0
 10
5.1913
 20
19.1102
 30
0.0
 10
5.1913
 20
19.1102
 30
0.0
 10
5.0963
 20
18.8788
 30
0.0
 10
4.9806
 20
18.6766
 30
0.0
 10
4.8446
 20
18.5039
 30
0.0
  0
SPLINE
  5
F4
330
1F
100
AcDbEntity
  8
VRSTVA_1
 62
   250
100
AcDbSpline
210
0.0
220
0.0
230
1.0
 70
    11
 71
     3
 72
    20
 73
    16
 74
     0
 42
0.0000000001
 43
0.0000000001
 40
0.0
 40
0.0
 40
0.0
 40
0.0
 40
0.2
 40
0.2
 40
0.2
 40
0.2
 40
0.4
 40
0.4
 40
0.4
 40
0.4
 40
0.6
 40
0.6
 40
0.6
 40
0.6
 40
1.0
 40
1.0
 40
1.0
 40
1.0
 10
4.6951
 20
18.5721
 30
0.0
 10
4.6951
 20
18.5721
 30
0.0
 10
7.8202
 20
18.131
 30
0.0
 10
7.8202
 20
18.131
 30
0.0
 10
7.8202
 20
18.131
 30
0.0
 10
7.8202
 20
18.131
 30
0.0
 10
7.8202
 20
18.0331
 30
0.0
 10
7.8202
 20
18.0331
 30
0.0
 10
7.8202
 20
18.0331
 30
0.0
 10
7.8202
 20
18.0331
 30
0.0
 10
4.6951
 20
17.5627
 30
0.0
 10
4.6951
 20
17.5627
 30
0.0
 10
4.6951
 20
17.5627
 30
0.0
 10
4.6951
 20
17.5627
 30
0.0
 10
4.6951
 20
18.5721
 30
0.0
 10
4.6951
 20
18.5721
 30
0.0
  0
SPLINE
  5
F5
330
1F
100
AcDbEntity
  8
VRSTVA_1
 62
   250
100
AcDbSpline
210
0.0
220
0.0
230
1.0
 70
    11
 71
     3
 72
    20
 73
    16
 74
     0
 42
0.0000000001
 43
0.0000000001
 40
0.0
 40
0.0
 40
0.0
 40
0.0
 40
0.2
 40
0.2
 40
0.2
 40
0.2
 40
0.4
 40
0.4
 40
0.4
 40
0.4
 40
0.6
 40
0.6
 40
0.6
 40
0.6
 40
1.0
 40
1.0
 40
1.0
 40
1.0
 10
-9.086
 20
17.5588
 30
0.0
 10
-9.086
 20
17.5588
 30
0.0
 10
-12.211
 20
17.9998
 30
0.0
 10
-12.211
 20
17.9998
 30
0.0
 10
-12.211
 20
17.9998
 30
0.0
 10
-12.211
 20
17.9998
 30
0.0
 10
-12.211
 20
18.0978
 30
0.0
 10
-12.211
 20
18.0978
 30
0.0
 10
-12.211
 20
18.0978
 30
0.0
 10
-12.211
 20
18.0978
 30
0.0
 10
-9.086
 20
18.5681
 30
0.0
 10
-9.086
 20
18.5681
 30
0.0
 10
-9.086
 20
18.5681
 30
0.0
 10
-9.086
 20
18.5681
 30
0.0
 10
-9.086
 20
17.5588
 30
0.0
 10
-9.086
 20
17.5588
 30
0.0
  0
SPLINE
  5
F6
330
1F
100
AcDbEntity
  8
VRSTVA_1
 62
   250
100
AcDbSpline
210
0.0
220
0.0
230
1.0
 70
    24
 71
     3
 72
     8
 73
     4
 74
     0
 42
0.0000000001
 43
0.0000000001
 40
0.0
 40
0.0
 40
0.0
 40
0.0
 40
1.0
 40
1.0
 40
1.0
 40
1.0
 10
34.064
 20
-9.0437
 30
0.0
 10
34.064
 20
-9.0437
 30
0.0
 10
34.064
 20
-24.0177
 30
0.0
 10
34.064
 20
-24.0177
 30
0.0
  0
SPLINE
  5
F7
330
1F
100
AcDbEntity
  8
VRSTVA_1
 62
   250
100
AcDbSpline
210
0.0
220
0.0
230
1.0
 70
    11
 71
     3
 72
    84
 73
    80
 74
     0
 42
0.0000000001
 43
0.0000000001
 40
0.0
 40
0.0
 40
0.0
 40
0.0
 40
0.0476190476190476
 40
0.0476190476190476
 40
0.0476190476190476
 40
0.0476190476190476
 40
0.0952380952380952
 40
0.0952380952380952
 40
0.0952380952380952
 40
0.0952380952380952
 40
0.1428571428571428
 40
0.1428571428571428
 40
0.1428571428571428
 40
0.1428571428571428
 40
0.1904761904761905
 40
0.1904761904761905
 40
0.1904761904761905
 40
0.1904761904761905
 40
0.2380952380952381
 40
0.2380952380952381
 40
0.2380952380952381
 40
0.2380952380952381
 40
0.2857142857142857
 40
0.2857142857142857
 40
0.2857142857142857
 40
0.2857142857142857
 40
0.3333333333333333
 40
0.3333333333333333
 40
0.3333333333333333
 40
0.3333333333333333
 40
0.3809523809523809
 40
0.3809523809523809
 40
0.3809523809523809
 40
0.3809523809523809
 40
0.4285714285714285
 40
0.4285714285714285
 40
0.4285714285714285
 40
0.4285714285714285
 40
0.4761904761904762
 40
0.4761904761904762
 40
0.4761904761904762
 40
0.4761904761904762
 40
0.5238095238095238
 40
0.5238095238095238
 40
0.5238095238095238
 40
0.5238095238095238
 40
0.5714285714285714
 40
0.5714285714285714
 40
0.5714285714285714
 40
0.5714285714285714
 40
0.6190476190476191
 40
0.6190476190476191
 40
0.6190476190476191
 40
0.6190476190476191
 40
0.6666666666666666
 40
0.6666666666666666
 40
0.6666666666666666
 40
0.6666666666666666
 40
0.7142857142857143
 40
0.7142857142857143
 40
0.7142857142857143
 40
0.7142857142857143
 40
0.7619047619047619
 40
0.7619047619047619
 40
0.7619047619047619
 40
0.7619047619047619
 40
0.8095238095238095
 40
0.8095238095238095
 40
0.8095238095238095
 40
0.8095238095238095
 40
0.8571428571428571
 40
0.8571428571428571
 40
0.8571428571428571
 40
0.8571428571428571
 40
0.9047619047619048
 40
0.9047619047619048
 40
0.9047619047619048
 40
0.9047619047619048
 40
1.0
 40
1.0
 40
1.0
 40
1.0
 10
31.6094
 20
-18.1812
 30
0.0
 10
31.6094
 20
-18.1812
 30
0.0
 10
31.3503
 20
-17.9498
 30
0.0
 10
31.3503
 20
-17.9498
 30
0.0
 10
31.3503
 20
-17.9498
 30
0.0
 10
31.3503
 20
-17.9498
 30
0.0
 10
31.466
 20
-17.8134
 30
0.0
 10
31.466
 20
-17.8134
 30
0.0
 10
31.466
 20
-17.8134
 30
0.0
 10
31.466
 20
-17.8134
 30
0.0
 10
31.7388
 20
-18.0556
 30
0.0
 10
31.7388
 20
-18.0556
 30
0.0
 10
31.7388
 20
-18.0556
 30
0.0
 10
31.8564
 20
-17.9766
 30
0.0
 10
31.9594
 20
-17.9235
 30
0.0
 10
32.0473
 20
-17.8957
 30
0.0
 10
32.0473
 20
-17.8957
 30
0.0
 10
32.1631
 20
-17.859
 30
0.0
 10
32.2929
 20
-17.8407
 30
0.0
 10
32.4359
 20
-17.8407
 30
0.0
 10
32.4359
 20
-17.8407
 30
0.0
 10
32.6428
 20
-17.8407
 30
0.0
 10
32.8272
 20
-17.8825
 30
0.0
 10
32.9885
 20
-17.9663
 30
0.0
 10
32.9885
 20
-17.9663
 30
0.0
 10
33.1504
 20
-18.05
 30
0.0
 10
33.2726
 20
-18.1671
 30
0.0
 10
33.3554
 20
-18.3181
 30
0.0
 10
33.3554
 20
-18.3181
 30
0.0
 10
33.4377
 20
-18.4696
 30
0.0
 10
33.4791
 20
-18.6299
 30
0.0
 10
33.4791
 20
-18.7997
 30
0.0
 10
33.4791
 20
-18.7997
 30
0.0
 10
33.4791
 20
-18.9267
 30
0.0
 10
33.4613
 20
-19.0415
 30
0.0
 10
33.4255
 20
-19.1445
 30
0.0
 10
33.4255
 20
-19.1445
 30
0.0
 10
33.3978
 20
-19.2235
 30
0.0
 10
33.3451
 20
-19.3157
 30
0.0
 10
33.267
 20
-19.4216
 30
0.0
 10
33.267
 20
-19.4216
 30
0.0
 10
33.267
 20
-19.4216
 30
0.0
 10
33.5262
 20
-19.653
 30
0.0
 10
33.5262
 20
-19.653
 30
0.0
 10
33.5262
 20
-19.653
 30
0.0
 10
33.5262
 20
-19.653
 30
0.0
 10
33.4105
 20
-19.7894
 30
0.0
 10
33.4105
 20
-19.7894
 30
0.0
 10
33.4105
 20
-19.7894
 30
0.0
 10
33.4105
 20
-19.7894
 30
0.0
 10
33.1391
 20
-19.5467
 30
0.0
 10
33.1391
 20
-19.5467
 30
0.0
 10
33.1391
 20
-19.5467
 30
0.0
 10
33.0022
 20
-19.637
 30
0.0
 10
32.8851
 20
-19.6972
 30
0.0
 10
32.7882
 20
-19.7273
 30
0.0
 10
32.7882
 20
-19.7273
 30
0.0
 10
32.6913
 20
-19.7574
 30
0.0
 10
32.5746
 20
-19.7729
 30
0.0
 10
32.4387
 20
-19.7729
 30
0.0
 10
32.4387
 20
-19.7729
 30
0.0
 10
32.2313
 20
-19.7729
 30
0.0
 10
32.0464
 20
-19.7315
 30
0.0
 10
31.8841
 20
-19.6488
 30
0.0
 10
31.8841
 20
-19.6488
 30
0.0
 10
31.7218
 20
-19.566
 30
0.0
 10
31.5991
 20
-19.4503
 30
0.0
 10
31.5154
 20
-19.3007
 30
0.0
 10
31.5154
 20
-19.3007
 30
0.0
 10
31.4321
 20
-19.1516
 30
0.0
 10
31.3902
 20
-18.9855
 30
0.0
 10
31.3902
 20
-18.8026
 30
0.0
 10
31.3902
 20
-18.8026
 30
0.0
 10
31.3902
 20
-18.6793
 30
0.0
 10
31.4062
 20
-18.5716
 30
0.0
 10
31.4392
 20
-18.4794
 30
0.0
 10
31.4392
 20
-18.4794
 30
0.0
 10
31.4716
 20
-18.3872
 30
0.0
 10
31.5285
 20
-18.2875
 30
0.0
 10
31.6094
 20
-18.1812
 30
0.0
  0
SPLINE
  5
F8
330
1F
100
AcDbEntity
  8
VRSTVA_1
 62
   250
100
AcDbSpline
210
0.0
220
0.0
230
1.0
 70
    11
 71
     3
 72
    32
 73
    28
 74
     0
 42
0.0000000001
 43
0.0000000001
 40
0.0
 40
0.0
 40
0.0
 40
0.0
 40
0.125
 40
0.125
 40
0.125
 40
0.125
 40
0.25
 40
0.25
 40
0.25
 40
0.25
 40
0.375
 40
0.375
 40
0.375
 40
0.375
 40
0.5
 40
0.5
 40
0.5
 40
0.5
 40
0.625
 40
0.625
 40
0.625
 40
0.625
 40
0.75
 40
0.75
 40
0.75
 40
0.75
 40
1.0
 40
1.0
 40
1.0
 40
1.0
 10
31.7952
 20
-18.3463
 30
0.0
 10
31.7275
 20
-18.4329
 30
0.0
 10
31.6809
 20
-18.5086
 30
0.0
 10
31.656
 20
-18.573
 30
0.0
 10
31.656
 20
-18.573
 30
0.0
 10
31.6315
 20
-18.6379
 30
0.0
 10
31.6188
 20
-18.7141
 30
0.0
 10
31.6188
 20
-18.8012
 30
0.0
 10
31.6188
 20
-18.8012
 30
0.0
 10
31.6188
 20
-19.0025
 30
0.0
 10
31.687
 20
-19.1685
 30
0.0
 10
31.8234
 20
-19.3002
 30
0.0
 10
31.8234
 20
-19.3002
 30
0.0
 10
31.9599
 20
-19.4315
 30
0.0
 10
32.1635
 20
-19.4973
 30
0.0
 10
32.4349
 20
-19.4973
 30
0.0
 10
32.4349
 20
-19.4973
 30
0.0
 10
32.5412
 20
-19.4973
 30
0.0
 10
32.6358
 20
-19.487
 30
0.0
 10
32.7186
 20
-19.4667
 30
0.0
 10
32.7186
 20
-19.4667
 30
0.0
 10
32.7802
 20
-19.4521
 30
0.0
 10
32.8559
 20
-19.4216
 30
0.0
 10
32.9457
 20
-19.3745
 30
0.0
 10
32.9457
 20
-19.3745
 30
0.0
 10
32.9457
 20
-19.3745
 30
0.0
 10
31.7952
 20
-18.3463
 30
0.0
 10
31.7952
 20
-18.3463
 30
0.0
  0
SPLINE
  5
F9
330
1F
100
AcDbEntity
  8
VRSTVA_1
 62
   250
100
AcDbSpline
210
0.0
220
0.0
230
1.0
 70
    11
 71
     3
 72
    28
 73
    24
 74
     0
 42
0.0000000001
 43
0.0000000001
 40
0.0
 40
0.0
 40
0.0
 40
0.0
 40
0.1428571428571428
 40
0.1428571428571428
 40
0.1428571428571428
 40
0.1428571428571428
 40
0.2857142857142857
 40
0.2857142857142857
 40
0.2857142857142857
 40
0.2857142857142857
 40
0.4285714285714285
 40
0.4285714285714285
 40
0.4285714285714285
 40
0.4285714285714285
 40
0.5714285714285714
 40
0.5714285714285714
 40
0.5714285714285714
 40
0.5714285714285714
 40
0.7142857142857143
 40
0.7142857142857143
 40
0.7142857142857143
 40
0.7142857142857143
 40
1.0
 40
1.0
 40
1.0
 40
1.0
 10
31.9373
 20
-18.2334
 30
0.0
 10
31.9373
 20
-18.2334
 30
0.0
 10
33.0836
 20
-19.2574
 30
0.0
 10
33.0836
 20
-19.2574
 30
0.0
 10
33.0836
 20
-19.2574
 30
0.0
 10
33.1414
 20
-19.1869
 30
0.0
 10
33.1819
 20
-19.1215
 30
0.0
 10
33.2049
 20
-19.0617
 30
0.0
 10
33.2049
 20
-19.0617
 30
0.0
 10
33.2355
 20
-18.9837
 30
0.0
 10
33.2505
 20
-18.899
 30
0.0
 10
33.2505
 20
-18.8082
 30
0.0
 10
33.2505
 20
-18.8082
 30
0.0
 10
33.2505
 20
-18.6078
 30
0.0
 10
33.18
 20
-18.4427
 30
0.0
 10
33.0384
 20
-18.312
 30
0.0
 10
33.0384
 20
-18.312
 30
0.0
 10
32.8968
 20
-18.1817
 30
0.0
 10
32.6983
 20
-18.1163
 30
0.0
 10
32.4429
 20
-18.1163
 30
0.0
 10
32.4429
 20
-18.1163
 30
0.0
 10
32.252
 20
-18.1163
 30
0.0
 10
32.0831
 20
-18.1553
 30
0.0
 10
31.9373
 20
-18.2334
 30
0.0
  0
SPLINE
  5
FA
330
1F
100
AcDbEntity
  8
VRSTVA_1
 62
   250
100
AcDbSpline
210
0.0
220
0.0
230
1.0
 70
    11
 71
     3
 72
    48
 73
    44
 74
     0
 42
0.0000000001
 43
0.0000000001
 40
0.0
 40
0.0
 40
0.0
 40
0.0
 40
0.0833333333333333
 40
0.0833333333333333
 40
0.0833333333333333
 40
0.0833333333333333
 40
0.1666666666666667
 40
0.1666666666666667
 40
0.1666666666666667
 40
0.1666666666666667
 40
0.25
 40
0.25
 40
0.25
 40
0.25
 40
0.3333333333333333
 40
0.3333333333333333
 40
0.3333333333333333
 40
0.3333333333333333
 40
0.4166666666666667
 40
0.4166666666666667
 40
0.4166666666666667
 40
0.4166666666666667
 40
0.5
 40
0.5
 40
0.5
 40
0.5
 40
0.5833333333333334
 40
0.5833333333333334
 40
0.5833333333333334
 40
0.5833333333333334
 40
0.6666666666666666
 40
0.6666666666666666
 40
0.6666666666666666
 40
0.6666666666666666
 40
0.75
 40
0.75
 40
0.75
 40
0.75
 40
0.8333333333333334
 40
0.8333333333333334
 40
0.8333333333333334
 40
0.8333333333333334
 40
1.0
 40
1.0
 40
1.0
 40
1.0
 10
33.4448
 20
-16.7965
 30
0.0
 10
33.4448
 20
-16.7965
 30
0.0
 10
32.9613
 20
-16.7965
 30
0.0
 10
32.9613
 20
-16.7965
 30
0.0
 10
32.9613
 20
-16.7965
 30
0.0
 10
32.9613
 20
-16.7965
 30
0.0
 10
32.9613
 20
-17.6728
 30
0.0
 10
32.9613
 20
-17.6728
 30
0.0
 10
32.9613
 20
-17.6728
 30
0.0
 10
32.9613
 20
-17.6728
 30
0.0
 10
32.7336
 20
-17.6728
 30
0.0
 10
32.7336
 20
-17.6728
 30
0.0
 10
32.7336
 20
-17.6728
 30
0.0
 10
32.7336
 20
-17.6728
 30
0.0
 10
31.4246
 20
-16.7508
 30
0.0
 10
31.4246
 20
-16.7508
 30
0.0
 10
31.4246
 20
-16.7508
 30
0.0
 10
31.4246
 20
-16.7508
 30
0.0
 10
31.4246
 20
-16.5481
 30
0.0
 10
31.4246
 20
-16.5481
 30
0.0
 10
31.4246
 20
-16.5481
 30
0.0
 10
31.4246
 20
-16.5481
 30
0.0
 10
32.7336
 20
-16.5481
 30
0.0
 10
32.7336
 20
-16.5481
 30
0.0
 10
32.7336
 20
-16.5481
 30
0.0
 10
32.7336
 20
-16.5481
 30
0.0
 10
32.7336
 20
-16.2753
 30
0.0
 10
32.7336
 20
-16.2753
 30
0.0
 10
32.7336
 20
-16.2753
 30
0.0
 10
32.7336
 20
-16.2753
 30
0.0
 10
32.9613
 20
-16.2753
 30
0.0
 10
32.9613
 20
-16.2753
 30
0.0
 10
32.9613
 20
-16.2753
 30
0.0
 10
32.9613
 20
-16.2753
 30
0.0
 10
32.9613
 20
-16.5481
 30
0.0
 10
32.9613
 20
-16.5481
 30
0.0
 10
32.9613
 20
-16.5481
 30
0.0
 10
32.9613
 20
-16.5481
 30
0.0
 10
33.4448
 20
-16.5481
 30
0.0
 10
33.4448
 20
-16.5481
 30
0.0
 10
33.4448
 20
-16.5481
 30
0.0
 10
33.4448
 20
-16.5481
 30
0.0
 10
33.4448
 20
-16.7965
 30
0.0
 10
33.4448
 20
-16.7965
 30
0.0
  0
SPLINE
  5
FB
330
1F
100
AcDbEntity
  8
VRSTVA_1
 62
   250
100
AcDbSpline
210
0.0
220
0.0
230
1.0
 70
    11
 71
     3
 72
    16
 73
    12
 74
     0
 42
0.0000000001
 43
0.0000000001
 40
0.0
 40
0.0
 40
0.0
 40
0.0
 40
0.25
 40
0.25
 40
0.25
 40
0.25
 40
0.5
 40
0.5
 40
0.5
 40
0.5
 40
1.0
 40
1.0
 40
1.0
 40
1.0
 10
32.7336
 20
-16.7965
 30
0.0
 10
32.7336
 20
-16.7965
 30
0.0
 10
31.823
 20
-16.7965
 30
0.0
 10
31.823
 20
-16.7965
 30
0.0
 10
31.823
 20
-16.7965
 30
0.0
 10
31.823
 20
-16.7965
 30
0.0
 10
32.7336
 20
-17.4286
 30
0.0
 10
32.7336
 20
-17.4286
 30
0.0
 10
32.7336
 20
-17.4286
 30
0.0
 10
32.7336
 20
-17.4286
 30
0.0
 10
32.7336
 20
-16.7965
 30
0.0
 10
32.7336
 20
-16.7965
 30
0.0
  0
SPLINE
  5
FC
330
1F
100
AcDbEntity
  8
VRSTVA_1
 62
   250
100
AcDbSpline
210
0.0
220
0.0
230
1.0
 70
    11
 71
     3
 72
    52
 73
    48
 74
     0
 42
0.0000000001
 43
0.0000000001
 40
0.0
 40
0.0
 40
0.0
 40
0.0
 40
0.0769230769230769
 40
0.0769230769230769
 40
0.0769230769230769
 40
0.0769230769230769
 40
0.1538461538461539
 40
0.1538461538461539
 40
0.1538461538461539
 40
0.1538461538461539
 40
0.2307692307692308
 40
0.2307692307692308
 40
0.2307692307692308
 40
0.2307692307692308
 40
0.3076923076923077
 40
0.3076923076923077
 40
0.3076923076923077
 40
0.3076923076923077
 40
0.3846153846153846
 40
0.3846153846153846
 40
0.3846153846153846
 40
0.3846153846153846
 40
0.4615384615384616
 40
0.4615384615384616
 40
0.4615384615384616
 40
0.4615384615384616
 40
0.5384615384615384
 40
0.5384615384615384
 40
0.5384615384615384
 40
0.5384615384615384
 40
0.6153846153846154
 40
0.6153846153846154
 40
0.6153846153846154
 40
0.6153846153846154
 40
0.6923076923076923
 40
0.6923076923076923
 40
0.6923076923076923
 40
0.6923076923076923
 40
0.7692307692307693
 40
0.7692307692307693
 40
0.7692307692307693
 40
0.7692307692307693
 40
0.8461538461538461
 40
0.8461538461538461
 40
0.8461538461538461
 40
0.8461538461538461
 40
1.0
 40
1.0
 40
1.0
 40
1.0
 10
32.4486
 20
-16.0218
 30
0.0
 10
32.2096
 20
-16.0218
 30
0.0
 10
32.0172
 20
-15.9973
 30
0.0
 10
31.8719
 20
-15.9479
 30
0.0
 10
31.8719
 20
-15.9479
 30
0.0
 10
31.7261
 20
-15.899
 30
0.0
 10
31.6137
 20
-15.8256
 30
0.0
 10
31.5346
 20
-15.7287
 30
0.0
 10
31.5346
 20
-15.7287
 30
0.0
 10
31.4556
 20
-15.6318
 30
0.0
 10
31.4161
 20
-15.51
 30
0.0
 10
31.4161
 20
-15.3633
 30
0.0
 10
31.4161
 20
-15.3633
 30
0.0
 10
31.4161
 20
-15.2546
 30
0.0
 10
31.4382
 20
-15.1596
 30
0.0
 10
31.482
 20
-15.0778
 30
0.0
 10
31.482
 20
-15.0778
 30
0.0
 10
31.5252
 20
-14.9959
 30
0.0
 10
31.5883
 20
-14.9286
 30
0.0
 10
31.6706
 20
-14.875
 30
0.0
 10
31.6706
 20
-14.875
 30
0.0
 10
31.7529
 20
-14.8219
 30
0.0
 10
31.8531
 20
-14.78
 30
0.0
 10
31.9711
 20
-14.7499
 30
0.0
 10
31.9711
 20
-14.7499
 30
0.0
 10
32.0892
 20
-14.7193
 30
0.0
 10
32.2482
 20
-14.7043
 30
0.0
 10
32.4486
 20
-14.7043
 30
0.0
 10
32.4486
 20
-14.7043
 30
0.0
 10
32.6856
 20
-14.7043
 30
0.0
 10
32.8766
 20
-14.7287
 30
0.0
 10
33.0224
 20
-14.7772
 30
0.0
 10
33.0224
 20
-14.7772
 30
0.0
 10
33.1682
 20
-14.8261
 30
0.0
 10
33.2806
 20
-14.899
 30
0.0
 10
33.3601
 20
-14.9959
 30
0.0
 10
33.3601
 20
-14.9959
 30
0.0
 10
33.4396
 20
-15.0928
 30
0.0
 10
33.4791
 20
-15.2151
 30
0.0
 10
33.4791
 20
-15.3633
 30
0.0
 10
33.4791
 20
-15.3633
 30
0.0
 10
33.4791
 20
-15.558
 30
0.0
 10
33.4095
 20
-15.7109
 30
0.0
 10
33.2698
 20
-15.8219
 30
0.0
 10
33.2698
 20
-15.8219
 30
0.0
 10
33.1019
 20
-15.955
 30
0.0
 10
32.8277
 20
-16.0218
 30
0.0
 10
32.4486
 20
-16.0218
 30
0.0
  0
SPLINE
  5
FD
330
1F
100
AcDbEntity
  8
VRSTVA_1
 62
   250
100
AcDbSpline
210
0.0
220
0.0
230
1.0
 70
    11
 71
     3
 72
    36
 73
    32
 74
     0
 42
0.0000000001
 43
0.0000000001
 40
0.0
 40
0.0
 40
0.0
 40
0.0
 40
0.1111111111111111
 40
0.1111111111111111
 40
0.1111111111111111
 40
0.1111111111111111
 40
0.2222222222222222
 40
0.2222222222222222
 40
0.2222222222222222
 40
0.2222222222222222
 40
0.3333333333333333
 40
0.3333333333333333
 40
0.3333333333333333
 40
0.3333333333333333
 40
0.4444444444444444
 40
0.4444444444444444
 40
0.4444444444444444
 40
0.4444444444444444
 40
0.5555555555555556
 40
0.5555555555555556
 40
0.5555555555555556
 40
0.5555555555555556
 40
0.6666666666666666
 40
0.6666666666666666
 40
0.6666666666666666
 40
0.6666666666666666
 40
0.7777777777777778
 40
0.7777777777777778
 40
0.7777777777777778
 40
0.7777777777777778
 40
1.0
 40
1.0
 40
1.0
 40
1.0
 10
32.4486
 20
-15.7668
 30
0.0
 10
32.7802
 20
-15.7668
 30
0.0
 10
33.0008
 20
-15.7278
 30
0.0
 10
33.1108
 20
-15.6502
 30
0.0
 10
33.1108
 20
-15.6502
 30
0.0
 10
33.2204
 20
-15.5726
 30
0.0
 10
33.2755
 20
-15.4771
 30
0.0
 10
33.2755
 20
-15.3633
 30
0.0
 10
33.2755
 20
-15.3633
 30
0.0
 10
33.2755
 20
-15.249
 30
0.0
 10
33.22
 20
-15.1535
 30
0.0
 10
33.1099
 20
-15.0759
 30
0.0
 10
33.1099
 20
-15.0759
 30
0.0
 10
32.9998
 20
-14.9983
 30
0.0
 10
32.7792
 20
-14.9592
 30
0.0
 10
32.4486
 20
-14.9592
 30
0.0
 10
32.4486
 20
-14.9592
 30
0.0
 10
32.116
 20
-14.9592
 30
0.0
 10
31.8949
 20
-14.9983
 30
0.0
 10
31.7858
 20
-15.0759
 30
0.0
 10
31.7858
 20
-15.0759
 30
0.0
 10
31.6762
 20
-15.1535
 30
0.0
 10
31.6217
 20
-15.2499
 30
0.0
 10
31.6217
 20
-15.3656
 30
0.0
 10
31.6217
 20
-15.3656
 30
0.0
 10
31.6217
 20
-15.4799
 30
0.0
 10
31.6701
 20
-15.5707
 30
0.0
 10
31.7665
 20
-15.6389
 30
0.0
 10
31.7665
 20
-15.6389
 30
0.0
 10
31.8893
 20
-15.724
 30
0.0
 10
32.117
 20
-15.7668
 30
0.0
 10
32.4486
 20
-15.7668
 30
0.0
  0
SPLINE
  5
FE
330
1F
100
AcDbEntity
  8
VRSTVA_1
 62
   250
100
AcDbSpline
210
0.0
220
0.0
230
1.0
 70
    11
 71
     3
 72
    20
 73
    16
 74
     0
 42
0.0000000001
 43
0.0000000001
 40
0.0
 40
0.0
 40
0.0
 40
0.0
 40
0.2
 40
0.2
 40
0.2
 40
0.2
 40
0.4
 40
0.4
 40
0.4
 40
0.4
 40
0.6
 40
0.6
 40
0.6
 40
0.6
 40
1.0
 40
1.0
 40
1.0
 40
1.0
 10
33.5762
 20
-11.6536
 30
0.0
 10
33.5762
 20
-11.6536
 30
0.0
 10
34.0173
 20
-8.5285
 30
0.0
 10
34.0173
 20
-8.5285
 30
0.0
 10
34.0173
 20
-8.5285
 30
0.0
 10
34.0173
 20
-8.5285
 30
0.0
 10
34.1152
 20
-8.5285
 30
0.0
 10
34.1152
 20
-8.5285
 30
0.0
 10
34.1152
 20
-8.5285
 30
0.0
 10
34.1152
 20
-8.5285
 30
0.0
 10
34.5856
 20
-11.6536
 30
0.0
 10
34.5856
 20
-11.6536
 30
0.0
 10
34.5856
 20
-11.6536
 30
0.0
 10
34.5856
 20
-11.6536
 30
0.0
 10
33.5762
 20
-11.6536
 30
0.0
 10
33.5762
 20
-11.6536
 30
0.0
  0
SPLINE
  5
FF
330
1F
100
AcDbEntity
  8
VRSTVA_1
 62
   250
100
AcDbSpline
210
0.0
220
0.0
230
1.0
 70
    11
 71
     3
 72
    20
 73
    16
 74
     0
 42
0.0000000001
 43
0.0000000001
 40
0.0
 40
0.0
 40
0.0
 40
0.0
 40
0.2
 40
0.2
 40
0.2
 40
0.2
 40
0.4
 40
0.4
 40
0.4
 40
0.4
 40
0.6
 40
0.6
 40
0.6
 40
0.6
 40
1.0
 40
1.0
 40
1.0
 40
1.0
 10
34.5828
 20
-21.0523
 30
0.0
 10
34.5828
 20
-21.0523
 30
0.0
 10
34.1417
 20
-24.1773
 30
0.0
 10
34.1417
 20
-24.1773
 30
0.0
 10
34.1417
 20
-24.1773
 30
0.0
 10
34.1417
 20
-24.1773
 30
0.0
 10
34.0438
 20
-24.1773
 30
0.0
 10
34.0438
 20
-24.1773
 30
0.0
 10
34.0438
 20
-24.1773
 30
0.0
 10
34.0438
 20
-24.1773
 30
0.0
 10
33.5734
 20
-21.0523
 30
0.0
 10
33.5734
 20
-21.0523
 30
0.0
 10
33.5734
 20
-21.0523
 30
0.0
 10
33.5734
 20
-21.0523
 30
0.0
 10
34.5828
 20
-21.0523
 30
0.0
 10
34.5828
 20
-21.0523
 30
0.0
  0
ENDSEC
  0
SECTION
  2
OBJECTS
  0
DICTIONARY
  5
C
330
0
100
AcDbDictionary
  3
ACAD_GROUP
350
D
  3
ACAD_LAYOUT
350
1A
  3
ACAD_MATERIAL
350
3B
  3
ACAD_MLEADERSTYLE
350
122
  3
ACAD_MLINESTYLE
350
17
  3
ACAD_PLOTSETTINGS
350
19
  3
ACAD_VISUALSTYLE
350
2A
  3
ACDBHEADERROUNDTRIPXREC
350
100
  3
ACDBVARIABLEDICTIONARY
350
120
  0
DICTIONARY
  5
D
102
{ACAD_REACTORS
330
C
102
}
330
C
100
AcDbDictionary
  0
DICTIONARY
  5
1A
102
{ACAD_REACTORS
330
C
102
}
330
C
100
AcDbDictionary
  0
DICTIONARY
  5
3B
102
{ACAD_REACTORS
330
C
102
}
330
C
100
AcDbDictionary
  3
BYBLOCK
350
3D
  3
BYLAYER
350
3C
  3
GLOBAL
350
3E
  0
DICTIONARY
  5
122
102
{ACAD_REACTORS
330
C
102
}
330
C
100
AcDbDictionary
  0
DICTIONARY
  5
17
102
{ACAD_REACTORS
330
C
102
}
330
C
100
AcDbDictionary
  3
STANDARD
350
18
  0
DICTIONARY
  5
19
102
{ACAD_REACTORS
330
C
102
}
330
C
100
AcDbDictionary
  0
DICTIONARY
  5
2A
102
{ACAD_REACTORS
330
C
102
}
330
C
100
AcDbDictionary
  3
2DWIREFRAME
350
2F
  3
3D_HIDDEN
350
31
  3
3DWIREFRAME
350
30
  3
BASIC
350
32
  3
BRIGHTEN
350
36
  3
COLORCHANGE
350
3A
  3
CONCEPTUAL
350
34
  3
DIM
350
35
  3
FACEPATTERN
350
39
  3
FLAT
350
2B
  3
FLATWITHEDGES
350
2C
  3
GOURAUD
350
2D
  3
GOURAUDWITHEDGES
350
2E
  3
LINEPATTERN
350
38
  3
REALISTIC
350
33
  3
THICKEN
350
37
  0
DICTIONARY
  5
100
102
{ACAD_REACTORS
330
C
102
}
330
C
100
AcDbDictionary
  3
CEPSNTYPE
350
109
  3
DIMSTYLEDATA
350
11F
  3
FINGERPRINTGUID
350
10A
  3
HYPERLINKBASE
350
103
  3
INSUNITS
350
108
  3
LAYOUTDICT
350
105
  3
LWETCUNION
350
107
  3
PLOTSETDICT
350
106
  3
PSVPSCALE
350
10C
  3
PUCSBASE
350
10F
  3
PUCSORGBACK
350
115
  3
PUCSORGBOTTOM
350
111
  3
PUCSORGFRONT
350
114
  3
PUCSORGLEFT
350
112
  3
PUCSORGRIGHT
350
113
  3
PUCSORGTOP
350
110
  3
PUCSORTHOREF
350
10D
  3
PUCSORTHOVIEW
350
10E
  3
STYLESHEET
350
104
  3
TSTACKALIGN
350
101
  3
TSTACKSIZE
350
102
  3
UCSBASE
350
118
  3
UCSORGBACK
350
11E
  3
UCSORGBOTTOM
350
11A
  3
UCSORGFRONT
350
11D
  3
UCSORGLEFT
350
11B
  3
UCSORGRIGHT
350
11C
  3
UCSORGTOP
350
119
  3
UCSORTHOREF
350
116
  3
UCSORTHOVIEW
350
117
  3
VERSIONGUID
350
10B
  0
DICTIONARY
  5
120
102
{ACAD_REACTORS
330
C
102
}
330
C
100
AcDbDictionary
  3
DIMASSOC
350
123
  3
HIDETEXT
350
124
  0
MATERIAL
  5
3D
102
{ACAD_REACTORS
330
3B
102
}
102
{ACAD_XDICTIONARY
360
127
102
}
330
3B
100
AcDbMaterial
  1
ByBlock
  0
MATERIAL
  5
3C
102
{ACAD_REACTORS
330
3B
102
}
102
{ACAD_XDICTIONARY
360
125
102
}
330
3B
100
AcDbMaterial
  1
ByLayer
  0
MATERIAL
  5
3E
102
{ACAD_REACTORS
330
3B
102
}
102
{ACAD_XDICTIONARY
360
129
102
}
330
3B
100
AcDbMaterial
  1
Global
  0
MLINESTYLE
  5
18
102
{ACAD_REACTORS
330
17
102
}
330
17
100
AcDbMlineStyle
  2
Standard
 70
     0
  3

 62
   256
 51
90.0
 52
90.0
 71
     2
 49
0.5
 62
   256
  6
BYLAYER
 49
-0.5
 62
   256
  6
BYLAYER
  0
ACAD_PROXY_OBJECT
  5
2F
102
{ACAD_REACTORS
330
2A
102
}
330
2A
100
AcDbProxyObject
 90
      499
 91
      501
 93
      436
310
42CC9915DA5C99599C985B595049028333333333333E3BF0000000000000FB0107901411070040501600405405064090741402480A0340
1001
ACAD
1000
AcDbSavedByObjectVersion
1070
     0
  0
ACAD_PROXY_OBJECT
  5
31
102
{ACAD_REACTORS
330
2A
102
}
330
2A
100
AcDbProxyObject
 90
      499
 91
      501
 93
      500
310
424CD108121A5919195B90640502408333333333333E3BF0000000000000FB01079024090700405020000000000001110200405405064090740C02480A0340
1001
ACAD
1000
AcDbSavedByObjectVersion
1070
     0
  0
ACAD_PROXY_OBJECT
  5
30
102
{ACAD_REACTORS
330
2A
102
}
330
2A
100
AcDbProxyObject
 90
      499
 91
      501
 93
      436
310
42CCD915DA5C99599C985B595059028333333333333E3BF0000000000000FB0107901411070040501600405405064090741402480A0340
1001
ACAD
1000
AcDbSavedByObjectVersion
1070
     0
  0
ACAD_PROXY_OBJECT
  5
32
102
{ACAD_REACTORS
330
2A
102
}
330
2A
100
AcDbProxyObject
 90
      499
 91
      501
 93
      388
310
4150985CDA58D07406404333333333333E3BF0000000000000FB0107A41107004050150841D405064090741402480A0350
1001
ACAD
1000
AcDbSavedByObjectVersion
1070
     0
  0
ACAD_PROXY_OBJECT
  5
36
102
{ACAD_REACTORS
330
2A
102
}
330
2A
100
AcDbProxyObject
 90
      499
 91
      501
 93
      428
310
42109C9A59DA1D195B90C409028333333333333E3BF0000000000000FB010790141107004050150841D405064090741402480A029950
1001
ACAD
1000
AcDbSavedByObjectVersion
1070
     0
  0
ACAD_PROXY_OBJECT
  5
3A
102
{ACAD_REACTORS
330
2A
102
}
330
2A
100
AcDbProxyObject
 90
      499
 91
      501
 93
      452
310
42D0DBDB1BDC90DA185B99D95104090240C333333333333E3BF0000000000000FB0108901411070040501508421405064090741402480A0350
1001
ACAD
1000
AcDbSavedByObjectVersion
1070
     0
  0
ACAD_PROXY_OBJECT
  5
34
102
{ACAD_REACTORS
330
2A
102
}
330
2A
100
AcDbProxyObject
 90
      499
 91
      501
 93
      500
310
4290DBDB98D95C1D1D585B10940D028333333333333E3BF0000000000000FB0107902409070040501000000000000111010841D405064090740C02480A0340
1001
ACAD
1000
AcDbSavedByObjectVersion
1070
     0
  0
ACAD_PROXY_OBJECT
  5
35
102
{ACAD_REACTORS
330
2A
102
}
330
2A
100
AcDbProxyObject
 90
      499
 91
      501
 93
      412
310
40D11A5B50B409028333333333333E3BF0000000000000FB010790141107004050150841D405064090741402480A02677FFFFFD0
1001
ACAD
1000
AcDbSavedByObjectVersion
1070
     0
  0
ACAD_PROXY_OBJECT
  5
39
102
{ACAD_REACTORS
330
2A
102
}
330
2A
100
AcDbProxyObject
 90
      499
 91
      501
 93
      444
310
42D19858D95C185D1D195C9B90F409028333333333333E3BF0000000000000FB010790141107004050150841D405064090741402480A0350
1001
ACAD
1000
AcDbSavedByObjectVersion
1070
     0
  0
ACAD_PROXY_OBJECT
  5
2B
102
{ACAD_REACTORS
330
2A
102
}
330
2A
100
AcDbProxyObject
 90
      499
 91
      501
 93
      388
310
41119B185D240901404333333333333E3BF0000000000000F9010740A41107004050150841D405064090741402480A1B50
1001
ACAD
1000
AcDbSavedByObjectVersion
1070
     0
  0
ACAD_PROXY_OBJECT
  5
2C
102
{ACAD_REACTORS
330
2A
102
}
330
2A
100
AcDbProxyObject
 90
      499
 91
      501
 93
      476
310
43519B185D15DA5D1A115919D95CD0140901404333333333333E3BF0000000000000F9010740901411070040501600405405064090741402480A1B50
1001
ACAD
1000
AcDbSavedByObjectVersion
1070
     0
  0
ACAD_PROXY_OBJECT
  5
2D
102
{ACAD_REACTORS
330
2A
102
}
330
2A
100
AcDbProxyObject
 90
      499
 91
      501
 93
      412
310
41D1DBDD5C985D5910240902404333333333333E3BF0000000000000F9010740A411070040501641D405064090741402480A1B50
1001
ACAD
1000
AcDbSavedByObjectVersion
1070
     0
  0
ACAD_PROXY_OBJECT
  5
2E
102
{ACAD_REACTORS
330
2A
102
}
330
2A
100
AcDbProxyObject
 90
      499
 91
      501
 93
      500
310
4411DBDD5C985D5915DA5D1A115919D95CD0340902404333333333333E3BF0000000000000F9010740901411070040501600405405064090741402480A1B50
1001
ACAD
1000
AcDbSavedByObjectVersion
1070
     0
  0
ACAD_PROXY_OBJECT
  5
38
102
{ACAD_REACTORS
330
2A
102
}
330
2A
100
AcDbProxyObject
 90
      499
 91
      501
 93
      444
310
42D31A5B995C185D1D195C9B90E409028333333333333E3BF0000000000000FB010790141107004050750841D405064090741402483A0350
1001
ACAD
1000
AcDbSavedByObjectVersion
1070
     0
  0
ACAD_PROXY_OBJECT
  5
33
102
{ACAD_REACTORS
330
2A
102
}
330
2A
100
AcDbProxyObject
 90
      499
 91
      501
 93
      420
310
425499585B1A5CDD1A58D08409028333333333333E3BF0000000000000FB01079019070040501508421405064090741402480A1B40
1001
ACAD
1000
AcDbSavedByObjectVersion
1070
     0
  0
ACAD_PROXY_OBJECT
  5
37
102
{ACAD_REACTORS
330
2A
102
}
330
2A
100
AcDbProxyObject
 90
      499
 91
      501
 93
      412
310
41D51A1A58DAD95B90D409028333333333333E3BF0000000000000FB010790141107004050150C41D405064090741402480A0350
1001
ACAD
1000
AcDbSavedByObjectVersion
1070
     0
  0
XRECORD
  5
109
102
{ACAD_REACTORS
330
100
102
}
330
100
100
AcDbXrecord
 90
        0
  0
XRECORD
  5
11F
102
{ACAD_REACTORS
330
100
102
}
330
100
100
AcDbXrecord
1000
DSTYLE
1002
{
1070
   340
340
11
1002
}
  0
XRECORD
  5
10A
102
{ACAD_REACTORS
330
100
102
}
330
100
100
AcDbXrecord
  1
{ABB039F8-0F52-4F9A-A6B3-8E59656B4534}
  0
XRECORD
  5
103
102
{ACAD_REACTORS
330
100
102
}
330
100
100
AcDbXrecord
  1

  0
XRECORD
  5
108
102
{ACAD_REACTORS
330
100
102
}
330
100
100
AcDbXrecord
 90
        4
  0
XRECORD
  5
105
102
{ACAD_REACTORS
330
100
102
}
330
100
100
AcDbXrecord
340
1A
  0
XRECORD
  5
107
102
{ACAD_REACTORS
330
100
102
}
330
100
100
AcDbXrecord
 90
    10781
  0
XRECORD
  5
106
102
{ACAD_REACTORS
330
100
102
}
330
100
100
AcDbXrecord
340
19
  0
XRECORD
  5
10C
102
{ACAD_REACTORS
330
100
102
}
330
100
100
AcDbXrecord
 40
0.0
  0
XRECORD
  5
10F
102
{ACAD_REACTORS
330
100
102
}
330
100
100
AcDbXrecord
340
0
  0
XRECORD
  5
115
102
{ACAD_REACTORS
330
100
102
}
330
100
100
AcDbXrecord
 10
0.0
 20
0.0
 30
0.0
  0
XRECORD
  5
111
102
{ACAD_REACTORS
330
100
102
}
330
100
100
AcDbXrecord
 10
0.0
 20
0.0
 30
0.0
  0
XRECORD
  5
114
102
{ACAD_REACTORS
330
100
102
}
330
100
100
AcDbXrecord
 10
0.0
 20
0.0
 30
0.0
  0
XRECORD
  5
112
102
{ACAD_REACTORS
330
100
102
}
330
100
100
AcDbXrecord
 10
0.0
 20
0.0
 30
0.0
  0
XRECORD
  5
113
102
{ACAD_REACTORS
330
100
102
}
330
100
100
AcDbXrecord
 10
0.0
 20
0.0
 30
0.0
  0
XRECORD
  5
110
102
{ACAD_REACTORS
330
100
102
}
330
100
100
AcDbXrecord
 10
0.0
 20
0.0
 30
0.0
  0
XRECORD
  5
10D
102
{ACAD_REACTORS
330
100
102
}
330
100
100
AcDbXrecord
340
0
  0
XRECORD
  5
10E
102
{ACAD_REACTORS
330
100
102
}
330
100
100
AcDbXrecord
 70
     0
  0
XRECORD
  5
104
102
{ACAD_REACTORS
330
100
102
}
330
100
100
AcDbXrecord
  1

  0
XRECORD
  5
101
102
{ACAD_REACTORS
330
100
102
}
330
100
100
AcDbXrecord
 90
        1
  0
XRECORD
  5
102
102
{ACAD_REACTORS
330
100
102
}
330
100
100
AcDbXrecord
 90
       70
  0
XRECORD
  5
118
102
{ACAD_REACTORS
330
100
102
}
330
100
100
AcDbXrecord
340
0
  0
XRECORD
  5
11E
102
{ACAD_REACTORS
330
100
102
}
330
100
100
AcDbXrecord
 10
0.0
 20
0.0
 30
0.0
  0
XRECORD
  5
11A
102
{ACAD_REACTORS
330
100
102
}
330
100
100
AcDbXrecord
 10
0.0
 20
0.0
 30
0.0
  0
XRECORD
  5
11D
102
{ACAD_REACTORS
330
100
102
}
330
100
100
AcDbXrecord
 10
0.0
 20
0.0
 30
0.0
  0
XRECORD
  5
11B
102
{ACAD_REACTORS
330
100
102
}
330
100
100
AcDbXrecord
 10
0.0
 20
0.0
 30
0.0
  0
XRECORD
  5
11C
102
{ACAD_REACTORS
330
100
102
}
330
100
100
AcDbXrecord
 10
0.0
 20
0.0
 30
0.0
  0
XRECORD
  5
119
102
{ACAD_REACTORS
330
100
102
}
330
100
100
AcDbXrecord
 10
0.0
 20
0.0
 30
0.0
  0
XRECORD
  5
116
102
{ACAD_REACTORS
330
100
102
}
330
100
100
AcDbXrecord
340
0
  0
XRECORD
  5
117
102
{ACAD_REACTORS
330
100
102
}
330
100
100
AcDbXrecord
 70
     0
  0
XRECORD
  5
10B
102
{ACAD_REACTORS
330
100
102
}
330
100
100
AcDbXrecord
  1
{FAEB1C32-E019-11D5-929B-00C0DF256EC4}
  0
DICTIONARYVAR
  5
123
102
{ACAD_REACTORS
330
120
102
}
330
120
100
DictionaryVariables
280
     0
  1
2
  0
DICTIONARYVAR
  5
124
102
{ACAD_REACTORS
330
120
102
}
330
120
100
DictionaryVariables
280
     0
  1
1
  0
DICTIONARY
  5
127
330
3D
100
AcDbDictionary
280
     1
  3
ACAD_XREC_ROUNDTRIP
360
128
  0
DICTIONARY
  5
125
330
3C
100
AcDbDictionary
280
     1
  3
ACAD_XREC_ROUNDTRIP
360
126
  0
DICTIONARY
  5
129
330
3E
100
AcDbDictionary
280
     1
  3
ACAD_XREC_ROUNDTRIP
360
12A
  0
XRECORD
  5
128
102
{ACAD_REACTORS
330
127
102
}
330
127
100
AcDbXrecord
102
MATERIAL
148
0.0
149
0.0
149
0.0
 93
        0
 94
      127
282
     0
 72
     1
 77
     1
171
     1
175
     1
179
     1
273
     0
  0
XRECORD
  5
126
102
{ACAD_REACTORS
330
125
102
}
330
125
100
AcDbXrecord
102
MATERIAL
148
0.0
149
0.0
149
0.0
 93
        0
 94
      127
282
     0
 72
     1
 77
     1
171
     1
175
     1
179
     1
273
     0
  0
XRECORD
  5
12A
102
{ACAD_REACTORS
330
129
102
}
330
129
100
AcDbXrecord
102
MATERIAL
148
0.0
149
0.0
149
0.0
 93
        0
 94
      127
282
     0
 72
     1
 77
     1
171
     1
175
     1
179
     1
273
     0
  0
ENDSEC
  0
EOF
