  0
SECTION
  2
HEADER
  9
$ACADVER
  1
AC1014
  9
$ACADMAINTVER
 70
     9
  9
$DWGCODEPAGE
  3
ANSI_1250
  9
$INSBASE
 10
0.0
 20
0.0
 30
0.0
  9
$EXTMIN
 10
-16.6076
 20
-30.749
 30
0.0
  9
$EXTMAX
 10
16.6073
 20
30.6198
 30
0.0
  9
$LIMMIN
 10
0.0
 20
0.0
  9
$LIMMAX
 10
12.0
 20
9.0
  9
$ORTHOMODE
 70
     0
  9
$REGENMODE
 70
     1
  9
$FILLMODE
 70
     1
  9
$QTEXTMODE
 70
     0
  9
$MIRRTEXT
 70
     1
  9
$DRAGMODE
 70
     2
  9
$LTSCALE
 40
1.0
  9
$OSMODE
 70
    37
  9
$ATTMODE
 70
     1
  9
$TEXTSIZE
 40
0.2
  9
$TRACEWID
 40
0.05
  9
$TEXTSTYLE
  7
STANDARD
  9
$CLAYER
  8
0
  9
$CELTYPE
  6
BYLAYER
  9
$CECOLOR
 62
   256
  9
$CELTSCALE
 40
1.0
  9
$DELOBJ
 70
     1
  9
$DISPSILH
 70
     0
  9
$DIMSCALE
 40
1.0
  9
$DIMASZ
 40
0.18
  9
$DIMEXO
 40
0.0625
  9
$DIMDLI
 40
0.38
  9
$DIMRND
 40
0.0
  9
$DIMDLE
 40
0.0
  9
$DIMEXE
 40
0.18
  9
$DIMTP
 40
0.0
  9
$DIMTM
 40
0.0
  9
$DIMTXT
 40
0.18
  9
$DIMCEN
 40
0.09
  9
$DIMTSZ
 40
0.0
  9
$DIMTOL
 70
     0
  9
$DIMLIM
 70
     0
  9
$DIMTIH
 70
     1
  9
$DIMTOH
 70
     1
  9
$DIMSE1
 70
     0
  9
$DIMSE2
 70
     0
  9
$DIMTAD
 70
     0
  9
$DIMZIN
 70
     0
  9
$DIMBLK
  1

  9
$DIMASO
 70
     1
  9
$DIMSHO
 70
     1
  9
$DIMPOST
  1

  9
$DIMAPOST
  1

  9
$DIMALT
 70
     0
  9
$DIMALTD
 70
     2
  9
$DIMALTF
 40
25.4
  9
$DIMLFAC
 40
1.0
  9
$DIMTOFL
 70
     0
  9
$DIMTVP
 40
0.0
  9
$DIMTIX
 70
     0
  9
$DIMSOXD
 70
     0
  9
$DIMSAH
 70
     0
  9
$DIMBLK1
  1

  9
$DIMBLK2
  1

  9
$DIMSTYLE
  2
STANDARD
  9
$DIMCLRD
 70
     0
  9
$DIMCLRE
 70
     0
  9
$DIMCLRT
 70
     0
  9
$DIMTFAC
 40
1.0
  9
$DIMGAP
 40
0.09
  9
$DIMJUST
 70
     0
  9
$DIMSD1
 70
     0
  9
$DIMSD2
 70
     0
  9
$DIMTOLJ
 70
     1
  9
$DIMTZIN
 70
     0
  9
$DIMALTZ
 70
     0
  9
$DIMALTTZ
 70
     0
  9
$DIMFIT
 70
     3
  9
$DIMUPT
 70
     0
  9
$DIMUNIT
 70
     2
  9
$DIMDEC
 70
     4
  9
$DIMTDEC
 70
     4
  9
$DIMALTU
 70
     2
  9
$DIMALTTD
 70
     2
  9
$DIMTXSTY
  7
STANDARD
  9
$DIMAUNIT
 70
     0
  9
$LUNITS
 70
     2
  9
$LUPREC
 70
     4
  9
$SKETCHINC
 40
0.1
  9
$FILLETRAD
 40
0.5
  9
$AUNITS
 70
     0
  9
$AUPREC
 70
     0
  9
$MENU
  1
.
  9
$ELEVATION
 40
0.0
  9
$PELEVATION
 40
0.0
  9
$THICKNESS
 40
0.0
  9
$LIMCHECK
 70
     0
  9
$CHAMFERA
 40
0.5
  9
$CHAMFERB
 40
0.5
  9
$CHAMFERC
 40
1.0
  9
$CHAMFERD
 40
0.0
  9
$SKPOLY
 70
     0
  9
$TDCREATE
 40
2456266.362954768
  9
$TDUPDATE
 40
2456266.36295478
  9
$TDINDWG
 40
0.0000000116
  9
$TDUSRTIMER
 40
0.0000000116
  9
$USRTIMER
 70
     1
  9
$ANGBASE
 50
0.0
  9
$ANGDIR
 70
     0
  9
$PDMODE
 70
     0
  9
$PDSIZE
 40
0.0
  9
$PLINEWID
 40
0.0
  9
$COORDS
 70
     1
  9
$SPLFRAME
 70
     0
  9
$SPLINETYPE
 70
     6
  9
$SPLINESEGS
 70
     8
  9
$ATTDIA
 70
     0
  9
$ATTREQ
 70
     1
  9
$HANDLING
 70
     1
  9
$HANDSEED
  5
15C
  9
$SURFTAB1
 70
     6
  9
$SURFTAB2
 70
     6
  9
$SURFTYPE
 70
     6
  9
$SURFU
 70
     6
  9
$SURFV
 70
     6
  9
$UCSNAME
  2

  9
$UCSORG
 10
0.0
 20
0.0
 30
0.0
  9
$UCSXDIR
 10
1.0
 20
0.0
 30
0.0
  9
$UCSYDIR
 10
0.0
 20
1.0
 30
0.0
  9
$PUCSNAME
  2

  9
$PUCSORG
 10
0.0
 20
0.0
 30
0.0
  9
$PUCSXDIR
 10
1.0
 20
0.0
 30
0.0
  9
$PUCSYDIR
 10
0.0
 20
1.0
 30
0.0
  9
$USERI1
 70
     0
  9
$USERI2
 70
     0
  9
$USERI3
 70
     0
  9
$USERI4
 70
     0
  9
$USERI5
 70
     0
  9
$USERR1
 40
0.0
  9
$USERR2
 40
0.0
  9
$USERR3
 40
0.0
  9
$USERR4
 40
0.0
  9
$USERR5
 40
0.0
  9
$WORLDVIEW
 70
     1
  9
$SHADEDGE
 70
     3
  9
$SHADEDIF
 70
    70
  9
$TILEMODE
 70
     1
  9
$MAXACTVP
 70
    64
  9
$PINSBASE
 10
0.0
 20
0.0
 30
0.0
  9
$PLIMCHECK
 70
     0
  9
$PEXTMIN
 10
1.000000000000000E+20
 20
1.000000000000000E+20
 30
1.000000000000000E+20
  9
$PEXTMAX
 10
-1.000000000000000E+20
 20
-1.000000000000000E+20
 30
-1.000000000000000E+20
  9
$PLIMMIN
 10
0.0
 20
0.0
  9
$PLIMMAX
 10
12.0
 20
9.0
  9
$UNITMODE
 70
     0
  9
$VISRETAIN
 70
     1
  9
$PLINEGEN
 70
     0
  9
$PSLTSCALE
 70
     1
  9
$TREEDEPTH
 70
  3020
  9
$PICKSTYLE
 70
     1
  9
$CMLSTYLE
  2
STANDARD
  9
$CMLJUST
 70
     0
  9
$CMLSCALE
 40
1.0
  9
$PROXYGRAPHICS
 70
     1
  9
$MEASUREMENT
 70
     0
  0
ENDSEC
  0
SECTION
  2
CLASSES
  0
CLASS
  1
ACDBDICTIONARYWDFLT
  2
AcDbDictionaryWithDefault
  3
ObjectDBX Classes
 90
        0
280
     0
281
     0
  0
CLASS
  1
VISUALSTYLE
  2
AcDbVisualStyle
  3
ObjectDBX Classes
 90
     4095
280
     0
281
     0
  0
CLASS
  1
MATERIAL
  2
AcDbMaterial
  3
ObjectDBX Classes
 90
     1153
280
     0
281
     0
  0
CLASS
  1
DICTIONARYVAR
  2
AcDbDictionaryVar
  3
ObjectDBX Classes
 90
        0
280
     0
281
     0
  0
CLASS
  1
XRECORD
  2
AcDbXrecord
  3
AutoCAD 2000
 90
        0
280
     0
281
     0
  0
CLASS
  1
LWPOLYLINE
  2
AcDbPolyline
  3
AutoCAD 2000
 90
        0
280
     0
281
     1
  0
CLASS
  1
HATCH
  2
AcDbHatch
  3
AutoCAD 2000
 90
        0
280
     0
281
     1
  0
CLASS
  1
ACDBPLACEHOLDER
  2
AcDbPlaceHolder
  3
ObjectDBX Classes
 90
        0
280
     0
281
     0
  0
CLASS
  1
LAYOUT
  2
AcDbLayout
  3
ObjectDBX Classes
 90
        0
280
     0
281
     0
  0
ENDSEC
  0
SECTION
  2
TABLES
  0
TABLE
  2
VPORT
  5
8
330
0
100
AcDbSymbolTable
 70
     1
  0
VPORT
  5
29
330
8
100
AcDbSymbolTableRecord
100
AcDbViewportTableRecord
  2
*ACTIVE
 70
     0
 10
0.0
 20
0.0
 11
1.0
 21
1.0
 12
10.42990654205607
 22
4.5
 13
0.0
 23
0.0
 14
0.5
 24
0.5
 15
0.5
 25
0.5
 16
0.0
 26
0.0
 36
1.0
 17
0.0
 27
0.0
 37
0.0
 40
9.0
 41
1.972972972850329
 42
50.0
 43
0.0
 44
0.0
 50
0.0
 51
0.0
 71
     0
 72
   100
 73
     1
 74
     3
 75
     0
 76
     0
 77
     0
 78
     0
  0
ENDTAB
  0
TABLE
  2
LTYPE
  5
5
330
0
100
AcDbSymbolTable
 70
     3
  0
LTYPE
  5
14
330
5
100
AcDbSymbolTableRecord
100
AcDbLinetypeTableRecord
  2
BYBLOCK
 70
     0
  3

 72
    65
 73
     0
 40
0.0
  0
LTYPE
  5
15
330
5
100
AcDbSymbolTableRecord
100
AcDbLinetypeTableRecord
  2
BYLAYER
 70
     0
  3

 72
    65
 73
     0
 40
0.0
  0
LTYPE
  5
16
330
5
100
AcDbSymbolTableRecord
100
AcDbLinetypeTableRecord
  2
CONTINUOUS
 70
     0
  3
Solid line
 72
    65
 73
     0
 40
0.0
  0
LTYPE
  5
4B
330
5
100
AcDbSymbolTableRecord
100
AcDbLinetypeTableRecord
  2
NEW_LINE1
 70
     0
  3

 72
    65
 73
     4
 40
1.2
 49
0.5
 74
     4
 75
     0
340
0
 46
1.0
 50
0.0
 44
0.0
 45
0.0
 49
-0.3
 74
     4
 75
     0
340
0
 46
1.0
 50
0.0
 44
0.0
 45
0.0
 49
0.1
 74
     4
 75
     0
340
0
 46
1.0
 50
0.0
 44
0.0
 45
0.0
 49
-0.3
 74
     4
 75
     0
340
0
 46
1.0
 50
0.0
 44
0.0
 45
0.0
  0
LTYPE
  5
4D
330
5
100
AcDbSymbolTableRecord
100
AcDbLinetypeTableRecord
  2
NEW_LINE2
 70
     0
  3

 72
    65
 73
     4
 40
1.2
 49
0.5
 74
     4
 75
     0
340
0
 46
1.0
 50
0.0
 44
0.0
 45
0.0
 49
-0.3
 74
     4
 75
     0
340
0
 46
1.0
 50
0.0
 44
0.0
 45
0.0
 49
0.1
 74
     4
 75
     0
340
0
 46
1.0
 50
0.0
 44
0.0
 45
0.0
 49
-0.3
 74
     4
 75
     0
340
0
 46
1.0
 50
0.0
 44
0.0
 45
0.0
  0
ENDTAB
  0
TABLE
  2
LAYER
  5
2
330
0
100
AcDbSymbolTable
 70
     2
  0
LAYER
  5
10
330
2
100
AcDbSymbolTableRecord
100
AcDbLayerTableRecord
  2
0
 70
     0
 62
     7
  6
CONTINUOUS
  0
LAYER
  5
40
330
2
100
AcDbSymbolTableRecord
100
AcDbLayerTableRecord
  2
DEFAULT_1
 70
     0
 62
     7
  6
CONTINUOUS
  0
ENDTAB
  0
TABLE
  2
STYLE
  5
3
330
0
100
AcDbSymbolTable
 70
     1
  0
STYLE
  5
11
330
3
100
AcDbSymbolTableRecord
100
AcDbTextStyleTableRecord
  2
STANDARD
 70
     0
 40
0.0
 41
1.0
 50
0.0
 71
     0
 42
0.2
  3
txt
  4

  0
ENDTAB
  0
TABLE
  2
VIEW
  5
6
330
0
100
AcDbSymbolTable
 70
     0
  0
ENDTAB
  0
TABLE
  2
UCS
  5
7
330
0
100
AcDbSymbolTable
 70
     0
  0
ENDTAB
  0
TABLE
  2
APPID
  5
9
330
0
100
AcDbSymbolTable
 70
     2
  0
APPID
  5
12
330
9
100
AcDbSymbolTableRecord
100
AcDbRegAppTableRecord
  2
ACAD
 70
     0
  0
APPID
  5
3F
330
9
100
AcDbSymbolTableRecord
100
AcDbRegAppTableRecord
  2
ODA
 70
     0
  0
ENDTAB
  0
TABLE
  2
DIMSTYLE
  5
A
330
0
100
AcDbSymbolTable
 70
     1
  0
DIMSTYLE
105
27
330
A
100
AcDbSymbolTableRecord
100
AcDbDimStyleTableRecord
  2
STANDARD
 70
     0
  3

  4

  5

  6

  7

 40
1.0
 41
0.18
 42
0.0625
 43
0.38
 44
0.18
 45
0.0
 46
0.0
 47
0.0
 48
0.0
140
0.18
141
0.09
142
0.0
143
25.4
144
1.0
145
0.0
146
1.0
147
0.09
 71
     0
 72
     0
 73
     1
 74
     1
 75
     0
 76
     0
 77
     0
 78
     0
170
     0
171
     2
172
     0
173
     0
174
     0
175
     0
176
     0
177
     0
178
     0
270
     2
271
     4
272
     4
273
     2
274
     2
340
11
275
     0
280
     0
281
     0
282
     0
283
     1
284
     0
285
     0
286
     0
287
     3
288
     0
  0
ENDTAB
  0
TABLE
  2
BLOCK_RECORD
  5
1
330
0
100
AcDbSymbolTable
 70
     1
  0
BLOCK_RECORD
  5
1F
330
1
100
AcDbSymbolTableRecord
100
AcDbBlockTableRecord
  2
*MODEL_SPACE
  0
BLOCK_RECORD
  5
1B
330
1
100
AcDbSymbolTableRecord
100
AcDbBlockTableRecord
  2
*PAPER_SPACE
  0
ENDTAB
  0
ENDSEC
  0
SECTION
  2
BLOCKS
  0
BLOCK
  5
20
330
1F
100
AcDbEntity
  8
0
100
AcDbBlockBegin
  2
*MODEL_SPACE
 70
     0
 10
0.0
 20
0.0
 30
0.0
  3
*MODEL_SPACE
  1

  0
ENDBLK
  5
21
330
1F
100
AcDbEntity
  8
0
100
AcDbBlockEnd
  0
BLOCK
  5
1C
330
1B
100
AcDbEntity
 67
     1
  8
0
100
AcDbBlockBegin
  2
*PAPER_SPACE
 70
     0
 10
0.0
 20
0.0
 30
0.0
  3
*PAPER_SPACE
  1

  0
ENDBLK
  5
1D
330
1B
100
AcDbEntity
 67
     1
  8
0
100
AcDbBlockEnd
  0
ENDSEC
  0
SECTION
  2
ENTITIES
  0
SPLINE
  5
41
330
1F
100
AcDbEntity
  8
DEFAULT_1
 62
   250
100
AcDbSpline
210
0.0
220
0.0
230
1.0
 70
    24
 71
     3
 72
     8
 73
     4
 74
     0
 42
0.0000000001
 43
0.0000000001
 40
0.0
 40
0.0
 40
0.0
 40
0.0
 40
1.0
 40
1.0
 40
1.0
 40
1.0
 10
-1.2591
 20
-13.4795
 30
0.0
 10
-1.2591
 20
-13.4795
 30
0.0
 10
-14.2562
 20
-13.4795
 30
0.0
 10
-14.2562
 20
-13.4795
 30
0.0
  0
SPLINE
  5
42
330
1F
100
AcDbEntity
  8
DEFAULT_1
 62
   250
100
AcDbSpline
210
0.0
220
0.0
230
1.0
 70
    24
 71
     3
 72
     8
 73
     4
 74
     0
 42
0.0000000001
 43
0.0000000001
 40
0.0
 40
0.0
 40
0.0
 40
0.0
 40
1.0
 40
1.0
 40
1.0
 40
1.0
 10
-13.6629
 20
-12.8725
 30
0.0
 10
-13.6629
 20
-12.8725
 30
0.0
 10
-13.6629
 20
16.4956
 30
0.0
 10
-13.6629
 20
16.4956
 30
0.0
  0
SPLINE
  5
43
330
1F
100
AcDbEntity
  8
DEFAULT_1
 62
   250
100
AcDbSpline
210
0.0
220
0.0
230
1.0
 70
    24
 71
     3
 72
     8
 73
     4
 74
     0
 42
0.0000000001
 43
0.0000000001
 40
0.0
 40
0.0
 40
0.0
 40
0.0
 40
1.0
 40
1.0
 40
1.0
 40
1.0
 10
4.774
 20
-1.9088
 30
0.0
 10
4.774
 20
-1.9088
 30
0.0
 10
-10.342
 20
-1.9088
 30
0.0
 10
-10.342
 20
-1.9088
 30
0.0
  0
SPLINE
  5
44
330
1F
100
AcDbEntity
  8
DEFAULT_1
 62
   250
100
AcDbSpline
210
0.0
220
0.0
230
1.0
 70
    24
 71
     3
 72
     8
 73
     4
 74
     0
 42
0.0000000001
 43
0.0000000001
 40
0.0
 40
0.0
 40
0.0
 40
0.0
 40
1.0
 40
1.0
 40
1.0
 40
1.0
 10
2.0873
 20
-1.9161
 30
0.0
 10
2.0873
 20
-1.9161
 30
0.0
 10
4.0478
 20
-1.6221
 30
0.0
 10
4.0478
 20
-1.6221
 30
0.0
  0
SPLINE
  5
45
330
1F
100
AcDbEntity
  8
DEFAULT_1
 62
   250
100
AcDbSpline
210
0.0
220
0.0
230
1.0
 70
     8
 71
     3
 72
    12
 73
     8
 74
     0
 42
0.0000000001
 43
0.0000000001
 40
0.0
 40
0.0
 40
0.0
 40
0.0
 40
0.3333333333333333
 40
0.3333333333333333
 40
0.3333333333333333
 40
0.3333333333333333
 40
1.0
 40
1.0
 40
1.0
 40
1.0
 10
4.0478
 20
-1.6221
 30
0.0
 10
4.0478
 20
-1.6221
 30
0.0
 10
4.0478
 20
-2.2101
 30
0.0
 10
4.0478
 20
-2.2101
 30
0.0
 10
4.0478
 20
-2.2101
 30
0.0
 10
4.0478
 20
-2.2101
 30
0.0
 10
2.0873
 20
-1.9161
 30
0.0
 10
2.0873
 20
-1.9161
 30
0.0
  0
SPLINE
  5
46
330
1F
100
AcDbEntity
  8
DEFAULT_1
 62
   250
100
AcDbSpline
210
0.0
220
0.0
230
1.0
 70
    24
 71
     3
 72
     8
 73
     4
 74
     0
 42
0.0000000001
 43
0.0000000001
 40
0.0
 40
0.0
 40
0.0
 40
0.0
 40
1.0
 40
1.0
 40
1.0
 40
1.0
 10
-3.9245
 20
-1.9022
 30
0.0
 10
-3.9245
 20
-1.9022
 30
0.0
 10
-5.885
 20
-2.1962
 30
0.0
 10
-5.885
 20
-2.1962
 30
0.0
  0
SPLINE
  5
47
330
1F
100
AcDbEntity
  8
DEFAULT_1
 62
   250
100
AcDbSpline
210
0.0
220
0.0
230
1.0
 70
     8
 71
     3
 72
    12
 73
     8
 74
     0
 42
0.0000000001
 43
0.0000000001
 40
0.0
 40
0.0
 40
0.0
 40
0.0
 40
0.3333333333333333
 40
0.3333333333333333
 40
0.3333333333333333
 40
0.3333333333333333
 40
1.0
 40
1.0
 40
1.0
 40
1.0
 10
-5.885
 20
-2.1962
 30
0.0
 10
-5.885
 20
-2.1962
 30
0.0
 10
-5.885
 20
-1.6082
 30
0.0
 10
-5.885
 20
-1.6082
 30
0.0
 10
-5.885
 20
-1.6082
 30
0.0
 10
-5.885
 20
-1.6082
 30
0.0
 10
-3.9245
 20
-1.9022
 30
0.0
 10
-3.9245
 20
-1.9022
 30
0.0
  0
SPLINE
  5
48
330
1F
100
AcDbEntity
  8
DEFAULT_1
 62
   250
100
AcDbSpline
210
0.0
220
0.0
230
1.0
 70
    24
 71
     3
 72
     8
 73
     4
 74
     0
 42
0.0000000001
 43
0.0000000001
 40
0.0
 40
0.0
 40
0.0
 40
0.0
 40
1.0
 40
1.0
 40
1.0
 40
1.0
 10
-3.8935
 20
6.9988
 30
0.0
 10
-3.8935
 20
6.9988
 30
0.0
 10
-3.8935
 20
-5.259
 30
0.0
 10
-3.8935
 20
-5.259
 30
0.0
  0
SPLINE
  5
49
330
1F
100
AcDbEntity
  8
DEFAULT_1
 62
   250
100
AcDbSpline
210
0.0
220
0.0
230
1.0
 70
    24
 71
     3
 72
     8
 73
     4
 74
     0
 42
0.0000000001
 43
0.0000000001
 40
0.0
 40
0.0
 40
0.0
 40
0.0
 40
1.0
 40
1.0
 40
1.0
 40
1.0
 10
2.0855
 20
1.1056
 30
0.0
 10
2.0855
 20
1.1056
 30
0.0
 10
2.0855
 20
-5.2591
 30
0.0
 10
2.0855
 20
-5.2591
 30
0.0
  0
SPLINE
  5
4A
330
1F
100
AcDbEntity
  8
DEFAULT_1
  6
NEW_LINE1
 62
   250
100
AcDbSpline
210
0.0
220
0.0
230
1.0
 70
    24
 71
     3
 72
     8
 73
     4
 74
     0
 42
0.0000000001
 43
0.0000000001
 40
0.0
 40
0.0
 40
0.0
 40
0.0
 40
1.0
 40
1.0
 40
1.0
 40
1.0
 10
-0.9039
 20
-30.749
 30
0.0
 10
-0.9039
 20
-30.749
 30
0.0
 10
-0.9039
 20
18.1708
 30
0.0
 10
-0.9039
 20
18.1708
 30
0.0
  0
SPLINE
  5
4C
330
1F
100
AcDbEntity
  8
DEFAULT_1
  6
NEW_LINE2
 62
   250
100
AcDbSpline
210
0.0
220
0.0
230
1.0
 70
    24
 71
     3
 72
     8
 73
     4
 74
     0
 42
0.0000000001
 43
0.0000000001
 40
0.0
 40
0.0
 40
0.0
 40
0.0
 40
1.0
 40
1.0
 40
1.0
 40
1.0
 10
8.9671
 20
-13.4795
 30
0.0
 10
8.9671
 20
-13.4795
 30
0.0
 10
-1.3157
 20
-13.4795
 30
0.0
 10
-1.3157
 20
-13.4795
 30
0.0
  0
SPLINE
  5
4E
330
1F
100
AcDbEntity
  8
DEFAULT_1
 62
   250
100
AcDbSpline
210
0.0
220
0.0
230
1.0
 70
    24
 71
     3
 72
     8
 73
     4
 74
     0
 42
0.0000000001
 43
0.0000000001
 40
0.0
 40
0.0
 40
0.0
 40
0.0
 40
1.0
 40
1.0
 40
1.0
 40
1.0
 10
-13.6634
 20
27.2326
 30
0.0
 10
-13.6634
 20
27.2326
 30
0.0
 10
-13.6634
 20
16.9726
 30
0.0
 10
-13.6634
 20
16.9726
 30
0.0
  0
SPLINE
  5
4F
330
1F
100
AcDbEntity
  8
DEFAULT_1
 62
   250
100
AcDbSpline
210
0.0
220
0.0
230
1.0
 70
    24
 71
     3
 72
     8
 73
     4
 74
     0
 42
0.0000000001
 43
0.0000000001
 40
0.0
 40
0.0
 40
0.0
 40
0.0
 40
1.0
 40
1.0
 40
1.0
 40
1.0
 10
-6.312
 20
17.011
 30
0.0
 10
-6.312
 20
17.011
 30
0.0
 10
-14.1867
 20
17.011
 30
0.0
 10
-14.1867
 20
17.011
 30
0.0
  0
SPLINE
  5
50
330
1F
100
AcDbEntity
  8
DEFAULT_1
 62
   250
100
AcDbSpline
210
0.0
220
0.0
230
1.0
 70
    24
 71
     3
 72
     8
 73
     4
 74
     0
 42
0.0000000001
 43
0.0000000001
 40
0.0
 40
0.0
 40
0.0
 40
0.0
 40
1.0
 40
1.0
 40
1.0
 40
1.0
 10
-6.3079
 20
20.5074
 30
0.0
 10
-6.3079
 20
20.5074
 30
0.0
 10
-14.0542
 20
20.5074
 30
0.0
 10
-14.0542
 20
20.5074
 30
0.0
  0
SPLINE
  5
51
330
1F
100
AcDbEntity
  8
DEFAULT_1
 62
   250
100
AcDbSpline
210
0.0
220
0.0
230
1.0
 70
    24
 71
     3
 72
     8
 73
     4
 74
     0
 42
0.0000000001
 43
0.0000000001
 40
0.0
 40
0.0
 40
0.0
 40
0.0
 40
1.0
 40
1.0
 40
1.0
 40
1.0
 10
-5.9704
 20
21.4562
 30
0.0
 10
-5.9704
 20
21.4562
 30
0.0
 10
-5.9704
 20
28.3156
 30
0.0
 10
-5.9704
 20
28.3156
 30
0.0
  0
SPLINE
  5
52
330
1F
100
AcDbEntity
  8
DEFAULT_1
 62
   250
100
AcDbSpline
210
0.0
220
0.0
230
1.0
 70
    24
 71
     3
 72
     8
 73
     4
 74
     0
 42
0.0000000001
 43
0.0000000001
 40
0.0
 40
0.0
 40
0.0
 40
0.0
 40
1.0
 40
1.0
 40
1.0
 40
1.0
 10
4.0212
 20
21.3214
 30
0.0
 10
4.0212
 20
21.3214
 30
0.0
 10
4.0212
 20
28.3718
 30
0.0
 10
4.0212
 20
28.3718
 30
0.0
  0
SPLINE
  5
53
330
1F
100
AcDbEntity
  8
DEFAULT_1
 62
   250
100
AcDbSpline
210
0.0
220
0.0
230
1.0
 70
    24
 71
     3
 72
     8
 73
     4
 74
     0
 42
0.0000000001
 43
0.0000000001
 40
0.0
 40
0.0
 40
0.0
 40
0.0
 40
1.0
 40
1.0
 40
1.0
 40
1.0
 10
3.4252
 20
27.8463
 30
0.0
 10
3.4252
 20
27.8463
 30
0.0
 10
-5.0452
 20
27.8463
 30
0.0
 10
-5.0452
 20
27.8463
 30
0.0
  0
SPLINE
  5
54
330
1F
100
AcDbEntity
  8
DEFAULT_1
 62
   250
100
AcDbSpline
210
0.0
220
0.0
230
1.0
 70
    24
 71
     3
 72
     8
 73
     4
 74
     0
 42
0.0000000001
 43
0.0000000001
 40
0.0
 40
0.0
 40
0.0
 40
0.0
 40
1.0
 40
1.0
 40
1.0
 40
1.0
 10
-3.4911
 20
-30.1475
 30
0.0
 10
-3.4911
 20
-30.1475
 30
0.0
 10
-13.8405
 20
-30.1475
 30
0.0
 10
-13.8405
 20
-30.1475
 30
0.0
  0
SPLINE
  5
55
330
1F
100
AcDbEntity
  8
DEFAULT_1
 62
   250
100
AcDbSpline
210
0.0
220
0.0
230
1.0
 70
    24
 71
     3
 72
     8
 73
     4
 74
     0
 42
0.0000000001
 43
0.0000000001
 40
0.0
 40
0.0
 40
0.0
 40
0.0
 40
1.0
 40
1.0
 40
1.0
 40
1.0
 10
-13.6505
 20
-29.0217
 30
0.0
 10
-13.6505
 20
-29.0217
 30
0.0
 10
-13.6505
 20
-13.5258
 30
0.0
 10
-13.6505
 20
-13.5258
 30
0.0
  0
SPLINE
  5
56
330
1F
100
AcDbEntity
  8
DEFAULT_1
 62
   250
100
AcDbSpline
210
0.0
220
0.0
230
1.0
 70
    24
 71
     3
 72
     8
 73
     4
 74
     0
 42
0.0000000001
 43
0.0000000001
 40
0.0
 40
0.0
 40
0.0
 40
0.0
 40
1.0
 40
1.0
 40
1.0
 40
1.0
 10
12.8018
 20
-17.3376
 30
0.0
 10
12.8018
 20
-17.3376
 30
0.0
 10
16.6073
 20
-17.3376
 30
0.0
 10
16.6073
 20
-17.3376
 30
0.0
  0
SPLINE
  5
57
330
1F
100
AcDbEntity
  8
DEFAULT_1
 62
   250
100
AcDbSpline
210
0.0
220
0.0
230
1.0
 70
    24
 71
     3
 72
     8
 73
     4
 74
     0
 42
0.0000000001
 43
0.0000000001
 40
0.0
 40
0.0
 40
0.0
 40
0.0
 40
1.0
 40
1.0
 40
1.0
 40
1.0
 10
12.9152
 20
-9.9424
 30
0.0
 10
12.9152
 20
-9.9424
 30
0.0
 10
16.4284
 20
-9.9424
 30
0.0
 10
16.4284
 20
-9.9424
 30
0.0
  0
SPLINE
  5
58
330
1F
100
AcDbEntity
  8
DEFAULT_1
 62
   250
100
AcDbSpline
210
0.0
220
0.0
230
1.0
 70
    24
 71
     3
 72
     8
 73
     4
 74
     0
 42
0.0000000001
 43
0.0000000001
 40
0.0
 40
0.0
 40
0.0
 40
0.0
 40
1.0
 40
1.0
 40
1.0
 40
1.0
 10
16.08
 20
-5.6804
 30
0.0
 10
16.08
 20
-5.6804
 30
0.0
 10
16.08
 20
-25.034
 30
0.0
 10
16.08
 20
-25.034
 30
0.0
  0
SPLINE
  5
59
330
1F
100
AcDbEntity
  8
DEFAULT_1
 62
   250
100
AcDbSpline
210
0.0
220
0.0
230
1.0
 70
    24
 71
     3
 72
     8
 73
     4
 74
     0
 42
0.0000000001
 43
0.0000000001
 40
0.0
 40
0.0
 40
0.0
 40
0.0
 40
1.0
 40
1.0
 40
1.0
 40
1.0
 10
8.3499
 20
-16.5816
 30
0.0
 10
8.3499
 20
-16.5816
 30
0.0
 10
12.3469
 20
-16.5816
 30
0.0
 10
12.3469
 20
-16.5816
 30
0.0
  0
SPLINE
  5
5A
330
1F
100
AcDbEntity
  8
DEFAULT_1
 62
   250
100
AcDbSpline
210
0.0
220
0.0
230
1.0
 70
    24
 71
     3
 72
     8
 73
     4
 74
     0
 42
0.0000000001
 43
0.0000000001
 40
0.0
 40
0.0
 40
0.0
 40
0.0
 40
1.0
 40
1.0
 40
1.0
 40
1.0
 10
8.4211
 20
-10.725
 30
0.0
 10
8.4211
 20
-10.725
 30
0.0
 10
12.5069
 20
-10.725
 30
0.0
 10
12.5069
 20
-10.725
 30
0.0
  0
SPLINE
  5
5B
330
1F
100
AcDbEntity
  8
DEFAULT_1
 62
   250
100
AcDbSpline
210
0.0
220
0.0
230
1.0
 70
    24
 71
     3
 72
     8
 73
     4
 74
     0
 42
0.0000000001
 43
0.0000000001
 40
0.0
 40
0.0
 40
0.0
 40
0.0
 40
1.0
 40
1.0
 40
1.0
 40
1.0
 10
12.0773
 20
-6.218
 30
0.0
 10
12.0773
 20
-6.218
 30
0.0
 10
12.0773
 20
-24.9668
 30
0.0
 10
12.0773
 20
-24.9668
 30
0.0
  0
SPLINE
  5
5C
330
1F
100
AcDbEntity
  8
DEFAULT_1
 62
   250
100
AcDbSpline
210
0.0
220
0.0
230
1.0
 70
    24
 71
     3
 72
     8
 73
     4
 74
     0
 42
0.0000000001
 43
0.0000000001
 40
0.0
 40
0.0
 40
0.0
 40
0.0
 40
1.0
 40
1.0
 40
1.0
 40
1.0
 10
8.4295
 20
-9.9424
 30
0.0
 10
8.4295
 20
-9.9424
 30
0.0
 10
11.4488
 20
-9.9424
 30
0.0
 10
11.4488
 20
-9.9424
 30
0.0
  0
SPLINE
  5
5D
330
1F
100
AcDbEntity
  8
DEFAULT_1
 62
   250
100
AcDbSpline
210
0.0
220
0.0
230
1.0
 70
    24
 71
     3
 72
     8
 73
     4
 74
     0
 42
0.0000000001
 43
0.0000000001
 40
0.0
 40
0.0
 40
0.0
 40
0.0
 40
1.0
 40
1.0
 40
1.0
 40
1.0
 10
8.4338
 20
-17.3376
 30
0.0
 10
8.4338
 20
-17.3376
 30
0.0
 10
11.6277
 20
-17.3376
 30
0.0
 10
11.6277
 20
-17.3376
 30
0.0
  0
SPLINE
  5
5E
330
1F
100
AcDbEntity
  8
DEFAULT_1
 62
   250
100
AcDbSpline
210
0.0
220
0.0
230
1.0
 70
    24
 71
     3
 72
     8
 73
     4
 74
     0
 42
0.0000000001
 43
0.0000000001
 40
0.0
 40
0.0
 40
0.0
 40
0.0
 40
1.0
 40
1.0
 40
1.0
 40
1.0
 10
-13.6026
 20
-30.0727
 30
0.0
 10
-13.6026
 20
-30.0727
 30
0.0
 10
-14.0636
 20
-26.9492
 30
0.0
 10
-14.0636
 20
-26.9492
 30
0.0
  0
SPLINE
  5
5F
330
1F
100
AcDbEntity
  8
DEFAULT_1
 62
   250
100
AcDbSpline
210
0.0
220
0.0
230
1.0
 70
     8
 71
     3
 72
    12
 73
     8
 74
     0
 42
0.0000000001
 43
0.0000000001
 40
0.0
 40
0.0
 40
0.0
 40
0.0
 40
0.3333333333333333
 40
0.3333333333333333
 40
0.3333333333333333
 40
0.3333333333333333
 40
1.0
 40
1.0
 40
1.0
 40
1.0
 10
-14.0636
 20
-26.9492
 30
0.0
 10
-14.0636
 20
-26.9492
 30
0.0
 10
-13.1416
 20
-26.9492
 30
0.0
 10
-13.1416
 20
-26.9492
 30
0.0
 10
-13.1416
 20
-26.9492
 30
0.0
 10
-13.1416
 20
-26.9492
 30
0.0
 10
-13.6026
 20
-30.0727
 30
0.0
 10
-13.6026
 20
-30.0727
 30
0.0
  0
SPLINE
  5
60
330
1F
100
AcDbEntity
  8
DEFAULT_1
 62
   250
100
AcDbSpline
210
0.0
220
0.0
230
1.0
 70
    11
 71
     3
 72
    84
 73
    80
 74
     0
 42
0.0000000001
 43
0.0000000001
 40
0.0
 40
0.0
 40
0.0
 40
0.0
 40
0.0476190476190476
 40
0.0476190476190476
 40
0.0476190476190476
 40
0.0476190476190476
 40
0.0952380952380952
 40
0.0952380952380952
 40
0.0952380952380952
 40
0.0952380952380952
 40
0.1428571428571428
 40
0.1428571428571428
 40
0.1428571428571428
 40
0.1428571428571428
 40
0.1904761904761905
 40
0.1904761904761905
 40
0.1904761904761905
 40
0.1904761904761905
 40
0.2380952380952381
 40
0.2380952380952381
 40
0.2380952380952381
 40
0.2380952380952381
 40
0.2857142857142857
 40
0.2857142857142857
 40
0.2857142857142857
 40
0.2857142857142857
 40
0.3333333333333333
 40
0.3333333333333333
 40
0.3333333333333333
 40
0.3333333333333333
 40
0.3809523809523809
 40
0.3809523809523809
 40
0.3809523809523809
 40
0.3809523809523809
 40
0.4285714285714285
 40
0.4285714285714285
 40
0.4285714285714285
 40
0.4285714285714285
 40
0.4761904761904762
 40
0.4761904761904762
 40
0.4761904761904762
 40
0.4761904761904762
 40
0.5238095238095238
 40
0.5238095238095238
 40
0.5238095238095238
 40
0.5238095238095238
 40
0.5714285714285714
 40
0.5714285714285714
 40
0.5714285714285714
 40
0.5714285714285714
 40
0.6190476190476191
 40
0.6190476190476191
 40
0.6190476190476191
 40
0.6190476190476191
 40
0.6666666666666666
 40
0.6666666666666666
 40
0.6666666666666666
 40
0.6666666666666666
 40
0.7142857142857143
 40
0.7142857142857143
 40
0.7142857142857143
 40
0.7142857142857143
 40
0.7619047619047619
 40
0.7619047619047619
 40
0.7619047619047619
 40
0.7619047619047619
 40
0.8095238095238095
 40
0.8095238095238095
 40
0.8095238095238095
 40
0.8095238095238095
 40
0.8571428571428571
 40
0.8571428571428571
 40
0.8571428571428571
 40
0.8571428571428571
 40
0.9047619047619048
 40
0.9047619047619048
 40
0.9047619047619048
 40
0.9047619047619048
 40
1.0
 40
1.0
 40
1.0
 40
1.0
 10
-1.8015
 20
30.3607
 30
0.0
 10
-1.8015
 20
30.3607
 30
0.0
 10
-1.5701
 20
30.6198
 30
0.0
 10
-1.5701
 20
30.6198
 30
0.0
 10
-1.5701
 20
30.6198
 30
0.0
 10
-1.5701
 20
30.6198
 30
0.0
 10
-1.4337
 20
30.5041
 30
0.0
 10
-1.4337
 20
30.5041
 30
0.0
 10
-1.4337
 20
30.5041
 30
0.0
 10
-1.4337
 20
30.5041
 30
0.0
 10
-1.6759
 20
30.2313
 30
0.0
 10
-1.6759
 20
30.2313
 30
0.0
 10
-1.6759
 20
30.2313
 30
0.0
 10
-1.5969
 20
30.1137
 30
0.0
 10
-1.5438
 20
30.0107
 30
0.0
 10
-1.516
 20
29.9228
 30
0.0
 10
-1.516
 20
29.9228
 30
0.0
 10
-1.4793
 20
29.807
 30
0.0
 10
-1.461
 20
29.6772
 30
0.0
 10
-1.461
 20
29.5342
 30
0.0
 10
-1.461
 20
29.5342
 30
0.0
 10
-1.461
 20
29.3273
 30
0.0
 10
-1.5028
 20
29.1429
 30
0.0
 10
-1.5866
 20
28.9816
 30
0.0
 10
-1.5866
 20
28.9816
 30
0.0
 10
-1.6703
 20
28.8197
 30
0.0
 10
-1.7874
 20
28.6975
 30
0.0
 10
-1.9384
 20
28.6147
 30
0.0
 10
-1.9384
 20
28.6147
 30
0.0
 10
-2.0899
 20
28.5324
 30
0.0
 10
-2.2502
 20
28.491
 30
0.0
 10
-2.42
 20
28.491
 30
0.0
 10
-2.42
 20
28.491
 30
0.0
 10
-2.547
 20
28.491
 30
0.0
 10
-2.6618
 20
28.5088
 30
0.0
 10
-2.7648
 20
28.5446
 30
0.0
 10
-2.7648
 20
28.5446
 30
0.0
 10
-2.8438
 20
28.5723
 30
0.0
 10
-2.936
 20
28.625
 30
0.0
 10
-3.0419
 20
28.7031
 30
0.0
 10
-3.0419
 20
28.7031
 30
0.0
 10
-3.0419
 20
28.7031
 30
0.0
 10
-3.2733
 20
28.4439
 30
0.0
 10
-3.2733
 20
28.4439
 30
0.0
 10
-3.2733
 20
28.4439
 30
0.0
 10
-3.2733
 20
28.4439
 30
0.0
 10
-3.4097
 20
28.5596
 30
0.0
 10
-3.4097
 20
28.5596
 30
0.0
 10
-3.4097
 20
28.5596
 30
0.0
 10
-3.4097
 20
28.5596
 30
0.0
 10
-3.167
 20
28.831
 30
0.0
 10
-3.167
 20
28.831
 30
0.0
 10
-3.167
 20
28.831
 30
0.0
 10
-3.2573
 20
28.9679
 30
0.0
 10
-3.3175
 20
29.085
 30
0.0
 10
-3.3476
 20
29.1819
 30
0.0
 10
-3.3476
 20
29.1819
 30
0.0
 10
-3.3777
 20
29.2788
 30
0.0
 10
-3.3932
 20
29.3955
 30
0.0
 10
-3.3932
 20
29.5314
 30
0.0
 10
-3.3932
 20
29.5314
 30
0.0
 10
-3.3932
 20
29.7388
 30
0.0
 10
-3.3518
 20
29.9237
 30
0.0
 10
-3.2691
 20
30.086
 30
0.0
 10
-3.2691
 20
30.086
 30
0.0
 10
-3.1863
 20
30.2483
 30
0.0
 10
-3.0706
 20
30.371
 30
0.0
 10
-2.921
 20
30.4547
 30
0.0
 10
-2.921
 20
30.4547
 30
0.0
 10
-2.7719
 20
30.538
 30
0.0
 10
-2.6058
 20
30.5799
 30
0.0
 10
-2.4229
 20
30.5799
 30
0.0
 10
-2.4229
 20
30.5799
 30
0.0
 10
-2.2996
 20
30.5799
 30
0.0
 10
-2.1919
 20
30.5639
 30
0.0
 10
-2.0997
 20
30.5309
 30
0.0
 10
-2.0997
 20
30.5309
 30
0.0
 10
-2.0075
 20
30.4985
 30
0.0
 10
-1.9078
 20
30.4416
 30
0.0
 10
-1.8015
 20
30.3607
 30
0.0
  0
SPLINE
  5
61
330
1F
100
AcDbEntity
  8
DEFAULT_1
 62
   250
100
AcDbSpline
210
0.0
220
0.0
230
1.0
 70
    11
 71
     3
 72
    32
 73
    28
 74
     0
 42
0.0000000001
 43
0.0000000001
 40
0.0
 40
0.0
 40
0.0
 40
0.0
 40
0.125
 40
0.125
 40
0.125
 40
0.125
 40
0.25
 40
0.25
 40
0.25
 40
0.25
 40
0.375
 40
0.375
 40
0.375
 40
0.375
 40
0.5
 40
0.5
 40
0.5
 40
0.5
 40
0.625
 40
0.625
 40
0.625
 40
0.625
 40
0.75
 40
0.75
 40
0.75
 40
0.75
 40
1.0
 40
1.0
 40
1.0
 40
1.0
 10
-1.9666
 20
30.1749
 30
0.0
 10
-2.0532
 20
30.2426
 30
0.0
 10
-2.1289
 20
30.2892
 30
0.0
 10
-2.1933
 20
30.3141
 30
0.0
 10
-2.1933
 20
30.3141
 30
0.0
 10
-2.2582
 20
30.3386
 30
0.0
 10
-2.3344
 20
30.3513
 30
0.0
 10
-2.4215
 20
30.3513
 30
0.0
 10
-2.4215
 20
30.3513
 30
0.0
 10
-2.6228
 20
30.3513
 30
0.0
 10
-2.7888
 20
30.2831
 30
0.0
 10
-2.9205
 20
30.1467
 30
0.0
 10
-2.9205
 20
30.1467
 30
0.0
 10
-3.0518
 20
30.0102
 30
0.0
 10
-3.1176
 20
29.8066
 30
0.0
 10
-3.1176
 20
29.5352
 30
0.0
 10
-3.1176
 20
29.5352
 30
0.0
 10
-3.1176
 20
29.4289
 30
0.0
 10
-3.1073
 20
29.3343
 30
0.0
 10
-3.087
 20
29.2515
 30
0.0
 10
-3.087
 20
29.2515
 30
0.0
 10
-3.0724
 20
29.1899
 30
0.0
 10
-3.0419
 20
29.1142
 30
0.0
 10
-2.9948
 20
29.0244
 30
0.0
 10
-2.9948
 20
29.0244
 30
0.0
 10
-2.9948
 20
29.0244
 30
0.0
 10
-1.9666
 20
30.1749
 30
0.0
 10
-1.9666
 20
30.1749
 30
0.0
  0
SPLINE
  5
62
330
1F
100
AcDbEntity
  8
DEFAULT_1
 62
   250
100
AcDbSpline
210
0.0
220
0.0
230
1.0
 70
    11
 71
     3
 72
    28
 73
    24
 74
     0
 42
0.0000000001
 43
0.0000000001
 40
0.0
 40
0.0
 40
0.0
 40
0.0
 40
0.1428571428571428
 40
0.1428571428571428
 40
0.1428571428571428
 40
0.1428571428571428
 40
0.2857142857142857
 40
0.2857142857142857
 40
0.2857142857142857
 40
0.2857142857142857
 40
0.4285714285714285
 40
0.4285714285714285
 40
0.4285714285714285
 40
0.4285714285714285
 40
0.5714285714285714
 40
0.5714285714285714
 40
0.5714285714285714
 40
0.5714285714285714
 40
0.7142857142857143
 40
0.7142857142857143
 40
0.7142857142857143
 40
0.7142857142857143
 40
1.0
 40
1.0
 40
1.0
 40
1.0
 10
-1.8537
 20
30.0328
 30
0.0
 10
-1.8537
 20
30.0328
 30
0.0
 10
-2.8777
 20
28.8865
 30
0.0
 10
-2.8777
 20
28.8865
 30
0.0
 10
-2.8777
 20
28.8865
 30
0.0
 10
-2.8072
 20
28.8287
 30
0.0
 10
-2.7418
 20
28.7882
 30
0.0
 10
-2.682
 20
28.7652
 30
0.0
 10
-2.682
 20
28.7652
 30
0.0
 10
-2.604
 20
28.7346
 30
0.0
 10
-2.5193
 20
28.7196
 30
0.0
 10
-2.4285
 20
28.7196
 30
0.0
 10
-2.4285
 20
28.7196
 30
0.0
 10
-2.2281
 20
28.7196
 30
0.0
 10
-2.063
 20
28.7901
 30
0.0
 10
-1.9323
 20
28.9317
 30
0.0
 10
-1.9323
 20
28.9317
 30
0.0
 10
-1.802
 20
29.0733
 30
0.0
 10
-1.7366
 20
29.2718
 30
0.0
 10
-1.7366
 20
29.5272
 30
0.0
 10
-1.7366
 20
29.5272
 30
0.0
 10
-1.7366
 20
29.7181
 30
0.0
 10
-1.7756
 20
29.887
 30
0.0
 10
-1.8537
 20
30.0328
 30
0.0
  0
SPLINE
  5
63
330
1F
100
AcDbEntity
  8
DEFAULT_1
 62
   250
100
AcDbSpline
210
0.0
220
0.0
230
1.0
 70
    11
 71
     3
 72
    48
 73
    44
 74
     0
 42
0.0000000001
 43
0.0000000001
 40
0.0
 40
0.0
 40
0.0
 40
0.0
 40
0.0833333333333333
 40
0.0833333333333333
 40
0.0833333333333333
 40
0.0833333333333333
 40
0.1666666666666667
 40
0.1666666666666667
 40
0.1666666666666667
 40
0.1666666666666667
 40
0.25
 40
0.25
 40
0.25
 40
0.25
 40
0.3333333333333333
 40
0.3333333333333333
 40
0.3333333333333333
 40
0.3333333333333333
 40
0.4166666666666667
 40
0.4166666666666667
 40
0.4166666666666667
 40
0.4166666666666667
 40
0.5
 40
0.5
 40
0.5
 40
0.5
 40
0.5833333333333334
 40
0.5833333333333334
 40
0.5833333333333334
 40
0.5833333333333334
 40
0.6666666666666666
 40
0.6666666666666666
 40
0.6666666666666666
 40
0.6666666666666666
 40
0.75
 40
0.75
 40
0.75
 40
0.75
 40
0.8333333333333334
 40
0.8333333333333334
 40
0.8333333333333334
 40
0.8333333333333334
 40
1.0
 40
1.0
 40
1.0
 40
1.0
 10
-1.1952
 20
30.2807
 30
0.0
 10
-1.1952
 20
30.2807
 30
0.0
 10
-1.1952
 20
30.5192
 30
0.0
 10
-1.1952
 20
30.5192
 30
0.0
 10
-1.1952
 20
30.5192
 30
0.0
 10
-1.1952
 20
30.5192
 30
0.0
 10
0.1124
 20
30.5192
 30
0.0
 10
0.1124
 20
30.5192
 30
0.0
 10
0.1124
 20
30.5192
 30
0.0
 10
0.1124
 20
30.5192
 30
0.0
 10
0.1124
 20
30.3263
 30
0.0
 10
0.1124
 20
30.3263
 30
0.0
 10
0.1124
 20
30.3263
 30
0.0
 10
-0.016
 20
30.1895
 30
0.0
 10
-0.1435
 20
30.0074
 30
0.0
 10
-0.27
 20
29.7807
 30
0.0
 10
-0.27
 20
29.7807
 30
0.0
 10
-0.3961
 20
29.554
 30
0.0
 10
-0.4939
 20
29.3202
 30
0.0
 10
-0.5626
 20
29.0808
 30
0.0
 10
-0.5626
 20
29.0808
 30
0.0
 10
-0.6124
 20
28.9115
 30
0.0
 10
-0.6439
 20
28.7266
 30
0.0
 10
-0.6576
 20
28.5253
 30
0.0
 10
-0.6576
 20
28.5253
 30
0.0
 10
-0.6576
 20
28.5253
 30
0.0
 10
-0.9125
 20
28.5253
 30
0.0
 10
-0.9125
 20
28.5253
 30
0.0
 10
-0.9125
 20
28.5253
 30
0.0
 10
-0.9097
 20
28.6843
 30
0.0
 10
-0.8787
 20
28.8762
 30
0.0
 10
-0.8189
 20
29.1015
 30
0.0
 10
-0.8189
 20
29.1015
 30
0.0
 10
-0.7592
 20
29.3263
 30
0.0
 10
-0.6736
 20
29.5436
 30
0.0
 10
-0.5621
 20
29.7525
 30
0.0
 10
-0.5621
 20
29.7525
 30
0.0
 10
-0.4502
 20
29.9613
 30
0.0
 10
-0.3316
 20
30.1377
 30
0.0
 10
-0.2056
 20
30.2807
 30
0.0
 10
-0.2056
 20
30.2807
 30
0.0
 10
-0.2056
 20
30.2807
 30
0.0
 10
-1.1952
 20
30.2807
 30
0.0
 10
-1.1952
 20
30.2807
 30
0.0
  0
SPLINE
  5
64
330
1F
100
AcDbEntity
  8
DEFAULT_1
 62
   250
100
AcDbSpline
210
0.0
220
0.0
230
1.0
 70
    11
 71
     3
 72
    52
 73
    48
 74
     0
 42
0.0000000001
 43
0.0000000001
 40
0.0
 40
0.0
 40
0.0
 40
0.0
 40
0.0769230769230769
 40
0.0769230769230769
 40
0.0769230769230769
 40
0.0769230769230769
 40
0.1538461538461539
 40
0.1538461538461539
 40
0.1538461538461539
 40
0.1538461538461539
 40
0.2307692307692308
 40
0.2307692307692308
 40
0.2307692307692308
 40
0.2307692307692308
 40
0.3076923076923077
 40
0.3076923076923077
 40
0.3076923076923077
 40
0.3076923076923077
 40
0.3846153846153846
 40
0.3846153846153846
 40
0.3846153846153846
 40
0.3846153846153846
 40
0.4615384615384616
 40
0.4615384615384616
 40
0.4615384615384616
 40
0.4615384615384616
 40
0.5384615384615384
 40
0.5384615384615384
 40
0.5384615384615384
 40
0.5384615384615384
 40
0.6153846153846154
 40
0.6153846153846154
 40
0.6153846153846154
 40
0.6153846153846154
 40
0.6923076923076923
 40
0.6923076923076923
 40
0.6923076923076923
 40
0.6923076923076923
 40
0.7692307692307693
 40
0.7692307692307693
 40
0.7692307692307693
 40
0.7692307692307693
 40
0.8461538461538461
 40
0.8461538461538461
 40
0.8461538461538461
 40
0.8461538461538461
 40
1.0
 40
1.0
 40
1.0
 40
1.0
 10
0.3579
 20
29.5215
 30
0.0
 10
0.3579
 20
29.7605
 30
0.0
 10
0.3824
 20
29.9529
 30
0.0
 10
0.4318
 20
30.0982
 30
0.0
 10
0.4318
 20
30.0982
 30
0.0
 10
0.4807
 20
30.244
 30
0.0
 10
0.5541
 20
30.3564
 30
0.0
 10
0.651
 20
30.4355
 30
0.0
 10
0.651
 20
30.4355
 30
0.0
 10
0.7479
 20
30.5145
 30
0.0
 10
0.8697
 20
30.554
 30
0.0
 10
1.0164
 20
30.554
 30
0.0
 10
1.0164
 20
30.554
 30
0.0
 10
1.1251
 20
30.554
 30
0.0
 10
1.2201
 20
30.5319
 30
0.0
 10
1.3019
 20
30.4881
 30
0.0
 10
1.3019
 20
30.4881
 30
0.0
 10
1.3838
 20
30.4449
 30
0.0
 10
1.4511
 20
30.3818
 30
0.0
 10
1.5047
 20
30.2995
 30
0.0
 10
1.5047
 20
30.2995
 30
0.0
 10
1.5578
 20
30.2172
 30
0.0
 10
1.5997
 20
30.117
 30
0.0
 10
1.6298
 20
29.999
 30
0.0
 10
1.6298
 20
29.999
 30
0.0
 10
1.6604
 20
29.8809
 30
0.0
 10
1.6754
 20
29.7219
 30
0.0
 10
1.6754
 20
29.5215
 30
0.0
 10
1.6754
 20
29.5215
 30
0.0
 10
1.6754
 20
29.2845
 30
0.0
 10
1.651
 20
29.0935
 30
0.0
 10
1.6025
 20
28.9477
 30
0.0
 10
1.6025
 20
28.9477
 30
0.0
 10
1.5536
 20
28.8019
 30
0.0
 10
1.4807
 20
28.6895
 30
0.0
 10
1.3838
 20
28.61
 30
0.0
 10
1.3838
 20
28.61
 30
0.0
 10
1.2869
 20
28.5305
 30
0.0
 10
1.1646
 20
28.491
 30
0.0
 10
1.0164
 20
28.491
 30
0.0
 10
1.0164
 20
28.491
 30
0.0
 10
0.8217
 20
28.491
 30
0.0
 10
0.6688
 20
28.5606
 30
0.0
 10
0.5578
 20
28.7003
 30
0.0
 10
0.5578
 20
28.7003
 30
0.0
 10
0.4247
 20
28.8682
 30
0.0
 10
0.3579
 20
29.1424
 30
0.0
 10
0.3579
 20
29.5215
 30
0.0
  0
SPLINE
  5
65
330
1F
100
AcDbEntity
  8
DEFAULT_1
 62
   250
100
AcDbSpline
210
0.0
220
0.0
230
1.0
 70
    11
 71
     3
 72
    36
 73
    32
 74
     0
 42
0.0000000001
 43
0.0000000001
 40
0.0
 40
0.0
 40
0.0
 40
0.0
 40
0.1111111111111111
 40
0.1111111111111111
 40
0.1111111111111111
 40
0.1111111111111111
 40
0.2222222222222222
 40
0.2222222222222222
 40
0.2222222222222222
 40
0.2222222222222222
 40
0.3333333333333333
 40
0.3333333333333333
 40
0.3333333333333333
 40
0.3333333333333333
 40
0.4444444444444444
 40
0.4444444444444444
 40
0.4444444444444444
 40
0.4444444444444444
 40
0.5555555555555556
 40
0.5555555555555556
 40
0.5555555555555556
 40
0.5555555555555556
 40
0.6666666666666666
 40
0.6666666666666666
 40
0.6666666666666666
 40
0.6666666666666666
 40
0.7777777777777778
 40
0.7777777777777778
 40
0.7777777777777778
 40
0.7777777777777778
 40
1.0
 40
1.0
 40
1.0
 40
1.0
 10
0.6129
 20
29.5215
 30
0.0
 10
0.6129
 20
29.1899
 30
0.0
 10
0.6519
 20
28.9693
 30
0.0
 10
0.7295
 20
28.8593
 30
0.0
 10
0.7295
 20
28.8593
 30
0.0
 10
0.8071
 20
28.7497
 30
0.0
 10
0.9026
 20
28.6946
 30
0.0
 10
1.0164
 20
28.6946
 30
0.0
 10
1.0164
 20
28.6946
 30
0.0
 10
1.1307
 20
28.6946
 30
0.0
 10
1.2262
 20
28.7501
 30
0.0
 10
1.3038
 20
28.8602
 30
0.0
 10
1.3038
 20
28.8602
 30
0.0
 10
1.3814
 20
28.9703
 30
0.0
 10
1.4205
 20
29.1909
 30
0.0
 10
1.4205
 20
29.5215
 30
0.0
 10
1.4205
 20
29.5215
 30
0.0
 10
1.4205
 20
29.8541
 30
0.0
 10
1.3814
 20
30.0752
 30
0.0
 10
1.3038
 20
30.1843
 30
0.0
 10
1.3038
 20
30.1843
 30
0.0
 10
1.2262
 20
30.2939
 30
0.0
 10
1.1298
 20
30.3484
 30
0.0
 10
1.0141
 20
30.3484
 30
0.0
 10
1.0141
 20
30.3484
 30
0.0
 10
0.8998
 20
30.3484
 30
0.0
 10
0.809
 20
30.3
 30
0.0
 10
0.7408
 20
30.2036
 30
0.0
 10
0.7408
 20
30.2036
 30
0.0
 10
0.6557
 20
30.0808
 30
0.0
 10
0.6129
 20
29.8531
 30
0.0
 10
0.6129
 20
29.5215
 30
0.0
  0
SPLINE
  5
66
330
1F
100
AcDbEntity
  8
DEFAULT_1
 62
   250
100
AcDbSpline
210
0.0
220
0.0
230
1.0
 70
    11
 71
     3
 72
    20
 73
    16
 74
     0
 42
0.0000000001
 43
0.0000000001
 40
0.0
 40
0.0
 40
0.0
 40
0.0
 40
0.2
 40
0.2
 40
0.2
 40
0.2
 40
0.4
 40
0.4
 40
0.4
 40
0.4
 40
0.6
 40
0.6
 40
0.6
 40
0.6
 40
1.0
 40
1.0
 40
1.0
 40
1.0
 10
1.4647
 20
28.2254
 30
0.0
 10
1.4647
 20
28.2254
 30
0.0
 10
3.9647
 20
27.8725
 30
0.0
 10
3.9647
 20
27.8725
 30
0.0
 10
3.9647
 20
27.8725
 30
0.0
 10
3.9647
 20
27.8725
 30
0.0
 10
3.9647
 20
27.7942
 30
0.0
 10
3.9647
 20
27.7942
 30
0.0
 10
3.9647
 20
27.7942
 30
0.0
 10
3.9647
 20
27.7942
 30
0.0
 10
1.4647
 20
27.4179
 30
0.0
 10
1.4647
 20
27.4179
 30
0.0
 10
1.4647
 20
27.4179
 30
0.0
 10
1.4647
 20
27.4179
 30
0.0
 10
1.4647
 20
28.2254
 30
0.0
 10
1.4647
 20
28.2254
 30
0.0
  0
SPLINE
  5
67
330
1F
100
AcDbEntity
  8
DEFAULT_1
 62
   250
100
AcDbSpline
210
0.0
220
0.0
230
1.0
 70
    11
 71
     3
 72
    20
 73
    16
 74
     0
 42
0.0000000001
 43
0.0000000001
 40
0.0
 40
0.0
 40
0.0
 40
0.0
 40
0.2
 40
0.2
 40
0.2
 40
0.2
 40
0.4
 40
0.4
 40
0.4
 40
0.4
 40
0.6
 40
0.6
 40
0.6
 40
0.6
 40
1.0
 40
1.0
 40
1.0
 40
1.0
 10
-3.3408
 20
27.4133
 30
0.0
 10
-3.3408
 20
27.4133
 30
0.0
 10
-5.8408
 20
27.7662
 30
0.0
 10
-5.8408
 20
27.7662
 30
0.0
 10
-5.8408
 20
27.7662
 30
0.0
 10
-5.8408
 20
27.7662
 30
0.0
 10
-5.8408
 20
27.8445
 30
0.0
 10
-5.8408
 20
27.8445
 30
0.0
 10
-5.8408
 20
27.8445
 30
0.0
 10
-5.8408
 20
27.8445
 30
0.0
 10
-3.3408
 20
28.2208
 30
0.0
 10
-3.3408
 20
28.2208
 30
0.0
 10
-3.3408
 20
28.2208
 30
0.0
 10
-3.3408
 20
28.2208
 30
0.0
 10
-3.3408
 20
27.4133
 30
0.0
 10
-3.3408
 20
27.4133
 30
0.0
  0
SPLINE
  5
68
330
1F
100
AcDbEntity
  8
DEFAULT_1
 62
   250
100
AcDbSpline
210
0.0
220
0.0
230
1.0
 70
    11
 71
     3
 72
    20
 73
    16
 74
     0
 42
0.0000000001
 43
0.0000000001
 40
0.0
 40
0.0
 40
0.0
 40
0.0
 40
0.2
 40
0.2
 40
0.2
 40
0.2
 40
0.4
 40
0.4
 40
0.4
 40
0.4
 40
0.6
 40
0.6
 40
0.6
 40
0.6
 40
1.0
 40
1.0
 40
1.0
 40
1.0
 10
-14.0513
 20
-16.0205
 30
0.0
 10
-14.0513
 20
-16.0205
 30
0.0
 10
-13.6984
 20
-13.5205
 30
0.0
 10
-13.6984
 20
-13.5205
 30
0.0
 10
-13.6984
 20
-13.5205
 30
0.0
 10
-13.6984
 20
-13.5205
 30
0.0
 10
-13.6201
 20
-13.5205
 30
0.0
 10
-13.6201
 20
-13.5205
 30
0.0
 10
-13.6201
 20
-13.5205
 30
0.0
 10
-13.6201
 20
-13.5205
 30
0.0
 10
-13.2438
 20
-16.0205
 30
0.0
 10
-13.2438
 20
-16.0205
 30
0.0
 10
-13.2438
 20
-16.0205
 30
0.0
 10
-13.2438
 20
-16.0205
 30
0.0
 10
-14.0513
 20
-16.0205
 30
0.0
 10
-14.0513
 20
-16.0205
 30
0.0
  0
SPLINE
  5
69
330
1F
100
AcDbEntity
  8
DEFAULT_1
 62
   250
100
AcDbSpline
210
0.0
220
0.0
230
1.0
 70
    11
 71
     3
 72
    20
 73
    16
 74
     0
 42
0.0000000001
 43
0.0000000001
 40
0.0
 40
0.0
 40
0.0
 40
0.0
 40
0.2
 40
0.2
 40
0.2
 40
0.2
 40
0.4
 40
0.4
 40
0.4
 40
0.4
 40
0.6
 40
0.6
 40
0.6
 40
0.6
 40
1.0
 40
1.0
 40
1.0
 40
1.0
 10
-13.292
 20
23.1565
 30
0.0
 10
-13.292
 20
23.1565
 30
0.0
 10
-13.6449
 20
20.6565
 30
0.0
 10
-13.6449
 20
20.6565
 30
0.0
 10
-13.6449
 20
20.6565
 30
0.0
 10
-13.6449
 20
20.6565
 30
0.0
 10
-13.7232
 20
20.6565
 30
0.0
 10
-13.7232
 20
20.6565
 30
0.0
 10
-13.7232
 20
20.6565
 30
0.0
 10
-13.7232
 20
20.6565
 30
0.0
 10
-14.0995
 20
23.1565
 30
0.0
 10
-14.0995
 20
23.1565
 30
0.0
 10
-14.0995
 20
23.1565
 30
0.0
 10
-14.0995
 20
23.1565
 30
0.0
 10
-13.292
 20
23.1565
 30
0.0
 10
-13.292
 20
23.1565
 30
0.0
  0
SPLINE
  5
6A
330
1F
100
AcDbEntity
  8
DEFAULT_1
 62
   250
100
AcDbSpline
210
0.0
220
0.0
230
1.0
 70
    11
 71
     3
 72
    40
 73
    36
 74
     0
 42
0.0000000001
 43
0.0000000001
 40
0.0
 40
0.0
 40
0.0
 40
0.0
 40
0.1
 40
0.1
 40
0.1
 40
0.1
 40
0.2
 40
0.2
 40
0.2
 40
0.2
 40
0.3
 40
0.3
 40
0.3
 40
0.3
 40
0.4
 40
0.4
 40
0.4
 40
0.4
 40
0.5
 40
0.5
 40
0.5
 40
0.5
 40
0.6
 40
0.6
 40
0.6
 40
0.6
 40
0.7
 40
0.7
 40
0.7
 40
0.7
 40
0.8
 40
0.8
 40
0.8
 40
0.8
 40
1.0
 40
1.0
 40
1.0
 40
1.0
 10
-14.2707
 20
-22.509
 30
0.0
 10
-14.2707
 20
-22.509
 30
0.0
 10
-14.2707
 20
-22.7569
 30
0.0
 10
-14.2707
 20
-22.7569
 30
0.0
 10
-14.2707
 20
-22.7569
 30
0.0
 10
-14.2707
 20
-22.7569
 30
0.0
 10
-15.8511
 20
-22.7569
 30
0.0
 10
-15.8511
 20
-22.7569
 30
0.0
 10
-15.8511
 20
-22.7569
 30
0.0
 10
-15.7942
 20
-22.8167
 30
0.0
 10
-15.7373
 20
-22.8947
 30
0.0
 10
-15.6804
 20
-22.9916
 30
0.0
 10
-15.6804
 20
-22.9916
 30
0.0
 10
-15.6235
 20
-23.089
 30
0.0
 10
-15.5807
 20
-23.176
 30
0.0
 10
-15.5524
 20
-23.2532
 30
0.0
 10
-15.5524
 20
-23.2532
 30
0.0
 10
-15.5524
 20
-23.2532
 30
0.0
 10
-15.7919
 20
-23.2532
 30
0.0
 10
-15.7919
 20
-23.2532
 30
0.0
 10
-15.7919
 20
-23.2532
 30
0.0
 10
-15.8572
 20
-23.1144
 30
0.0
 10
-15.9363
 20
-22.993
 30
0.0
 10
-16.0289
 20
-22.8891
 30
0.0
 10
-16.0289
 20
-22.8891
 30
0.0
 10
-16.1221
 20
-22.7856
 30
0.0
 10
-16.2119
 20
-22.7118
 30
0.0
 10
-16.2994
 20
-22.6685
 30
0.0
 10
-16.2994
 20
-22.6685
 30
0.0
 10
-16.2994
 20
-22.6685
 30
0.0
 10
-16.2994
 20
-22.509
 30
0.0
 10
-16.2994
 20
-22.509
 30
0.0
 10
-16.2994
 20
-22.509
 30
0.0
 10
-16.2994
 20
-22.509
 30
0.0
 10
-14.2707
 20
-22.509
 30
0.0
 10
-14.2707
 20
-22.509
 30
0.0
  0
SPLINE
  5
6B
330
1F
100
AcDbEntity
  8
DEFAULT_1
 62
   250
100
AcDbSpline
210
0.0
220
0.0
230
1.0
 70
    11
 71
     3
 72
    40
 73
    36
 74
     0
 42
0.0000000001
 43
0.0000000001
 40
0.0
 40
0.0
 40
0.0
 40
0.0
 40
0.1
 40
0.1
 40
0.1
 40
0.1
 40
0.2
 40
0.2
 40
0.2
 40
0.2
 40
0.3
 40
0.3
 40
0.3
 40
0.3
 40
0.4
 40
0.4
 40
0.4
 40
0.4
 40
0.5
 40
0.5
 40
0.5
 40
0.5
 40
0.6
 40
0.6
 40
0.6
 40
0.6
 40
0.7
 40
0.7
 40
0.7
 40
0.7
 40
0.8
 40
0.8
 40
0.8
 40
0.8
 40
1.0
 40
1.0
 40
1.0
 40
1.0
 10
-14.2707
 20
-21.1487
 30
0.0
 10
-14.2707
 20
-21.1487
 30
0.0
 10
-14.2707
 20
-21.3966
 30
0.0
 10
-14.2707
 20
-21.3966
 30
0.0
 10
-14.2707
 20
-21.3966
 30
0.0
 10
-14.2707
 20
-21.3966
 30
0.0
 10
-15.8511
 20
-21.3966
 30
0.0
 10
-15.8511
 20
-21.3966
 30
0.0
 10
-15.8511
 20
-21.3966
 30
0.0
 10
-15.7942
 20
-21.4564
 30
0.0
 10
-15.7373
 20
-21.5344
 30
0.0
 10
-15.6804
 20
-21.6313
 30
0.0
 10
-15.6804
 20
-21.6313
 30
0.0
 10
-15.6235
 20
-21.7287
 30
0.0
 10
-15.5807
 20
-21.8157
 30
0.0
 10
-15.5524
 20
-21.8929
 30
0.0
 10
-15.5524
 20
-21.8929
 30
0.0
 10
-15.5524
 20
-21.8929
 30
0.0
 10
-15.7919
 20
-21.8929
 30
0.0
 10
-15.7919
 20
-21.8929
 30
0.0
 10
-15.7919
 20
-21.8929
 30
0.0
 10
-15.8572
 20
-21.7541
 30
0.0
 10
-15.9363
 20
-21.6327
 30
0.0
 10
-16.0289
 20
-21.5288
 30
0.0
 10
-16.0289
 20
-21.5288
 30
0.0
 10
-16.1221
 20
-21.4253
 30
0.0
 10
-16.2119
 20
-21.3515
 30
0.0
 10
-16.2994
 20
-21.3082
 30
0.0
 10
-16.2994
 20
-21.3082
 30
0.0
 10
-16.2994
 20
-21.3082
 30
0.0
 10
-16.2994
 20
-21.1487
 30
0.0
 10
-16.2994
 20
-21.1487
 30
0.0
 10
-16.2994
 20
-21.1487
 30
0.0
 10
-16.2994
 20
-21.1487
 30
0.0
 10
-14.2707
 20
-21.1487
 30
0.0
 10
-14.2707
 20
-21.1487
 30
0.0
  0
SPLINE
  5
6C
330
1F
100
AcDbEntity
  8
DEFAULT_1
 62
   250
100
AcDbSpline
210
0.0
220
0.0
230
1.0
 70
    11
 71
     3
 72
    52
 73
    48
 74
     0
 42
0.0000000001
 43
0.0000000001
 40
0.0
 40
0.0
 40
0.0
 40
0.0
 40
0.0769230769230769
 40
0.0769230769230769
 40
0.0769230769230769
 40
0.0769230769230769
 40
0.1538461538461539
 40
0.1538461538461539
 40
0.1538461538461539
 40
0.1538461538461539
 40
0.2307692307692308
 40
0.2307692307692308
 40
0.2307692307692308
 40
0.2307692307692308
 40
0.3076923076923077
 40
0.3076923076923077
 40
0.3076923076923077
 40
0.3076923076923077
 40
0.3846153846153846
 40
0.3846153846153846
 40
0.3846153846153846
 40
0.3846153846153846
 40
0.4615384615384616
 40
0.4615384615384616
 40
0.4615384615384616
 40
0.4615384615384616
 40
0.5384615384615384
 40
0.5384615384615384
 40
0.5384615384615384
 40
0.5384615384615384
 40
0.6153846153846154
 40
0.6153846153846154
 40
0.6153846153846154
 40
0.6153846153846154
 40
0.6923076923076923
 40
0.6923076923076923
 40
0.6923076923076923
 40
0.6923076923076923
 40
0.7692307692307693
 40
0.7692307692307693
 40
0.7692307692307693
 40
0.7692307692307693
 40
0.8461538461538461
 40
0.8461538461538461
 40
0.8461538461538461
 40
0.8461538461538461
 40
1.0
 40
1.0
 40
1.0
 40
1.0
 10
-15.2669
 20
-20.5133
 30
0.0
 10
-15.5059
 20
-20.5133
 30
0.0
 10
-15.6983
 20
-20.4888
 30
0.0
 10
-15.8436
 20
-20.4394
 30
0.0
 10
-15.8436
 20
-20.4394
 30
0.0
 10
-15.9894
 20
-20.3905
 30
0.0
 10
-16.1018
 20
-20.3171
 30
0.0
 10
-16.1809
 20
-20.2202
 30
0.0
 10
-16.1809
 20
-20.2202
 30
0.0
 10
-16.2599
 20
-20.1233
 30
0.0
 10
-16.2994
 20
-20.0015
 30
0.0
 10
-16.2994
 20
-19.8548
 30
0.0
 10
-16.2994
 20
-19.8548
 30
0.0
 10
-16.2994
 20
-19.7461
 30
0.0
 10
-16.2773
 20
-19.6511
 30
0.0
 10
-16.2335
 20
-19.5693
 30
0.0
 10
-16.2335
 20
-19.5693
 30
0.0
 10
-16.1903
 20
-19.4874
 30
0.0
 10
-16.1272
 20
-19.4201
 30
0.0
 10
-16.0449
 20
-19.3665
 30
0.0
 10
-16.0449
 20
-19.3665
 30
0.0
 10
-15.9626
 20
-19.3134
 30
0.0
 10
-15.8624
 20
-19.2715
 30
0.0
 10
-15.7444
 20
-19.2414
 30
0.0
 10
-15.7444
 20
-19.2414
 30
0.0
 10
-15.6263
 20
-19.2108
 30
0.0
 10
-15.4673
 20
-19.1958
 30
0.0
 10
-15.2669
 20
-19.1958
 30
0.0
 10
-15.2669
 20
-19.1958
 30
0.0
 10
-15.0299
 20
-19.1958
 30
0.0
 10
-14.8389
 20
-19.2202
 30
0.0
 10
-14.6931
 20
-19.2687
 30
0.0
 10
-14.6931
 20
-19.2687
 30
0.0
 10
-14.5473
 20
-19.3176
 30
0.0
 10
-14.4349
 20
-19.3905
 30
0.0
 10
-14.3554
 20
-19.4874
 30
0.0
 10
-14.3554
 20
-19.4874
 30
0.0
 10
-14.2759
 20
-19.5843
 30
0.0
 10
-14.2364
 20
-19.7066
 30
0.0
 10
-14.2364
 20
-19.8548
 30
0.0
 10
-14.2364
 20
-19.8548
 30
0.0
 10
-14.2364
 20
-20.0495
 30
0.0
 10
-14.306
 20
-20.2024
 30
0.0
 10
-14.4457
 20
-20.3134
 30
0.0
 10
-14.4457
 20
-20.3134
 30
0.0
 10
-14.6136
 20
-20.4465
 30
0.0
 10
-14.8878
 20
-20.5133
 30
0.0
 10
-15.2669
 20
-20.5133
 30
0.0
  0
SPLINE
  5
6D
330
1F
100
AcDbEntity
  8
DEFAULT_1
 62
   250
100
AcDbSpline
210
0.0
220
0.0
230
1.0
 70
    11
 71
     3
 72
    36
 73
    32
 74
     0
 42
0.0000000001
 43
0.0000000001
 40
0.0
 40
0.0
 40
0.0
 40
0.0
 40
0.1111111111111111
 40
0.1111111111111111
 40
0.1111111111111111
 40
0.1111111111111111
 40
0.2222222222222222
 40
0.2222222222222222
 40
0.2222222222222222
 40
0.2222222222222222
 40
0.3333333333333333
 40
0.3333333333333333
 40
0.3333333333333333
 40
0.3333333333333333
 40
0.4444444444444444
 40
0.4444444444444444
 40
0.4444444444444444
 40
0.4444444444444444
 40
0.5555555555555556
 40
0.5555555555555556
 40
0.5555555555555556
 40
0.5555555555555556
 40
0.6666666666666666
 40
0.6666666666666666
 40
0.6666666666666666
 40
0.6666666666666666
 40
0.7777777777777778
 40
0.7777777777777778
 40
0.7777777777777778
 40
0.7777777777777778
 40
1.0
 40
1.0
 40
1.0
 40
1.0
 10
-15.2669
 20
-20.2583
 30
0.0
 10
-14.9353
 20
-20.2583
 30
0.0
 10
-14.7147
 20
-20.2193
 30
0.0
 10
-14.6047
 20
-20.1417
 30
0.0
 10
-14.6047
 20
-20.1417
 30
0.0
 10
-14.4951
 20
-20.0641
 30
0.0
 10
-14.44
 20
-19.9686
 30
0.0
 10
-14.44
 20
-19.8548
 30
0.0
 10
-14.44
 20
-19.8548
 30
0.0
 10
-14.44
 20
-19.7405
 30
0.0
 10
-14.4955
 20
-19.645
 30
0.0
 10
-14.6056
 20
-19.5674
 30
0.0
 10
-14.6056
 20
-19.5674
 30
0.0
 10
-14.7157
 20
-19.4898
 30
0.0
 10
-14.9363
 20
-19.4507
 30
0.0
 10
-15.2669
 20
-19.4507
 30
0.0
 10
-15.2669
 20
-19.4507
 30
0.0
 10
-15.5995
 20
-19.4507
 30
0.0
 10
-15.8206
 20
-19.4898
 30
0.0
 10
-15.9297
 20
-19.5674
 30
0.0
 10
-15.9297
 20
-19.5674
 30
0.0
 10
-16.0393
 20
-19.645
 30
0.0
 10
-16.0938
 20
-19.7414
 30
0.0
 10
-16.0938
 20
-19.8571
 30
0.0
 10
-16.0938
 20
-19.8571
 30
0.0
 10
-16.0938
 20
-19.9714
 30
0.0
 10
-16.0454
 20
-20.0622
 30
0.0
 10
-15.949
 20
-20.1304
 30
0.0
 10
-15.949
 20
-20.1304
 30
0.0
 10
-15.8262
 20
-20.2155
 30
0.0
 10
-15.5985
 20
-20.2583
 30
0.0
 10
-15.2669
 20
-20.2583
 30
0.0
  0
SPLINE
  5
6E
330
1F
100
AcDbEntity
  8
DEFAULT_1
 62
   250
100
AcDbSpline
210
0.0
220
0.0
230
1.0
 70
    11
 71
     3
 72
   116
 73
   112
 74
     0
 42
0.0000000001
 43
0.0000000001
 40
0.0
 40
0.0
 40
0.0
 40
0.0
 40
0.0344827586206897
 40
0.0344827586206897
 40
0.0344827586206897
 40
0.0344827586206897
 40
0.0689655172413793
 40
0.0689655172413793
 40
0.0689655172413793
 40
0.0689655172413793
 40
0.103448275862069
 40
0.103448275862069
 40
0.103448275862069
 40
0.103448275862069
 40
0.1379310344827586
 40
0.1379310344827586
 40
0.1379310344827586
 40
0.1379310344827586
 40
0.1724137931034483
 40
0.1724137931034483
 40
0.1724137931034483
 40
0.1724137931034483
 40
0.2068965517241379
 40
0.2068965517241379
 40
0.2068965517241379
 40
0.2068965517241379
 40
0.2413793103448276
 40
0.2413793103448276
 40
0.2413793103448276
 40
0.2413793103448276
 40
0.2758620689655172
 40
0.2758620689655172
 40
0.2758620689655172
 40
0.2758620689655172
 40
0.3103448275862069
 40
0.3103448275862069
 40
0.3103448275862069
 40
0.3103448275862069
 40
0.3448275862068966
 40
0.3448275862068966
 40
0.3448275862068966
 40
0.3448275862068966
 40
0.3793103448275862
 40
0.3793103448275862
 40
0.3793103448275862
 40
0.3793103448275862
 40
0.4137931034482759
 40
0.4137931034482759
 40
0.4137931034482759
 40
0.4137931034482759
 40
0.4482758620689655
 40
0.4482758620689655
 40
0.4482758620689655
 40
0.4482758620689655
 40
0.4827586206896552
 40
0.4827586206896552
 40
0.4827586206896552
 40
0.4827586206896552
 40
0.5172413793103449
 40
0.5172413793103449
 40
0.5172413793103449
 40
0.5172413793103449
 40
0.5517241379310345
 40
0.5517241379310345
 40
0.5517241379310345
 40
0.5517241379310345
 40
0.5862068965517241
 40
0.5862068965517241
 40
0.5862068965517241
 40
0.5862068965517241
 40
0.6206896551724138
 40
0.6206896551724138
 40
0.6206896551724138
 40
0.6206896551724138
 40
0.6551724137931034
 40
0.6551724137931034
 40
0.6551724137931034
 40
0.6551724137931034
 40
0.6896551724137931
 40
0.6896551724137931
 40
0.6896551724137931
 40
0.6896551724137931
 40
0.7241379310344828
 40
0.7241379310344828
 40
0.7241379310344828
 40
0.7241379310344828
 40
0.7586206896551724
 40
0.7586206896551724
 40
0.7586206896551724
 40
0.7586206896551724
 40
0.7931034482758621
 40
0.7931034482758621
 40
0.7931034482758621
 40
0.7931034482758621
 40
0.8275862068965517
 40
0.8275862068965517
 40
0.8275862068965517
 40
0.8275862068965517
 40
0.8620689655172413
 40
0.8620689655172413
 40
0.8620689655172413
 40
0.8620689655172413
 40
0.896551724137931
 40
0.896551724137931
 40
0.896551724137931
 40
0.896551724137931
 40
0.9310344827586207
 40
0.9310344827586207
 40
0.9310344827586207
 40
0.9310344827586207
 40
1.0
 40
1.0
 40
1.0
 40
1.0
 10
-14.5789
 20
17.2272
 30
0.0
 10
-14.5789
 20
17.2272
 30
0.0
 10
-16.0422
 20
17.2272
 30
0.0
 10
-16.0422
 20
17.2272
 30
0.0
 10
-16.0422
 20
17.2272
 30
0.0
 10
-16.0422
 20
17.2272
 30
0.0
 10
-16.0422
 20
17.4487
 30
0.0
 10
-16.0422
 20
17.4487
 30
0.0
 10
-16.0422
 20
17.4487
 30
0.0
 10
-16.0422
 20
17.4487
 30
0.0
 10
-15.8371
 20
17.4487
 30
0.0
 10
-15.8371
 20
17.4487
 30
0.0
 10
-15.8371
 20
17.4487
 30
0.0
 10
-15.9086
 20
17.4948
 30
0.0
 10
-15.9665
 20
17.556
 30
0.0
 10
-16.0098
 20
17.6322
 30
0.0
 10
-16.0098
 20
17.6322
 30
0.0
 10
-16.0535
 20
17.7084
 30
0.0
 10
-16.0756
 20
17.7954
 30
0.0
 10
-16.0756
 20
17.8927
 30
0.0
 10
-16.0756
 20
17.8927
 30
0.0
 10
-16.0756
 20
18.0009
 30
0.0
 10
-16.053
 20
18.0898
 30
0.0
 10
-16.0079
 20
18.159
 30
0.0
 10
-16.0079
 20
18.159
 30
0.0
 10
-15.9627
 20
18.2286
 30
0.0
 10
-15.9002
 20
18.2775
 30
0.0
 10
-15.8193
 20
18.3057
 30
0.0
 10
-15.8193
 20
18.3057
 30
0.0
 10
-15.99
 20
18.4219
 30
0.0
 10
-16.0756
 20
18.5724
 30
0.0
 10
-16.0756
 20
18.7577
 30
0.0
 10
-16.0756
 20
18.7577
 30
0.0
 10
-16.0756
 20
18.9031
 30
0.0
 10
-16.0352
 20
19.0146
 30
0.0
 10
-15.9547
 20
19.0926
 30
0.0
 10
-15.9547
 20
19.0926
 30
0.0
 10
-15.8743
 20
19.1707
 30
0.0
 10
-15.7506
 20
19.2098
 30
0.0
 10
-15.5836
 20
19.2098
 30
0.0
 10
-15.5836
 20
19.2098
 30
0.0
 10
-15.5836
 20
19.2098
 30
0.0
 10
-14.5789
 20
19.2098
 30
0.0
 10
-14.5789
 20
19.2098
 30
0.0
 10
-14.5789
 20
19.2098
 30
0.0
 10
-14.5789
 20
19.2098
 30
0.0
 10
-14.5789
 20
18.9633
 30
0.0
 10
-14.5789
 20
18.9633
 30
0.0
 10
-14.5789
 20
18.9633
 30
0.0
 10
-14.5789
 20
18.9633
 30
0.0
 10
-15.5008
 20
18.9633
 30
0.0
 10
-15.5008
 20
18.9633
 30
0.0
 10
-15.5008
 20
18.9633
 30
0.0
 10
-15.6001
 20
18.9633
 30
0.0
 10
-15.6716
 20
18.9553
 30
0.0
 10
-15.7153
 20
18.9393
 30
0.0
 10
-15.7153
 20
18.9393
 30
0.0
 10
-15.7586
 20
18.9228
 30
0.0
 10
-15.7939
 20
18.8937
 30
0.0
 10
-15.8207
 20
18.8518
 30
0.0
 10
-15.8207
 20
18.8518
 30
0.0
 10
-15.847
 20
18.8095
 30
0.0
 10
-15.8606
 20
18.7596
 30
0.0
 10
-15.8606
 20
18.7027
 30
0.0
 10
-15.8606
 20
18.7027
 30
0.0
 10
-15.8606
 20
18.5997
 30
0.0
 10
-15.8263
 20
18.5146
 30
0.0
 10
-15.7576
 20
18.4464
 30
0.0
 10
-15.7576
 20
18.4464
 30
0.0
 10
-15.6894
 20
18.3786
 30
0.0
 10
-15.5798
 20
18.3443
 30
0.0
 10
-15.4293
 20
18.3443
 30
0.0
 10
-15.4293
 20
18.3443
 30
0.0
 10
-15.4293
 20
18.3443
 30
0.0
 10
-14.5789
 20
18.3443
 30
0.0
 10
-14.5789
 20
18.3443
 30
0.0
 10
-14.5789
 20
18.3443
 30
0.0
 10
-14.5789
 20
18.3443
 30
0.0
 10
-14.5789
 20
18.0964
 30
0.0
 10
-14.5789
 20
18.0964
 30
0.0
 10
-14.5789
 20
18.0964
 30
0.0
 10
-14.5789
 20
18.0964
 30
0.0
 10
-15.5295
 20
18.0964
 30
0.0
 10
-15.5295
 20
18.0964
 30
0.0
 10
-15.5295
 20
18.0964
 30
0.0
 10
-15.64
 20
18.0964
 30
0.0
 10
-15.7228
 20
18.0762
 30
0.0
 10
-15.7779
 20
18.0357
 30
0.0
 10
-15.7779
 20
18.0357
 30
0.0
 10
-15.8329
 20
17.9953
 30
0.0
 10
-15.8606
 20
17.9294
 30
0.0
 10
-15.8606
 20
17.8372
 30
0.0
 10
-15.8606
 20
17.8372
 30
0.0
 10
-15.8606
 20
17.7676
 30
0.0
 10
-15.8423
 20
17.7032
 30
0.0
 10
-15.8051
 20
17.6439
 30
0.0
 10
-15.8051
 20
17.6439
 30
0.0
 10
-15.7685
 20
17.5846
 30
0.0
 10
-15.7148
 20
17.5414
 30
0.0
 10
-15.6443
 20
17.515
 30
0.0
 10
-15.6443
 20
17.515
 30
0.0
 10
-15.5733
 20
17.4882
 30
0.0
 10
-15.4712
 20
17.475
 30
0.0
 10
-15.3381
 20
17.475
 30
0.0
 10
-15.3381
 20
17.475
 30
0.0
 10
-15.3381
 20
17.475
 30
0.0
 10
-14.5789
 20
17.475
 30
0.0
 10
-14.5789
 20
17.475
 30
0.0
 10
-14.5789
 20
17.475
 30
0.0
 10
-14.5789
 20
17.475
 30
0.0
 10
-14.5789
 20
17.2272
 30
0.0
 10
-14.5789
 20
17.2272
 30
0.0
  0
SPLINE
  5
6F
330
1F
100
AcDbEntity
  8
DEFAULT_1
 62
   250
100
AcDbSpline
210
0.0
220
0.0
230
1.0
 70
    11
 71
     3
 72
   112
 73
   108
 74
     0
 42
0.0000000001
 43
0.0000000001
 40
0.0
 40
0.0
 40
0.0
 40
0.0
 40
0.0357142857142857
 40
0.0357142857142857
 40
0.0357142857142857
 40
0.0357142857142857
 40
0.0714285714285714
 40
0.0714285714285714
 40
0.0714285714285714
 40
0.0714285714285714
 40
0.1071428571428571
 40
0.1071428571428571
 40
0.1071428571428571
 40
0.1071428571428571
 40
0.1428571428571428
 40
0.1428571428571428
 40
0.1428571428571428
 40
0.1428571428571428
 40
0.1785714285714286
 40
0.1785714285714286
 40
0.1785714285714286
 40
0.1785714285714286
 40
0.2142857142857143
 40
0.2142857142857143
 40
0.2142857142857143
 40
0.2142857142857143
 40
0.25
 40
0.25
 40
0.25
 40
0.25
 40
0.2857142857142857
 40
0.2857142857142857
 40
0.2857142857142857
 40
0.2857142857142857
 40
0.3214285714285715
 40
0.3214285714285715
 40
0.3214285714285715
 40
0.3214285714285715
 40
0.3571428571428572
 40
0.3571428571428572
 40
0.3571428571428572
 40
0.3571428571428572
 40
0.3928571428571428
 40
0.3928571428571428
 40
0.3928571428571428
 40
0.3928571428571428
 40
0.4285714285714285
 40
0.4285714285714285
 40
0.4285714285714285
 40
0.4285714285714285
 40
0.4642857142857143
 40
0.4642857142857143
 40
0.4642857142857143
 40
0.4642857142857143
 40
0.5
 40
0.5
 40
0.5
 40
0.5
 40
0.5357142857142857
 40
0.5357142857142857
 40
0.5357142857142857
 40
0.5357142857142857
 40
0.5714285714285714
 40
0.5714285714285714
 40
0.5714285714285714
 40
0.5714285714285714
 40
0.6071428571428571
 40
0.6071428571428571
 40
0.6071428571428571
 40
0.6071428571428571
 40
0.6428571428571429
 40
0.6428571428571429
 40
0.6428571428571429
 40
0.6428571428571429
 40
0.6785714285714286
 40
0.6785714285714286
 40
0.6785714285714286
 40
0.6785714285714286
 40
0.7142857142857143
 40
0.7142857142857143
 40
0.7142857142857143
 40
0.7142857142857143
 40
0.75
 40
0.75
 40
0.75
 40
0.75
 40
0.7857142857142857
 40
0.7857142857142857
 40
0.7857142857142857
 40
0.7857142857142857
 40
0.8214285714285714
 40
0.8214285714285714
 40
0.8214285714285714
 40
0.8214285714285714
 40
0.8571428571428571
 40
0.8571428571428571
 40
0.8571428571428571
 40
0.8571428571428571
 40
0.8928571428571429
 40
0.8928571428571429
 40
0.8928571428571429
 40
0.8928571428571429
 40
0.9285714285714286
 40
0.9285714285714286
 40
0.9285714285714286
 40
0.9285714285714286
 40
1.0
 40
1.0
 40
1.0
 40
1.0
 10
-14.7595
 20
20.5329
 30
0.0
 10
-14.6814
 20
20.4407
 30
0.0
 10
-14.6264
 20
20.3523
 30
0.0
 10
-14.594
 20
20.2676
 30
0.0
 10
-14.594
 20
20.2676
 30
0.0
 10
-14.562
 20
20.1825
 30
0.0
 10
-14.546
 20
20.0912
 30
0.0
 10
-14.546
 20
19.9939
 30
0.0
 10
-14.546
 20
19.9939
 30
0.0
 10
-14.546
 20
19.833
 30
0.0
 10
-14.585
 20
19.7098
 30
0.0
 10
-14.6636
 20
19.6232
 30
0.0
 10
-14.6636
 20
19.6232
 30
0.0
 10
-14.7421
 20
19.5371
 30
0.0
 10
-14.8428
 20
19.4939
 30
0.0
 10
-14.9646
 20
19.4939
 30
0.0
 10
-14.9646
 20
19.4939
 30
0.0
 10
-15.0366
 20
19.4939
 30
0.0
 10
-15.1019
 20
19.5099
 30
0.0
 10
-15.1612
 20
19.5428
 30
0.0
 10
-15.1612
 20
19.5428
 30
0.0
 10
-15.2205
 20
19.5752
 30
0.0
 10
-15.268
 20
19.618
 30
0.0
 10
-15.3037
 20
19.6707
 30
0.0
 10
-15.3037
 20
19.6707
 30
0.0
 10
-15.3395
 20
19.7239
 30
0.0
 10
-15.3668
 20
19.7831
 30
0.0
 10
-15.3851
 20
19.8495
 30
0.0
 10
-15.3851
 20
19.8495
 30
0.0
 10
-15.3978
 20
19.8979
 30
0.0
 10
-15.4105
 20
19.9713
 30
0.0
 10
-15.4223
 20
20.0696
 30
0.0
 10
-15.4223
 20
20.0696
 30
0.0
 10
-15.4463
 20
20.27
 30
0.0
 10
-15.4745
 20
20.4177
 30
0.0
 10
-15.5079
 20
20.5122
 30
0.0
 10
-15.5079
 20
20.5122
 30
0.0
 10
-15.5417
 20
20.5132
 30
0.0
 10
-15.5634
 20
20.5136
 30
0.0
 10
-15.5723
 20
20.5136
 30
0.0
 10
-15.5723
 20
20.5136
 30
0.0
 10
-15.6734
 20
20.5136
 30
0.0
 10
-15.7449
 20
20.4901
 30
0.0
 10
-15.7859
 20
20.4431
 30
0.0
 10
-15.7859
 20
20.4431
 30
0.0
 10
-15.8423
 20
20.38
 30
0.0
 10
-15.8701
 20
20.2855
 30
0.0
 10
-15.8701
 20
20.1608
 30
0.0
 10
-15.8701
 20
20.1608
 30
0.0
 10
-15.8701
 20
20.0442
 30
0.0
 10
-15.8498
 20
19.9581
 30
0.0
 10
-15.8089
 20
19.9021
 30
0.0
 10
-15.8089
 20
19.9021
 30
0.0
 10
-15.768
 20
19.8466
 30
0.0
 10
-15.6956
 20
19.8057
 30
0.0
 10
-15.5916
 20
19.7789
 30
0.0
 10
-15.5916
 20
19.7789
 30
0.0
 10
-15.5916
 20
19.7789
 30
0.0
 10
-15.625
 20
19.5367
 30
0.0
 10
-15.625
 20
19.5367
 30
0.0
 10
-15.625
 20
19.5367
 30
0.0
 10
-15.7285
 20
19.5588
 30
0.0
 10
-15.8127
 20
19.595
 30
0.0
 10
-15.8762
 20
19.6453
 30
0.0
 10
-15.8762
 20
19.6453
 30
0.0
 10
-15.9401
 20
19.6957
 30
0.0
 10
-15.9895
 20
19.769
 30
0.0
 10
-16.0239
 20
19.8645
 30
0.0
 10
-16.0239
 20
19.8645
 30
0.0
 10
-16.0582
 20
19.96
 30
0.0
 10
-16.0756
 20
20.0705
 30
0.0
 10
-16.0756
 20
20.1966
 30
0.0
 10
-16.0756
 20
20.1966
 30
0.0
 10
-16.0756
 20
20.3217
 30
0.0
 10
-16.0606
 20
20.4228
 30
0.0
 10
-16.0314
 20
20.5009
 30
0.0
 10
-16.0314
 20
20.5009
 30
0.0
 10
-16.0018
 20
20.579
 30
0.0
 10
-15.9651
 20
20.6364
 30
0.0
 10
-15.9204
 20
20.6735
 30
0.0
 10
-15.9204
 20
20.6735
 30
0.0
 10
-15.8757
 20
20.7102
 30
0.0
 10
-15.8197
 20
20.7356
 30
0.0
 10
-15.7515
 20
20.7507
 30
0.0
 10
-15.7515
 20
20.7507
 30
0.0
 10
-15.7092
 20
20.7587
 30
0.0
 10
-15.633
 20
20.7629
 30
0.0
 10
-15.5229
 20
20.7629
 30
0.0
 10
-15.5229
 20
20.7629
 30
0.0
 10
-15.5229
 20
20.7629
 30
0.0
 10
-15.1923
 20
20.7629
 30
0.0
 10
-15.1923
 20
20.7629
 30
0.0
 10
-15.1923
 20
20.7629
 30
0.0
 10
-14.9613
 20
20.7629
 30
0.0
 10
-14.8155
 20
20.7681
 30
0.0
 10
-14.7548
 20
20.7789
 30
0.0
 10
-14.7548
 20
20.7789
 30
0.0
 10
-14.6937
 20
20.7893
 30
0.0
 10
-14.6349
 20
20.8104
 30
0.0
 10
-14.5789
 20
20.8415
 30
0.0
 10
-14.5789
 20
20.8415
 30
0.0
 10
-14.5789
 20
20.8415
 30
0.0
 10
-14.5789
 20
20.5823
 30
0.0
 10
-14.5789
 20
20.5823
 30
0.0
 10
-14.5789
 20
20.5823
 30
0.0
 10
-14.6302
 20
20.5569
 30
0.0
 10
-14.6904
 20
20.54
 30
0.0
 10
-14.7595
 20
20.5329
 30
0.0
  0
SPLINE
  5
70
330
1F
100
AcDbEntity
  8
DEFAULT_1
 62
   250
100
AcDbSpline
210
0.0
220
0.0
230
1.0
 70
    11
 71
     3
 72
    44
 73
    40
 74
     0
 42
0.0000000001
 43
0.0000000001
 40
0.0
 40
0.0
 40
0.0
 40
0.0
 40
0.0909090909090909
 40
0.0909090909090909
 40
0.0909090909090909
 40
0.0909090909090909
 40
0.1818181818181818
 40
0.1818181818181818
 40
0.1818181818181818
 40
0.1818181818181818
 40
0.2727272727272727
 40
0.2727272727272727
 40
0.2727272727272727
 40
0.2727272727272727
 40
0.3636363636363636
 40
0.3636363636363636
 40
0.3636363636363636
 40
0.3636363636363636
 40
0.4545454545454545
 40
0.4545454545454545
 40
0.4545454545454545
 40
0.4545454545454545
 40
0.5454545454545454
 40
0.5454545454545454
 40
0.5454545454545454
 40
0.5454545454545454
 40
0.6363636363636364
 40
0.6363636363636364
 40
0.6363636363636364
 40
0.6363636363636364
 40
0.7272727272727273
 40
0.7272727272727273
 40
0.7272727272727273
 40
0.7272727272727273
 40
0.8181818181818182
 40
0.8181818181818182
 40
0.8181818181818182
 40
0.8181818181818182
 40
1.0
 40
1.0
 40
1.0
 40
1.0
 10
-15.3136
 20
20.5122
 30
0.0
 10
-15.2765
 20
20.4219
 30
0.0
 10
-15.2454
 20
20.2869
 30
0.0
 10
-15.2195
 20
20.1072
 30
0.0
 10
-15.2195
 20
20.1072
 30
0.0
 10
-15.205
 20
20.0052
 30
0.0
 10
-15.1885
 20
19.9327
 30
0.0
 10
-15.1702
 20
19.8909
 30
0.0
 10
-15.1702
 20
19.8909
 30
0.0
 10
-15.1518
 20
19.8485
 30
0.0
 10
-15.125
 20
19.8156
 30
0.0
 10
-15.0892
 20
19.793
 30
0.0
 10
-15.0892
 20
19.793
 30
0.0
 10
-15.054
 20
19.77
 30
0.0
 10
-15.0149
 20
19.7582
 30
0.0
 10
-14.9717
 20
19.7582
 30
0.0
 10
-14.9717
 20
19.7582
 30
0.0
 10
-14.9053
 20
19.7582
 30
0.0
 10
-14.8503
 20
19.7836
 30
0.0
 10
-14.8061
 20
19.8335
 30
0.0
 10
-14.8061
 20
19.8335
 30
0.0
 10
-14.7623
 20
19.8833
 30
0.0
 10
-14.7402
 20
19.9567
 30
0.0
 10
-14.7402
 20
20.0531
 30
0.0
 10
-14.7402
 20
20.0531
 30
0.0
 10
-14.7402
 20
20.1486
 30
0.0
 10
-14.7609
 20
20.2338
 30
0.0
 10
-14.8028
 20
20.3081
 30
0.0
 10
-14.8028
 20
20.3081
 30
0.0
 10
-14.8447
 20
20.3824
 30
0.0
 10
-14.902
 20
20.4374
 30
0.0
 10
-14.9745
 20
20.4722
 30
0.0
 10
-14.9745
 20
20.4722
 30
0.0
 10
-15.0305
 20
20.499
 30
0.0
 10
-15.1132
 20
20.5122
 30
0.0
 10
-15.2224
 20
20.5122
 30
0.0
 10
-15.2224
 20
20.5122
 30
0.0
 10
-15.2224
 20
20.5122
 30
0.0
 10
-15.3136
 20
20.5122
 30
0.0
 10
-15.3136
 20
20.5122
 30
0.0
  0
SPLINE
  5
71
330
1F
100
AcDbEntity
  8
DEFAULT_1
 62
   250
100
AcDbSpline
210
0.0
220
0.0
230
1.0
 70
    11
 71
     3
 72
    64
 73
    60
 74
     0
 42
0.0000000001
 43
0.0000000001
 40
0.0
 40
0.0
 40
0.0
 40
0.0
 40
0.0625
 40
0.0625
 40
0.0625
 40
0.0625
 40
0.125
 40
0.125
 40
0.125
 40
0.125
 40
0.1875
 40
0.1875
 40
0.1875
 40
0.1875
 40
0.25
 40
0.25
 40
0.25
 40
0.25
 40
0.3125
 40
0.3125
 40
0.3125
 40
0.3125
 40
0.375
 40
0.375
 40
0.375
 40
0.375
 40
0.4375
 40
0.4375
 40
0.4375
 40
0.4375
 40
0.5
 40
0.5
 40
0.5
 40
0.5
 40
0.5625
 40
0.5625
 40
0.5625
 40
0.5625
 40
0.625
 40
0.625
 40
0.625
 40
0.625
 40
0.6875
 40
0.6875
 40
0.6875
 40
0.6875
 40
0.75
 40
0.75
 40
0.75
 40
0.75
 40
0.8125
 40
0.8125
 40
0.8125
 40
0.8125
 40
0.875
 40
0.875
 40
0.875
 40
0.875
 40
1.0
 40
1.0
 40
1.0
 40
1.0
 10
-14.5789
 20
20.9821
 30
0.0
 10
-14.5789
 20
20.9821
 30
0.0
 10
-15.3395
 20
21.5169
 30
0.0
 10
-15.3395
 20
21.5169
 30
0.0
 10
-15.3395
 20
21.5169
 30
0.0
 10
-15.3395
 20
21.5169
 30
0.0
 10
-16.0422
 20
21.0221
 30
0.0
 10
-16.0422
 20
21.0221
 30
0.0
 10
-16.0422
 20
21.0221
 30
0.0
 10
-16.0422
 20
21.0221
 30
0.0
 10
-16.0422
 20
21.332
 30
0.0
 10
-16.0422
 20
21.332
 30
0.0
 10
-16.0422
 20
21.332
 30
0.0
 10
-16.0422
 20
21.332
 30
0.0
 10
-15.6993
 20
21.5569
 30
0.0
 10
-15.6993
 20
21.5569
 30
0.0
 10
-15.6993
 20
21.5569
 30
0.0
 10
-15.6339
 20
21.5987
 30
0.0
 10
-15.5794
 20
21.6331
 30
0.0
 10
-15.5352
 20
21.6585
 30
0.0
 10
-15.5352
 20
21.6585
 30
0.0
 10
-15.5958
 20
21.6989
 30
0.0
 10
-15.6495
 20
21.7361
 30
0.0
 10
-15.6965
 20
21.7704
 30
0.0
 10
-15.6965
 20
21.7704
 30
0.0
 10
-15.6965
 20
21.7704
 30
0.0
 10
-16.0422
 20
22.0169
 30
0.0
 10
-16.0422
 20
22.0169
 30
0.0
 10
-16.0422
 20
22.0169
 30
0.0
 10
-16.0422
 20
22.0169
 30
0.0
 10
-16.0422
 20
22.3132
 30
0.0
 10
-16.0422
 20
22.3132
 30
0.0
 10
-16.0422
 20
22.3132
 30
0.0
 10
-16.0422
 20
22.3132
 30
0.0
 10
-15.3531
 20
21.8076
 30
0.0
 10
-15.3531
 20
21.8076
 30
0.0
 10
-15.3531
 20
21.8076
 30
0.0
 10
-15.3531
 20
21.8076
 30
0.0
 10
-14.5789
 20
22.3518
 30
0.0
 10
-14.5789
 20
22.3518
 30
0.0
 10
-14.5789
 20
22.3518
 30
0.0
 10
-14.5789
 20
22.3518
 30
0.0
 10
-14.5789
 20
22.0475
 30
0.0
 10
-14.5789
 20
22.0475
 30
0.0
 10
-14.5789
 20
22.0475
 30
0.0
 10
-14.5789
 20
22.0475
 30
0.0
 10
-15.0337
 20
21.7469
 30
0.0
 10
-15.0337
 20
21.7469
 30
0.0
 10
-15.0337
 20
21.7469
 30
0.0
 10
-15.0337
 20
21.7469
 30
0.0
 10
-15.1565
 20
21.667
 30
0.0
 10
-15.1565
 20
21.667
 30
0.0
 10
-15.1565
 20
21.667
 30
0.0
 10
-15.1565
 20
21.667
 30
0.0
 10
-14.5789
 20
21.2827
 30
0.0
 10
-14.5789
 20
21.2827
 30
0.0
 10
-14.5789
 20
21.2827
 30
0.0
 10
-14.5789
 20
21.2827
 30
0.0
 10
-14.5789
 20
20.9821
 30
0.0
 10
-14.5789
 20
20.9821
 30
0.0
  0
SPLINE
  5
72
330
1F
100
AcDbEntity
  8
DEFAULT_1
 62
   250
100
AcDbSpline
210
0.0
220
0.0
230
1.0
 70
    11
 71
     3
 72
    40
 73
    36
 74
     0
 42
0.0000000001
 43
0.0000000001
 40
0.0
 40
0.0
 40
0.0
 40
0.0
 40
0.1
 40
0.1
 40
0.1
 40
0.1
 40
0.2
 40
0.2
 40
0.2
 40
0.2
 40
0.3
 40
0.3
 40
0.3
 40
0.3
 40
0.4
 40
0.4
 40
0.4
 40
0.4
 40
0.5
 40
0.5
 40
0.5
 40
0.5
 40
0.6
 40
0.6
 40
0.6
 40
0.6
 40
0.7
 40
0.7
 40
0.7
 40
0.7
 40
0.8
 40
0.8
 40
0.8
 40
0.8
 40
1.0
 40
1.0
 40
1.0
 40
1.0
 10
-14.5789
 20
24.2079
 30
0.0
 10
-14.5789
 20
24.2079
 30
0.0
 10
-14.5789
 20
23.96
 30
0.0
 10
-14.5789
 20
23.96
 30
0.0
 10
-14.5789
 20
23.96
 30
0.0
 10
-14.5789
 20
23.96
 30
0.0
 10
-16.1593
 20
23.96
 30
0.0
 10
-16.1593
 20
23.96
 30
0.0
 10
-16.1593
 20
23.96
 30
0.0
 10
-16.1024
 20
23.9002
 30
0.0
 10
-16.0455
 20
23.8222
 30
0.0
 10
-15.9886
 20
23.7253
 30
0.0
 10
-15.9886
 20
23.7253
 30
0.0
 10
-15.9317
 20
23.6279
 30
0.0
 10
-15.8889
 20
23.5409
 30
0.0
 10
-15.8606
 20
23.4637
 30
0.0
 10
-15.8606
 20
23.4637
 30
0.0
 10
-15.8606
 20
23.4637
 30
0.0
 10
-16.1001
 20
23.4637
 30
0.0
 10
-16.1001
 20
23.4637
 30
0.0
 10
-16.1001
 20
23.4637
 30
0.0
 10
-16.1654
 20
23.6025
 30
0.0
 10
-16.2445
 20
23.7239
 30
0.0
 10
-16.3371
 20
23.8278
 30
0.0
 10
-16.3371
 20
23.8278
 30
0.0
 10
-16.4303
 20
23.9313
 30
0.0
 10
-16.5201
 20
24.0051
 30
0.0
 10
-16.6076
 20
24.0484
 30
0.0
 10
-16.6076
 20
24.0484
 30
0.0
 10
-16.6076
 20
24.0484
 30
0.0
 10
-16.6076
 20
24.2079
 30
0.0
 10
-16.6076
 20
24.2079
 30
0.0
 10
-16.6076
 20
24.2079
 30
0.0
 10
-16.6076
 20
24.2079
 30
0.0
 10
-14.5789
 20
24.2079
 30
0.0
 10
-14.5789
 20
24.2079
 30
0.0
  0
SPLINE
  5
73
330
1F
100
AcDbEntity
  8
DEFAULT_1
 62
   250
100
AcDbSpline
210
0.0
220
0.0
230
1.0
 70
    11
 71
     3
 72
    80
 73
    76
 74
     0
 42
0.0000000001
 43
0.0000000001
 40
0.0
 40
0.0
 40
0.0
 40
0.0
 40
0.05
 40
0.05
 40
0.05
 40
0.05
 40
0.1
 40
0.1
 40
0.1
 40
0.1
 40
0.15
 40
0.15
 40
0.15
 40
0.15
 40
0.2
 40
0.2
 40
0.2
 40
0.2
 40
0.25
 40
0.25
 40
0.25
 40
0.25
 40
0.3
 40
0.3
 40
0.3
 40
0.3
 40
0.35
 40
0.35
 40
0.35
 40
0.35
 40
0.4
 40
0.4
 40
0.4
 40
0.4
 40
0.45
 40
0.45
 40
0.45
 40
0.45
 40
0.5
 40
0.5
 40
0.5
 40
0.5
 40
0.55
 40
0.55
 40
0.55
 40
0.55
 40
0.6
 40
0.6
 40
0.6
 40
0.6
 40
0.65
 40
0.65
 40
0.65
 40
0.65
 40
0.7
 40
0.7
 40
0.7
 40
0.7
 40
0.75
 40
0.75
 40
0.75
 40
0.75
 40
0.8
 40
0.8
 40
0.8
 40
0.8
 40
0.85
 40
0.85
 40
0.85
 40
0.85
 40
0.9
 40
0.9
 40
0.9
 40
0.9
 40
1.0
 40
1.0
 40
1.0
 40
1.0
 10
-16.1043
 20
26.1302
 30
0.0
 10
-16.1043
 20
26.1302
 30
0.0
 10
-16.085
 20
25.8838
 30
0.0
 10
-16.085
 20
25.8838
 30
0.0
 10
-16.085
 20
25.8838
 30
0.0
 10
-16.1824
 20
25.8617
 30
0.0
 10
-16.2534
 20
25.8306
 30
0.0
 10
-16.2971
 20
25.7902
 30
0.0
 10
-16.2971
 20
25.7902
 30
0.0
 10
-16.3682
 20
25.7229
 30
0.0
 10
-16.4035
 20
25.6401
 30
0.0
 10
-16.4035
 20
25.5418
 30
0.0
 10
-16.4035
 20
25.5418
 30
0.0
 10
-16.4035
 20
25.4628
 30
0.0
 10
-16.3813
 20
25.3937
 30
0.0
 10
-16.3371
 20
25.3339
 30
0.0
 10
-16.3371
 20
25.3339
 30
0.0
 10
-16.2802
 20
25.2558
 30
0.0
 10
-16.197
 20
25.1942
 30
0.0
 10
-16.0878
 20
25.1491
 30
0.0
 10
-16.0878
 20
25.1491
 30
0.0
 10
-15.9787
 20
25.1044
 30
0.0
 10
-15.823
 20
25.0809
 30
0.0
 10
-15.6208
 20
25.079
 30
0.0
 10
-15.6208
 20
25.079
 30
0.0
 10
-15.7115
 20
25.1387
 30
0.0
 10
-15.7793
 20
25.2116
 30
0.0
 10
-15.8235
 20
25.2982
 30
0.0
 10
-15.8235
 20
25.2982
 30
0.0
 10
-15.8672
 20
25.3842
 30
0.0
 10
-15.8893
 20
25.475
 30
0.0
 10
-15.8893
 20
25.5696
 30
0.0
 10
-15.8893
 20
25.5696
 30
0.0
 10
-15.8893
 20
25.7351
 30
0.0
 10
-15.8287
 20
25.8758
 30
0.0
 10
-15.7068
 20
25.992
 30
0.0
 10
-15.7068
 20
25.992
 30
0.0
 10
-15.585
 20
26.1081
 30
0.0
 10
-15.4279
 20
26.1665
 30
0.0
 10
-15.2351
 20
26.1665
 30
0.0
 10
-15.2351
 20
26.1665
 30
0.0
 10
-15.1081
 20
26.1665
 30
0.0
 10
-14.9905
 20
26.1387
 30
0.0
 10
-14.8813
 20
26.0841
 30
0.0
 10
-14.8813
 20
26.0841
 30
0.0
 10
-14.7727
 20
26.0296
 30
0.0
 10
-14.689
 20
25.9543
 30
0.0
 10
-14.6311
 20
25.8588
 30
0.0
 10
-14.6311
 20
25.8588
 30
0.0
 10
-14.5733
 20
25.7634
 30
0.0
 10
-14.5446
 20
25.6552
 30
0.0
 10
-14.5446
 20
25.5338
 30
0.0
 10
-14.5446
 20
25.5338
 30
0.0
 10
-14.5446
 20
25.3269
 30
0.0
 10
-14.6203
 20
25.1585
 30
0.0
 10
-14.7727
 20
25.0282
 30
0.0
 10
-14.7727
 20
25.0282
 30
0.0
 10
-14.9246
 20
24.8974
 30
0.0
 10
-15.1753
 20
24.8325
 30
0.0
 10
-15.5243
 20
24.8325
 30
0.0
 10
-15.5243
 20
24.8325
 30
0.0
 10
-15.9147
 20
24.8325
 30
0.0
 10
-16.1984
 20
24.9045
 30
0.0
 10
-16.3757
 20
25.0489
 30
0.0
 10
-16.3757
 20
25.0489
 30
0.0
 10
-16.53
 20
25.1745
 30
0.0
 10
-16.6076
 20
25.3438
 30
0.0
 10
-16.6076
 20
25.5573
 30
0.0
 10
-16.6076
 20
25.5573
 30
0.0
 10
-16.6076
 20
25.7159
 30
0.0
 10
-16.5629
 20
25.8461
 30
0.0
 10
-16.4735
 20
25.9477
 30
0.0
 10
-16.4735
 20
25.9477
 30
0.0
 10
-16.3846
 20
26.0493
 30
0.0
 10
-16.2614
 20
26.11
 30
0.0
 10
-16.1043
 20
26.1302
 30
0.0
  0
SPLINE
  5
74
330
1F
100
AcDbEntity
  8
DEFAULT_1
 62
   250
100
AcDbSpline
210
0.0
220
0.0
230
1.0
 70
    11
 71
     3
 72
    40
 73
    36
 74
     0
 42
0.0000000001
 43
0.0000000001
 40
0.0
 40
0.0
 40
0.0
 40
0.0
 40
0.1
 40
0.1
 40
0.1
 40
0.1
 40
0.2
 40
0.2
 40
0.2
 40
0.2
 40
0.3
 40
0.3
 40
0.3
 40
0.3
 40
0.4
 40
0.4
 40
0.4
 40
0.4
 40
0.5
 40
0.5
 40
0.5
 40
0.5
 40
0.6
 40
0.6
 40
0.6
 40
0.6
 40
0.7
 40
0.7
 40
0.7
 40
0.7
 40
0.8
 40
0.8
 40
0.8
 40
0.8
 40
1.0
 40
1.0
 40
1.0
 40
1.0
 10
-15.2337
 20
25.1175
 30
0.0
 10
-15.148
 20
25.1175
 30
0.0
 10
-15.0662
 20
25.1359
 30
0.0
 10
-14.9881
 20
25.1721
 30
0.0
 10
-14.9881
 20
25.1721
 30
0.0
 10
-14.91
 20
25.2083
 30
0.0
 10
-14.8508
 20
25.2591
 30
0.0
 10
-14.8099
 20
25.324
 30
0.0
 10
-14.8099
 20
25.324
 30
0.0
 10
-14.7689
 20
25.3894
 30
0.0
 10
-14.7482
 20
25.4581
 30
0.0
 10
-14.7482
 20
25.5296
 30
0.0
 10
-14.7482
 20
25.5296
 30
0.0
 10
-14.7482
 20
25.6345
 30
0.0
 10
-14.7906
 20
25.7243
 30
0.0
 10
-14.8752
 20
25.7996
 30
0.0
 10
-14.8752
 20
25.7996
 30
0.0
 10
-14.9599
 20
25.8748
 30
0.0
 10
-15.0747
 20
25.9125
 30
0.0
 10
-15.2195
 20
25.9125
 30
0.0
 10
-15.2195
 20
25.9125
 30
0.0
 10
-15.3592
 20
25.9125
 30
0.0
 10
-15.4693
 20
25.8753
 30
0.0
 10
-15.5497
 20
25.801
 30
0.0
 10
-15.5497
 20
25.801
 30
0.0
 10
-15.6302
 20
25.7267
 30
0.0
 10
-15.6702
 20
25.6331
 30
0.0
 10
-15.6702
 20
25.5202
 30
0.0
 10
-15.6702
 20
25.5202
 30
0.0
 10
-15.6702
 20
25.4078
 30
0.0
 10
-15.6302
 20
25.3127
 30
0.0
 10
-15.5497
 20
25.2347
 30
0.0
 10
-15.5497
 20
25.2347
 30
0.0
 10
-15.4693
 20
25.1566
 30
0.0
 10
-15.3639
 20
25.1175
 30
0.0
 10
-15.2337
 20
25.1175
 30
0.0
  0
SPLINE
  5
75
330
1F
100
AcDbEntity
  8
DEFAULT_1
 62
   250
100
AcDbSpline
210
0.0
220
0.0
230
1.0
 70
    11
 71
     3
 72
    40
 73
    36
 74
     0
 42
0.0000000001
 43
0.0000000001
 40
0.0
 40
0.0
 40
0.0
 40
0.0
 40
0.1
 40
0.1
 40
0.1
 40
0.1
 40
0.2
 40
0.2
 40
0.2
 40
0.2
 40
0.3
 40
0.3
 40
0.3
 40
0.3
 40
0.4
 40
0.4
 40
0.4
 40
0.4
 40
0.5
 40
0.5
 40
0.5
 40
0.5
 40
0.6
 40
0.6
 40
0.6
 40
0.6
 40
0.7
 40
0.7
 40
0.7
 40
0.7
 40
0.8
 40
0.8
 40
0.8
 40
0.8
 40
1.0
 40
1.0
 40
1.0
 40
1.0
 10
-14.3857
 20
-2.117
 30
0.0
 10
-14.3857
 20
-2.117
 30
0.0
 10
-14.3857
 20
-2.3649
 30
0.0
 10
-14.3857
 20
-2.3649
 30
0.0
 10
-14.3857
 20
-2.3649
 30
0.0
 10
-14.3857
 20
-2.3649
 30
0.0
 10
-15.9661
 20
-2.3649
 30
0.0
 10
-15.9661
 20
-2.3649
 30
0.0
 10
-15.9661
 20
-2.3649
 30
0.0
 10
-15.9092
 20
-2.4247
 30
0.0
 10
-15.8523
 20
-2.5027
 30
0.0
 10
-15.7954
 20
-2.5996
 30
0.0
 10
-15.7954
 20
-2.5996
 30
0.0
 10
-15.7385
 20
-2.697
 30
0.0
 10
-15.6957
 20
-2.784
 30
0.0
 10
-15.6674
 20
-2.8612
 30
0.0
 10
-15.6674
 20
-2.8612
 30
0.0
 10
-15.6674
 20
-2.8612
 30
0.0
 10
-15.9069
 20
-2.8612
 30
0.0
 10
-15.9069
 20
-2.8612
 30
0.0
 10
-15.9069
 20
-2.8612
 30
0.0
 10
-15.9722
 20
-2.7224
 30
0.0
 10
-16.0513
 20
-2.601
 30
0.0
 10
-16.1439
 20
-2.4971
 30
0.0
 10
-16.1439
 20
-2.4971
 30
0.0
 10
-16.2371
 20
-2.3936
 30
0.0
 10
-16.3269
 20
-2.3198
 30
0.0
 10
-16.4144
 20
-2.2765
 30
0.0
 10
-16.4144
 20
-2.2765
 30
0.0
 10
-16.4144
 20
-2.2765
 30
0.0
 10
-16.4144
 20
-2.117
 30
0.0
 10
-16.4144
 20
-2.117
 30
0.0
 10
-16.4144
 20
-2.117
 30
0.0
 10
-16.4144
 20
-2.117
 30
0.0
 10
-14.3857
 20
-2.117
 30
0.0
 10
-14.3857
 20
-2.117
 30
0.0
  0
SPLINE
  5
76
330
1F
100
AcDbEntity
  8
DEFAULT_1
 62
   250
100
AcDbSpline
210
0.0
220
0.0
230
1.0
 70
    11
 71
     3
 72
    48
 73
    44
 74
     0
 42
0.0000000001
 43
0.0000000001
 40
0.0
 40
0.0
 40
0.0
 40
0.0
 40
0.0833333333333333
 40
0.0833333333333333
 40
0.0833333333333333
 40
0.0833333333333333
 40
0.1666666666666667
 40
0.1666666666666667
 40
0.1666666666666667
 40
0.1666666666666667
 40
0.25
 40
0.25
 40
0.25
 40
0.25
 40
0.3333333333333333
 40
0.3333333333333333
 40
0.3333333333333333
 40
0.3333333333333333
 40
0.4166666666666667
 40
0.4166666666666667
 40
0.4166666666666667
 40
0.4166666666666667
 40
0.5
 40
0.5
 40
0.5
 40
0.5
 40
0.5833333333333334
 40
0.5833333333333334
 40
0.5833333333333334
 40
0.5833333333333334
 40
0.6666666666666666
 40
0.6666666666666666
 40
0.6666666666666666
 40
0.6666666666666666
 40
0.75
 40
0.75
 40
0.75
 40
0.75
 40
0.8333333333333334
 40
0.8333333333333334
 40
0.8333333333333334
 40
0.8333333333333334
 40
1.0
 40
1.0
 40
1.0
 40
1.0
 10
-16.1411
 20
-1.4651
 30
0.0
 10
-16.1411
 20
-1.4651
 30
0.0
 10
-16.3796
 20
-1.4651
 30
0.0
 10
-16.3796
 20
-1.4651
 30
0.0
 10
-16.3796
 20
-1.4651
 30
0.0
 10
-16.3796
 20
-1.4651
 30
0.0
 10
-16.3796
 20
-0.1575
 30
0.0
 10
-16.3796
 20
-0.1575
 30
0.0
 10
-16.3796
 20
-0.1575
 30
0.0
 10
-16.3796
 20
-0.1575
 30
0.0
 10
-16.1867
 20
-0.1575
 30
0.0
 10
-16.1867
 20
-0.1575
 30
0.0
 10
-16.1867
 20
-0.1575
 30
0.0
 10
-16.0499
 20
-0.2859
 30
0.0
 10
-15.8678
 20
-0.4134
 30
0.0
 10
-15.6411
 20
-0.5399
 30
0.0
 10
-15.6411
 20
-0.5399
 30
0.0
 10
-15.4144
 20
-0.666
 30
0.0
 10
-15.1806
 20
-0.7638
 30
0.0
 10
-14.9412
 20
-0.8325
 30
0.0
 10
-14.9412
 20
-0.8325
 30
0.0
 10
-14.7719
 20
-0.8823
 30
0.0
 10
-14.587
 20
-0.9138
 30
0.0
 10
-14.3857
 20
-0.9275
 30
0.0
 10
-14.3857
 20
-0.9275
 30
0.0
 10
-14.3857
 20
-0.9275
 30
0.0
 10
-14.3857
 20
-1.1824
 30
0.0
 10
-14.3857
 20
-1.1824
 30
0.0
 10
-14.3857
 20
-1.1824
 30
0.0
 10
-14.5447
 20
-1.1796
 30
0.0
 10
-14.7366
 20
-1.1486
 30
0.0
 10
-14.9619
 20
-1.0888
 30
0.0
 10
-14.9619
 20
-1.0888
 30
0.0
 10
-15.1867
 20
-1.0291
 30
0.0
 10
-15.404
 20
-0.9435
 30
0.0
 10
-15.6129
 20
-0.832
 30
0.0
 10
-15.6129
 20
-0.832
 30
0.0
 10
-15.8217
 20
-0.7201
 30
0.0
 10
-15.9981
 20
-0.6015
 30
0.0
 10
-16.1411
 20
-0.4755
 30
0.0
 10
-16.1411
 20
-0.4755
 30
0.0
 10
-16.1411
 20
-0.4755
 30
0.0
 10
-16.1411
 20
-1.4651
 30
0.0
 10
-16.1411
 20
-1.4651
 30
0.0
  0
SPLINE
  5
77
330
1F
100
AcDbEntity
  8
DEFAULT_1
 62
   250
100
AcDbSpline
210
0.0
220
0.0
230
1.0
 70
    11
 71
     3
 72
    52
 73
    48
 74
     0
 42
0.0000000001
 43
0.0000000001
 40
0.0
 40
0.0
 40
0.0
 40
0.0
 40
0.0769230769230769
 40
0.0769230769230769
 40
0.0769230769230769
 40
0.0769230769230769
 40
0.1538461538461539
 40
0.1538461538461539
 40
0.1538461538461539
 40
0.1538461538461539
 40
0.2307692307692308
 40
0.2307692307692308
 40
0.2307692307692308
 40
0.2307692307692308
 40
0.3076923076923077
 40
0.3076923076923077
 40
0.3076923076923077
 40
0.3076923076923077
 40
0.3846153846153846
 40
0.3846153846153846
 40
0.3846153846153846
 40
0.3846153846153846
 40
0.4615384615384616
 40
0.4615384615384616
 40
0.4615384615384616
 40
0.4615384615384616
 40
0.5384615384615384
 40
0.5384615384615384
 40
0.5384615384615384
 40
0.5384615384615384
 40
0.6153846153846154
 40
0.6153846153846154
 40
0.6153846153846154
 40
0.6153846153846154
 40
0.6923076923076923
 40
0.6923076923076923
 40
0.6923076923076923
 40
0.6923076923076923
 40
0.7692307692307693
 40
0.7692307692307693
 40
0.7692307692307693
 40
0.7692307692307693
 40
0.8461538461538461
 40
0.8461538461538461
 40
0.8461538461538461
 40
0.8461538461538461
 40
1.0
 40
1.0
 40
1.0
 40
1.0
 10
-15.3819
 20
0.088
 30
0.0
 10
-15.6209
 20
0.088
 30
0.0
 10
-15.8133
 20
0.1125
 30
0.0
 10
-15.9586
 20
0.1619
 30
0.0
 10
-15.9586
 20
0.1619
 30
0.0
 10
-16.1044
 20
0.2108
 30
0.0
 10
-16.2168
 20
0.2842
 30
0.0
 10
-16.2959
 20
0.3811
 30
0.0
 10
-16.2959
 20
0.3811
 30
0.0
 10
-16.3749
 20
0.478
 30
0.0
 10
-16.4144
 20
0.5998
 30
0.0
 10
-16.4144
 20
0.7465
 30
0.0
 10
-16.4144
 20
0.7465
 30
0.0
 10
-16.4144
 20
0.8552
 30
0.0
 10
-16.3923
 20
0.9502
 30
0.0
 10
-16.3485
 20
1.032
 30
0.0
 10
-16.3485
 20
1.032
 30
0.0
 10
-16.3053
 20
1.1139
 30
0.0
 10
-16.2422
 20
1.1812
 30
0.0
 10
-16.1599
 20
1.2348
 30
0.0
 10
-16.1599
 20
1.2348
 30
0.0
 10
-16.0776
 20
1.2879
 30
0.0
 10
-15.9774
 20
1.3298
 30
0.0
 10
-15.8594
 20
1.3599
 30
0.0
 10
-15.8594
 20
1.3599
 30
0.0
 10
-15.7413
 20
1.3905
 30
0.0
 10
-15.5823
 20
1.4055
 30
0.0
 10
-15.3819
 20
1.4055
 30
0.0
 10
-15.3819
 20
1.4055
 30
0.0
 10
-15.1449
 20
1.4055
 30
0.0
 10
-14.9539
 20
1.3811
 30
0.0
 10
-14.8081
 20
1.3326
 30
0.0
 10
-14.8081
 20
1.3326
 30
0.0
 10
-14.6623
 20
1.2837
 30
0.0
 10
-14.5499
 20
1.2108
 30
0.0
 10
-14.4704
 20
1.1139
 30
0.0
 10
-14.4704
 20
1.1139
 30
0.0
 10
-14.3909
 20
1.017
 30
0.0
 10
-14.3514
 20
0.8947
 30
0.0
 10
-14.3514
 20
0.7465
 30
0.0
 10
-14.3514
 20
0.7465
 30
0.0
 10
-14.3514
 20
0.5518
 30
0.0
 10
-14.421
 20
0.3989
 30
0.0
 10
-14.5607
 20
0.2879
 30
0.0
 10
-14.5607
 20
0.2879
 30
0.0
 10
-14.7286
 20
0.1548
 30
0.0
 10
-15.0028
 20
0.088
 30
0.0
 10
-15.3819
 20
0.088
 30
0.0
  0
SPLINE
  5
78
330
1F
100
AcDbEntity
  8
DEFAULT_1
 62
   250
100
AcDbSpline
210
0.0
220
0.0
230
1.0
 70
    11
 71
     3
 72
    36
 73
    32
 74
     0
 42
0.0000000001
 43
0.0000000001
 40
0.0
 40
0.0
 40
0.0
 40
0.0
 40
0.1111111111111111
 40
0.1111111111111111
 40
0.1111111111111111
 40
0.1111111111111111
 40
0.2222222222222222
 40
0.2222222222222222
 40
0.2222222222222222
 40
0.2222222222222222
 40
0.3333333333333333
 40
0.3333333333333333
 40
0.3333333333333333
 40
0.3333333333333333
 40
0.4444444444444444
 40
0.4444444444444444
 40
0.4444444444444444
 40
0.4444444444444444
 40
0.5555555555555556
 40
0.5555555555555556
 40
0.5555555555555556
 40
0.5555555555555556
 40
0.6666666666666666
 40
0.6666666666666666
 40
0.6666666666666666
 40
0.6666666666666666
 40
0.7777777777777778
 40
0.7777777777777778
 40
0.7777777777777778
 40
0.7777777777777778
 40
1.0
 40
1.0
 40
1.0
 40
1.0
 10
-15.3819
 20
0.343
 30
0.0
 10
-15.0503
 20
0.343
 30
0.0
 10
-14.8297
 20
0.382
 30
0.0
 10
-14.7197
 20
0.4596
 30
0.0
 10
-14.7197
 20
0.4596
 30
0.0
 10
-14.6101
 20
0.5372
 30
0.0
 10
-14.555
 20
0.6327
 30
0.0
 10
-14.555
 20
0.7465
 30
0.0
 10
-14.555
 20
0.7465
 30
0.0
 10
-14.555
 20
0.8608
 30
0.0
 10
-14.6105
 20
0.9563
 30
0.0
 10
-14.7206
 20
1.0339
 30
0.0
 10
-14.7206
 20
1.0339
 30
0.0
 10
-14.8307
 20
1.1115
 30
0.0
 10
-15.0513
 20
1.1506
 30
0.0
 10
-15.3819
 20
1.1506
 30
0.0
 10
-15.3819
 20
1.1506
 30
0.0
 10
-15.7145
 20
1.1506
 30
0.0
 10
-15.9356
 20
1.1115
 30
0.0
 10
-16.0447
 20
1.0339
 30
0.0
 10
-16.0447
 20
1.0339
 30
0.0
 10
-16.1543
 20
0.9563
 30
0.0
 10
-16.2088
 20
0.8599
 30
0.0
 10
-16.2088
 20
0.7442
 30
0.0
 10
-16.2088
 20
0.7442
 30
0.0
 10
-16.2088
 20
0.6299
 30
0.0
 10
-16.1604
 20
0.5391
 30
0.0
 10
-16.064
 20
0.4709
 30
0.0
 10
-16.064
 20
0.4709
 30
0.0
 10
-15.9412
 20
0.3858
 30
0.0
 10
-15.7135
 20
0.343
 30
0.0
 10
-15.3819
 20
0.343
 30
0.0
  0
SPLINE
  5
79
330
1F
100
AcDbEntity
  8
DEFAULT_1
 62
   250
100
AcDbSpline
210
0.0
220
0.0
230
1.0
 70
    11
 71
     3
 72
    20
 73
    16
 74
     0
 42
0.0000000001
 43
0.0000000001
 40
0.0
 40
0.0
 40
0.0
 40
0.0
 40
0.2
 40
0.2
 40
0.2
 40
0.2
 40
0.4
 40
0.4
 40
0.4
 40
0.4
 40
0.6
 40
0.6
 40
0.6
 40
0.6
 40
1.0
 40
1.0
 40
1.0
 40
1.0
 10
-14.992
 20
2.414
 30
0.0
 10
-14.992
 20
2.414
 30
0.0
 10
-15.2413
 20
2.414
 30
0.0
 10
-15.2413
 20
2.414
 30
0.0
 10
-15.2413
 20
2.414
 30
0.0
 10
-15.2413
 20
2.414
 30
0.0
 10
-15.2413
 20
3.1764
 30
0.0
 10
-15.2413
 20
3.1764
 30
0.0
 10
-15.2413
 20
3.1764
 30
0.0
 10
-15.2413
 20
3.1764
 30
0.0
 10
-14.992
 20
3.1764
 30
0.0
 10
-14.992
 20
3.1764
 30
0.0
 10
-14.992
 20
3.1764
 30
0.0
 10
-14.992
 20
3.1764
 30
0.0
 10
-14.992
 20
2.414
 30
0.0
 10
-14.992
 20
2.414
 30
0.0
  0
SPLINE
  5
7A
330
1F
100
AcDbEntity
  8
DEFAULT_1
 62
   250
100
AcDbSpline
210
0.0
220
0.0
230
1.0
 70
    11
 71
     3
 72
    92
 73
    88
 74
     0
 42
0.0000000001
 43
0.0000000001
 40
0.0
 40
0.0
 40
0.0
 40
0.0
 40
0.0434782608695652
 40
0.0434782608695652
 40
0.0434782608695652
 40
0.0434782608695652
 40
0.0869565217391304
 40
0.0869565217391304
 40
0.0869565217391304
 40
0.0869565217391304
 40
0.1304347826086956
 40
0.1304347826086956
 40
0.1304347826086956
 40
0.1304347826086956
 40
0.1739130434782609
 40
0.1739130434782609
 40
0.1739130434782609
 40
0.1739130434782609
 40
0.2173913043478261
 40
0.2173913043478261
 40
0.2173913043478261
 40
0.2173913043478261
 40
0.2608695652173913
 40
0.2608695652173913
 40
0.2608695652173913
 40
0.2608695652173913
 40
0.3043478260869565
 40
0.3043478260869565
 40
0.3043478260869565
 40
0.3043478260869565
 40
0.3478260869565217
 40
0.3478260869565217
 40
0.3478260869565217
 40
0.3478260869565217
 40
0.391304347826087
 40
0.391304347826087
 40
0.391304347826087
 40
0.391304347826087
 40
0.4347826086956522
 40
0.4347826086956522
 40
0.4347826086956522
 40
0.4347826086956522
 40
0.4782608695652174
 40
0.4782608695652174
 40
0.4782608695652174
 40
0.4782608695652174
 40
0.5217391304347826
 40
0.5217391304347826
 40
0.5217391304347826
 40
0.5217391304347826
 40
0.5652173913043478
 40
0.5652173913043478
 40
0.5652173913043478
 40
0.5652173913043478
 40
0.6086956521739131
 40
0.6086956521739131
 40
0.6086956521739131
 40
0.6086956521739131
 40
0.6521739130434783
 40
0.6521739130434783
 40
0.6521739130434783
 40
0.6521739130434783
 40
0.6956521739130435
 40
0.6956521739130435
 40
0.6956521739130435
 40
0.6956521739130435
 40
0.7391304347826086
 40
0.7391304347826086
 40
0.7391304347826086
 40
0.7391304347826086
 40
0.782608695652174
 40
0.782608695652174
 40
0.782608695652174
 40
0.782608695652174
 40
0.8260869565217391
 40
0.8260869565217391
 40
0.8260869565217391
 40
0.8260869565217391
 40
0.8695652173913043
 40
0.8695652173913043
 40
0.8695652173913043
 40
0.8695652173913043
 40
0.9130434782608695
 40
0.9130434782608695
 40
0.9130434782608695
 40
0.9130434782608695
 40
1.0
 40
1.0
 40
1.0
 40
1.0
 10
-14.6242
 20
5.4695
 30
0.0
 10
-14.6242
 20
5.4695
 30
0.0
 10
-14.3857
 20
5.4695
 30
0.0
 10
-14.3857
 20
5.4695
 30
0.0
 10
-14.3857
 20
5.4695
 30
0.0
 10
-14.3857
 20
5.4695
 30
0.0
 10
-14.3857
 20
4.1341
 30
0.0
 10
-14.3857
 20
4.1341
 30
0.0
 10
-14.3857
 20
4.1341
 30
0.0
 10
-14.4454
 20
4.1322
 30
0.0
 10
-14.5028
 20
4.1416
 30
0.0
 10
-14.5579
 20
4.1628
 30
0.0
 10
-14.5579
 20
4.1628
 30
0.0
 10
-14.6491
 20
4.1967
 30
0.0
 10
-14.7385
 20
4.2512
 30
0.0
 10
-14.8269
 20
4.326
 30
0.0
 10
-14.8269
 20
4.326
 30
0.0
 10
-14.9149
 20
4.4013
 30
0.0
 10
-15.0169
 20
4.5095
 30
0.0
 10
-15.1326
 20
4.6506
 30
0.0
 10
-15.1326
 20
4.6506
 30
0.0
 10
-15.3128
 20
4.8702
 30
0.0
 10
-15.4553
 20
5.0189
 30
0.0
 10
-15.5607
 20
5.096
 30
0.0
 10
-15.5607
 20
5.096
 30
0.0
 10
-15.6656
 20
5.1731
 30
0.0
 10
-15.7653
 20
5.2117
 30
0.0
 10
-15.8589
 20
5.2117
 30
0.0
 10
-15.8589
 20
5.2117
 30
0.0
 10
-15.9572
 20
5.2117
 30
0.0
 10
-16.04
 20
5.1764
 30
0.0
 10
-16.1077
 20
5.1064
 30
0.0
 10
-16.1077
 20
5.1064
 30
0.0
 10
-16.175
 20
5.0358
 30
0.0
 10
-16.2088
 20
4.9441
 30
0.0
 10
-16.2088
 20
4.8312
 30
0.0
 10
-16.2088
 20
4.8312
 30
0.0
 10
-16.2088
 20
4.7117
 30
0.0
 10
-16.1731
 20
4.6162
 30
0.0
 10
-16.1011
 20
4.5447
 30
0.0
 10
-16.1011
 20
4.5447
 30
0.0
 10
-16.0296
 20
4.4728
 30
0.0
 10
-15.9304
 20
4.4366
 30
0.0
 10
-15.8039
 20
4.4356
 30
0.0
 10
-15.8039
 20
4.4356
 30
0.0
 10
-15.8039
 20
4.4356
 30
0.0
 10
-15.8297
 20
4.1807
 30
0.0
 10
-15.8297
 20
4.1807
 30
0.0
 10
-15.8297
 20
4.1807
 30
0.0
 10
-16.0202
 20
4.1981
 30
0.0
 10
-16.1651
 20
4.2639
 30
0.0
 10
-16.2648
 20
4.3778
 30
0.0
 10
-16.2648
 20
4.3778
 30
0.0
 10
-16.3645
 20
4.4916
 30
0.0
 10
-16.4144
 20
4.6449
 30
0.0
 10
-16.4144
 20
4.8368
 30
0.0
 10
-16.4144
 20
4.8368
 30
0.0
 10
-16.4144
 20
5.0306
 30
0.0
 10
-16.3603
 20
5.184
 30
0.0
 10
-16.2531
 20
5.2969
 30
0.0
 10
-16.2531
 20
5.2969
 30
0.0
 10
-16.1453
 20
5.4102
 30
0.0
 10
-16.0122
 20
5.4667
 30
0.0
 10
-15.8532
 20
5.4667
 30
0.0
 10
-15.8532
 20
5.4667
 30
0.0
 10
-15.7723
 20
5.4667
 30
0.0
 10
-15.6928
 20
5.4502
 30
0.0
 10
-15.6148
 20
5.4168
 30
0.0
 10
-15.6148
 20
5.4168
 30
0.0
 10
-15.5367
 20
5.3839
 30
0.0
 10
-15.4544
 20
5.3288
 30
0.0
 10
-15.3683
 20
5.2522
 30
0.0
 10
-15.3683
 20
5.2522
 30
0.0
 10
-15.2817
 20
5.1755
 30
0.0
 10
-15.1632
 20
5.048
 30
0.0
 10
-15.0127
 20
4.8698
 30
0.0
 10
-15.0127
 20
4.8698
 30
0.0
 10
-14.8876
 20
4.7211
 30
0.0
 10
-14.8029
 20
4.6256
 30
0.0
 10
-14.7582
 20
4.5833
 30
0.0
 10
-14.7582
 20
4.5833
 30
0.0
 10
-14.714
 20
4.541
 30
0.0
 10
-14.6693
 20
4.5062
 30
0.0
 10
-14.6242
 20
4.4784
 30
0.0
 10
-14.6242
 20
4.4784
 30
0.0
 10
-14.6242
 20
4.4784
 30
0.0
 10
-14.6242
 20
5.4695
 30
0.0
 10
-14.6242
 20
5.4695
 30
0.0
  0
SPLINE
  5
7B
330
1F
100
AcDbEntity
  8
DEFAULT_1
 62
   250
100
AcDbSpline
210
0.0
220
0.0
230
1.0
 70
    11
 71
     3
 72
   124
 73
   120
 74
     0
 42
0.0000000001
 43
0.0000000001
 40
0.0
 40
0.0
 40
0.0
 40
0.0
 40
0.032258064516129
 40
0.032258064516129
 40
0.032258064516129
 40
0.032258064516129
 40
0.0645161290322581
 40
0.0645161290322581
 40
0.0645161290322581
 40
0.0645161290322581
 40
0.0967741935483871
 40
0.0967741935483871
 40
0.0967741935483871
 40
0.0967741935483871
 40
0.1290322580645161
 40
0.1290322580645161
 40
0.1290322580645161
 40
0.1290322580645161
 40
0.1612903225806452
 40
0.1612903225806452
 40
0.1612903225806452
 40
0.1612903225806452
 40
0.1935483870967742
 40
0.1935483870967742
 40
0.1935483870967742
 40
0.1935483870967742
 40
0.2258064516129032
 40
0.2258064516129032
 40
0.2258064516129032
 40
0.2258064516129032
 40
0.2580645161290323
 40
0.2580645161290323
 40
0.2580645161290323
 40
0.2580645161290323
 40
0.2903225806451613
 40
0.2903225806451613
 40
0.2903225806451613
 40
0.2903225806451613
 40
0.3225806451612903
 40
0.3225806451612903
 40
0.3225806451612903
 40
0.3225806451612903
 40
0.3548387096774194
 40
0.3548387096774194
 40
0.3548387096774194
 40
0.3548387096774194
 40
0.3870967741935484
 40
0.3870967741935484
 40
0.3870967741935484
 40
0.3870967741935484
 40
0.4193548387096774
 40
0.4193548387096774
 40
0.4193548387096774
 40
0.4193548387096774
 40
0.4516129032258064
 40
0.4516129032258064
 40
0.4516129032258064
 40
0.4516129032258064
 40
0.4838709677419355
 40
0.4838709677419355
 40
0.4838709677419355
 40
0.4838709677419355
 40
0.5161290322580645
 40
0.5161290322580645
 40
0.5161290322580645
 40
0.5161290322580645
 40
0.5483870967741935
 40
0.5483870967741935
 40
0.5483870967741935
 40
0.5483870967741935
 40
0.5806451612903226
 40
0.5806451612903226
 40
0.5806451612903226
 40
0.5806451612903226
 40
0.6129032258064516
 40
0.6129032258064516
 40
0.6129032258064516
 40
0.6129032258064516
 40
0.6451612903225806
 40
0.6451612903225806
 40
0.6451612903225806
 40
0.6451612903225806
 40
0.6774193548387096
 40
0.6774193548387096
 40
0.6774193548387096
 40
0.6774193548387096
 40
0.7096774193548387
 40
0.7096774193548387
 40
0.7096774193548387
 40
0.7096774193548387
 40
0.7419354838709677
 40
0.7419354838709677
 40
0.7419354838709677
 40
0.7419354838709677
 40
0.7741935483870968
 40
0.7741935483870968
 40
0.7741935483870968
 40
0.7741935483870968
 40
0.8064516129032258
 40
0.8064516129032258
 40
0.8064516129032258
 40
0.8064516129032258
 40
0.8387096774193549
 40
0.8387096774193549
 40
0.8387096774193549
 40
0.8387096774193549
 40
0.8709677419354839
 40
0.8709677419354839
 40
0.8709677419354839
 40
0.8709677419354839
 40
0.9032258064516129
 40
0.9032258064516129
 40
0.9032258064516129
 40
0.9032258064516129
 40
0.9354838709677419
 40
0.9354838709677419
 40
0.9354838709677419
 40
0.9354838709677419
 40
1.0
 40
1.0
 40
1.0
 40
1.0
 10
-14.9191
 20
5.7366
 30
0.0
 10
-14.9191
 20
5.7366
 30
0.0
 10
-14.952
 20
5.9845
 30
0.0
 10
-14.952
 20
5.9845
 30
0.0
 10
-14.952
 20
5.9845
 30
0.0
 10
-14.8114
 20
6.0132
 30
0.0
 10
-14.7103
 20
6.0617
 30
0.0
 10
-14.6482
 20
6.1299
 30
0.0
 10
-14.6482
 20
6.1299
 30
0.0
 10
-14.5861
 20
6.1985
 30
0.0
 10
-14.555
 20
6.2818
 30
0.0
 10
-14.555
 20
6.3801
 30
0.0
 10
-14.555
 20
6.3801
 30
0.0
 10
-14.555
 20
6.4967
 30
0.0
 10
-14.5955
 20
6.5955
 30
0.0
 10
-14.6764
 20
6.676
 30
0.0
 10
-14.6764
 20
6.676
 30
0.0
 10
-14.7573
 20
6.7559
 30
0.0
 10
-14.8575
 20
6.7964
 30
0.0
 10
-14.977
 20
6.7964
 30
0.0
 10
-14.977
 20
6.7964
 30
0.0
 10
-15.0908
 20
6.7964
 30
0.0
 10
-15.1849
 20
6.7592
 30
0.0
 10
-15.2587
 20
6.6849
 30
0.0
 10
-15.2587
 20
6.6849
 30
0.0
 10
-15.3325
 20
6.6101
 30
0.0
 10
-15.3697
 20
6.5156
 30
0.0
 10
-15.3697
 20
6.4008
 30
0.0
 10
-15.3697
 20
6.4008
 30
0.0
 10
-15.3697
 20
6.3538
 30
0.0
 10
-15.3603
 20
6.2954
 30
0.0
 10
-15.342
 20
6.2258
 30
0.0
 10
-15.342
 20
6.2258
 30
0.0
 10
-15.342
 20
6.2258
 30
0.0
 10
-15.5597
 20
6.2536
 30
0.0
 10
-15.5597
 20
6.2536
 30
0.0
 10
-15.5597
 20
6.2536
 30
0.0
 10
-15.5579
 20
6.27
 30
0.0
 10
-15.5569
 20
6.2832
 30
0.0
 10
-15.5569
 20
6.2935
 30
0.0
 10
-15.5569
 20
6.2935
 30
0.0
 10
-15.5569
 20
6.3989
 30
0.0
 10
-15.5847
 20
6.4939
 30
0.0
 10
-15.6397
 20
6.5786
 30
0.0
 10
-15.6397
 20
6.5786
 30
0.0
 10
-15.6947
 20
6.6633
 30
0.0
 10
-15.7799
 20
6.7056
 30
0.0
 10
-15.8946
 20
6.7056
 30
0.0
 10
-15.8946
 20
6.7056
 30
0.0
 10
-15.9854
 20
6.7056
 30
0.0
 10
-16.0611
 20
6.6745
 30
0.0
 10
-16.1204
 20
6.6129
 30
0.0
 10
-16.1204
 20
6.6129
 30
0.0
 10
-16.1801
 20
6.5513
 30
0.0
 10
-16.2103
 20
6.4718
 30
0.0
 10
-16.2103
 20
6.3744
 30
0.0
 10
-16.2103
 20
6.3744
 30
0.0
 10
-16.2103
 20
6.278
 30
0.0
 10
-16.1797
 20
6.1976
 30
0.0
 10
-16.1195
 20
6.1336
 30
0.0
 10
-16.1195
 20
6.1336
 30
0.0
 10
-16.0588
 20
6.0692
 30
0.0
 10
-15.9675
 20
6.0278
 30
0.0
 10
-15.8462
 20
6.0094
 30
0.0
 10
-15.8462
 20
6.0094
 30
0.0
 10
-15.8462
 20
6.0094
 30
0.0
 10
-15.8904
 20
5.7616
 30
0.0
 10
-15.8904
 20
5.7616
 30
0.0
 10
-15.8904
 20
5.7616
 30
0.0
 10
-16.0569
 20
5.7917
 30
0.0
 10
-16.1858
 20
5.8608
 30
0.0
 10
-16.277
 20
5.9681
 30
0.0
 10
-16.277
 20
5.9681
 30
0.0
 10
-16.3683
 20
6.0758
 30
0.0
 10
-16.4144
 20
6.2094
 30
0.0
 10
-16.4144
 20
6.3693
 30
0.0
 10
-16.4144
 20
6.3693
 30
0.0
 10
-16.4144
 20
6.4793
 30
0.0
 10
-16.3904
 20
6.5809
 30
0.0
 10
-16.3434
 20
6.6736
 30
0.0
 10
-16.3434
 20
6.6736
 30
0.0
 10
-16.2959
 20
6.7663
 30
0.0
 10
-16.2314
 20
6.8373
 30
0.0
 10
-16.1496
 20
6.8867
 30
0.0
 10
-16.1496
 20
6.8867
 30
0.0
 10
-16.0677
 20
6.9356
 30
0.0
 10
-15.9812
 20
6.9605
 30
0.0
 10
-15.889
 20
6.9605
 30
0.0
 10
-15.889
 20
6.9605
 30
0.0
 10
-15.802
 20
6.9605
 30
0.0
 10
-15.7225
 20
6.937
 30
0.0
 10
-15.6505
 20
6.89
 30
0.0
 10
-15.6505
 20
6.89
 30
0.0
 10
-15.579
 20
6.8429
 30
0.0
 10
-15.5221
 20
6.7738
 30
0.0
 10
-15.4798
 20
6.6821
 30
0.0
 10
-15.4798
 20
6.6821
 30
0.0
 10
-15.4525
 20
6.8015
 30
0.0
 10
-15.3951
 20
6.8942
 30
0.0
 10
-15.3081
 20
6.9605
 30
0.0
 10
-15.3081
 20
6.9605
 30
0.0
 10
-15.2215
 20
7.0264
 30
0.0
 10
-15.1129
 20
7.0593
 30
0.0
 10
-14.9826
 20
7.0593
 30
0.0
 10
-14.9826
 20
7.0593
 30
0.0
 10
-14.8062
 20
7.0593
 30
0.0
 10
-14.6566
 20
6.9953
 30
0.0
 10
-14.5339
 20
6.8665
 30
0.0
 10
-14.5339
 20
6.8665
 30
0.0
 10
-14.4111
 20
6.738
 30
0.0
 10
-14.35
 20
6.5753
 30
0.0
 10
-14.35
 20
6.3787
 30
0.0
 10
-14.35
 20
6.3787
 30
0.0
 10
-14.35
 20
6.2014
 30
0.0
 10
-14.4026
 20
6.0541
 30
0.0
 10
-14.5085
 20
5.937
 30
0.0
 10
-14.5085
 20
5.937
 30
0.0
 10
-14.6138
 20
5.8199
 30
0.0
 10
-14.7507
 20
5.7531
 30
0.0
 10
-14.9191
 20
5.7366
 30
0.0
  0
SPLINE
  5
7C
330
1F
100
AcDbEntity
  8
DEFAULT_1
 62
   250
100
AcDbSpline
210
0.0
220
0.0
230
1.0
 70
    11
 71
     3
 72
    52
 73
    48
 74
     0
 42
0.0000000001
 43
0.0000000001
 40
0.0
 40
0.0
 40
0.0
 40
0.0
 40
0.0769230769230769
 40
0.0769230769230769
 40
0.0769230769230769
 40
0.0769230769230769
 40
0.1538461538461539
 40
0.1538461538461539
 40
0.1538461538461539
 40
0.1538461538461539
 40
0.2307692307692308
 40
0.2307692307692308
 40
0.2307692307692308
 40
0.2307692307692308
 40
0.3076923076923077
 40
0.3076923076923077
 40
0.3076923076923077
 40
0.3076923076923077
 40
0.3846153846153846
 40
0.3846153846153846
 40
0.3846153846153846
 40
0.3846153846153846
 40
0.4615384615384616
 40
0.4615384615384616
 40
0.4615384615384616
 40
0.4615384615384616
 40
0.5384615384615384
 40
0.5384615384615384
 40
0.5384615384615384
 40
0.5384615384615384
 40
0.6153846153846154
 40
0.6153846153846154
 40
0.6153846153846154
 40
0.6153846153846154
 40
0.6923076923076923
 40
0.6923076923076923
 40
0.6923076923076923
 40
0.6923076923076923
 40
0.7692307692307693
 40
0.7692307692307693
 40
0.7692307692307693
 40
0.7692307692307693
 40
0.8461538461538461
 40
0.8461538461538461
 40
0.8461538461538461
 40
0.8461538461538461
 40
1.0
 40
1.0
 40
1.0
 40
1.0
 10
-15.3819
 20
7.3048
 30
0.0
 10
-15.6209
 20
7.3048
 30
0.0
 10
-15.8133
 20
7.3293
 30
0.0
 10
-15.9586
 20
7.3787
 30
0.0
 10
-15.9586
 20
7.3787
 30
0.0
 10
-16.1044
 20
7.4276
 30
0.0
 10
-16.2168
 20
7.501
 30
0.0
 10
-16.2959
 20
7.5979
 30
0.0
 10
-16.2959
 20
7.5979
 30
0.0
 10
-16.3749
 20
7.6948
 30
0.0
 10
-16.4144
 20
7.8166
 30
0.0
 10
-16.4144
 20
7.9633
 30
0.0
 10
-16.4144
 20
7.9633
 30
0.0
 10
-16.4144
 20
8.072
 30
0.0
 10
-16.3923
 20
8.167
 30
0.0
 10
-16.3485
 20
8.2488
 30
0.0
 10
-16.3485
 20
8.2488
 30
0.0
 10
-16.3053
 20
8.3307
 30
0.0
 10
-16.2422
 20
8.398
 30
0.0
 10
-16.1599
 20
8.4516
 30
0.0
 10
-16.1599
 20
8.4516
 30
0.0
 10
-16.0776
 20
8.5047
 30
0.0
 10
-15.9774
 20
8.5466
 30
0.0
 10
-15.8594
 20
8.5767
 30
0.0
 10
-15.8594
 20
8.5767
 30
0.0
 10
-15.7413
 20
8.6073
 30
0.0
 10
-15.5823
 20
8.6223
 30
0.0
 10
-15.3819
 20
8.6223
 30
0.0
 10
-15.3819
 20
8.6223
 30
0.0
 10
-15.1449
 20
8.6223
 30
0.0
 10
-14.9539
 20
8.5979
 30
0.0
 10
-14.8081
 20
8.5494
 30
0.0
 10
-14.8081
 20
8.5494
 30
0.0
 10
-14.6623
 20
8.5005
 30
0.0
 10
-14.5499
 20
8.4276
 30
0.0
 10
-14.4704
 20
8.3307
 30
0.0
 10
-14.4704
 20
8.3307
 30
0.0
 10
-14.3909
 20
8.2338
 30
0.0
 10
-14.3514
 20
8.1115
 30
0.0
 10
-14.3514
 20
7.9633
 30
0.0
 10
-14.3514
 20
7.9633
 30
0.0
 10
-14.3514
 20
7.7686
 30
0.0
 10
-14.421
 20
7.6157
 30
0.0
 10
-14.5607
 20
7.5047
 30
0.0
 10
-14.5607
 20
7.5047
 30
0.0
 10
-14.7286
 20
7.3716
 30
0.0
 10
-15.0028
 20
7.3048
 30
0.0
 10
-15.3819
 20
7.3048
 30
0.0
  0
SPLINE
  5
7D
330
1F
100
AcDbEntity
  8
DEFAULT_1
 62
   250
100
AcDbSpline
210
0.0
220
0.0
230
1.0
 70
    11
 71
     3
 72
    36
 73
    32
 74
     0
 42
0.0000000001
 43
0.0000000001
 40
0.0
 40
0.0
 40
0.0
 40
0.0
 40
0.1111111111111111
 40
0.1111111111111111
 40
0.1111111111111111
 40
0.1111111111111111
 40
0.2222222222222222
 40
0.2222222222222222
 40
0.2222222222222222
 40
0.2222222222222222
 40
0.3333333333333333
 40
0.3333333333333333
 40
0.3333333333333333
 40
0.3333333333333333
 40
0.4444444444444444
 40
0.4444444444444444
 40
0.4444444444444444
 40
0.4444444444444444
 40
0.5555555555555556
 40
0.5555555555555556
 40
0.5555555555555556
 40
0.5555555555555556
 40
0.6666666666666666
 40
0.6666666666666666
 40
0.6666666666666666
 40
0.6666666666666666
 40
0.7777777777777778
 40
0.7777777777777778
 40
0.7777777777777778
 40
0.7777777777777778
 40
1.0
 40
1.0
 40
1.0
 40
1.0
 10
-15.3819
 20
7.5598
 30
0.0
 10
-15.0503
 20
7.5598
 30
0.0
 10
-14.8297
 20
7.5988
 30
0.0
 10
-14.7197
 20
7.6764
 30
0.0
 10
-14.7197
 20
7.6764
 30
0.0
 10
-14.6101
 20
7.754
 30
0.0
 10
-14.555
 20
7.8495
 30
0.0
 10
-14.555
 20
7.9633
 30
0.0
 10
-14.555
 20
7.9633
 30
0.0
 10
-14.555
 20
8.0776
 30
0.0
 10
-14.6105
 20
8.1731
 30
0.0
 10
-14.7206
 20
8.2507
 30
0.0
 10
-14.7206
 20
8.2507
 30
0.0
 10
-14.8307
 20
8.3283
 30
0.0
 10
-15.0513
 20
8.3674
 30
0.0
 10
-15.3819
 20
8.3674
 30
0.0
 10
-15.3819
 20
8.3674
 30
0.0
 10
-15.7145
 20
8.3674
 30
0.0
 10
-15.9356
 20
8.3283
 30
0.0
 10
-16.0447
 20
8.2507
 30
0.0
 10
-16.0447
 20
8.2507
 30
0.0
 10
-16.1543
 20
8.1731
 30
0.0
 10
-16.2088
 20
8.0767
 30
0.0
 10
-16.2088
 20
7.961
 30
0.0
 10
-16.2088
 20
7.961
 30
0.0
 10
-16.2088
 20
7.8467
 30
0.0
 10
-16.1604
 20
7.7559
 30
0.0
 10
-16.064
 20
7.6877
 30
0.0
 10
-16.064
 20
7.6877
 30
0.0
 10
-15.9412
 20
7.6026
 30
0.0
 10
-15.7135
 20
7.5598
 30
0.0
 10
-15.3819
 20
7.5598
 30
0.0
  0
SPLINE
  5
7E
330
1F
100
AcDbEntity
  8
DEFAULT_1
 62
   250
100
AcDbSpline
210
0.0
220
0.0
230
1.0
 70
    11
 71
     3
 72
    84
 73
    80
 74
     0
 42
0.0000000001
 43
0.0000000001
 40
0.0
 40
0.0
 40
0.0
 40
0.0
 40
0.0476190476190476
 40
0.0476190476190476
 40
0.0476190476190476
 40
0.0476190476190476
 40
0.0952380952380952
 40
0.0952380952380952
 40
0.0952380952380952
 40
0.0952380952380952
 40
0.1428571428571428
 40
0.1428571428571428
 40
0.1428571428571428
 40
0.1428571428571428
 40
0.1904761904761905
 40
0.1904761904761905
 40
0.1904761904761905
 40
0.1904761904761905
 40
0.2380952380952381
 40
0.2380952380952381
 40
0.2380952380952381
 40
0.2380952380952381
 40
0.2857142857142857
 40
0.2857142857142857
 40
0.2857142857142857
 40
0.2857142857142857
 40
0.3333333333333333
 40
0.3333333333333333
 40
0.3333333333333333
 40
0.3333333333333333
 40
0.3809523809523809
 40
0.3809523809523809
 40
0.3809523809523809
 40
0.3809523809523809
 40
0.4285714285714285
 40
0.4285714285714285
 40
0.4285714285714285
 40
0.4285714285714285
 40
0.4761904761904762
 40
0.4761904761904762
 40
0.4761904761904762
 40
0.4761904761904762
 40
0.5238095238095238
 40
0.5238095238095238
 40
0.5238095238095238
 40
0.5238095238095238
 40
0.5714285714285714
 40
0.5714285714285714
 40
0.5714285714285714
 40
0.5714285714285714
 40
0.6190476190476191
 40
0.6190476190476191
 40
0.6190476190476191
 40
0.6190476190476191
 40
0.6666666666666666
 40
0.6666666666666666
 40
0.6666666666666666
 40
0.6666666666666666
 40
0.7142857142857143
 40
0.7142857142857143
 40
0.7142857142857143
 40
0.7142857142857143
 40
0.7619047619047619
 40
0.7619047619047619
 40
0.7619047619047619
 40
0.7619047619047619
 40
0.8095238095238095
 40
0.8095238095238095
 40
0.8095238095238095
 40
0.8095238095238095
 40
0.8571428571428571
 40
0.8571428571428571
 40
0.8571428571428571
 40
0.8571428571428571
 40
0.9047619047619048
 40
0.9047619047619048
 40
0.9047619047619048
 40
0.9047619047619048
 40
1.0
 40
1.0
 40
1.0
 40
1.0
 10
9.5517
 20
-22.773
 30
0.0
 10
9.5517
 20
-22.773
 30
0.0
 10
9.2926
 20
-22.5416
 30
0.0
 10
9.2926
 20
-22.5416
 30
0.0
 10
9.2926
 20
-22.5416
 30
0.0
 10
9.2926
 20
-22.5416
 30
0.0
 10
9.4083
 20
-22.4052
 30
0.0
 10
9.4083
 20
-22.4052
 30
0.0
 10
9.4083
 20
-22.4052
 30
0.0
 10
9.4083
 20
-22.4052
 30
0.0
 10
9.6811
 20
-22.6474
 30
0.0
 10
9.6811
 20
-22.6474
 30
0.0
 10
9.6811
 20
-22.6474
 30
0.0
 10
9.7987
 20
-22.5684
 30
0.0
 10
9.9017
 20
-22.5153
 30
0.0
 10
9.9896
 20
-22.4875
 30
0.0
 10
9.9896
 20
-22.4875
 30
0.0
 10
10.1054
 20
-22.4508
 30
0.0
 10
10.2352
 20
-22.4325
 30
0.0
 10
10.3782
 20
-22.4325
 30
0.0
 10
10.3782
 20
-22.4325
 30
0.0
 10
10.5851
 20
-22.4325
 30
0.0
 10
10.7695
 20
-22.4743
 30
0.0
 10
10.9308
 20
-22.5581
 30
0.0
 10
10.9308
 20
-22.5581
 30
0.0
 10
11.0927
 20
-22.6418
 30
0.0
 10
11.2149
 20
-22.7589
 30
0.0
 10
11.2977
 20
-22.9099
 30
0.0
 10
11.2977
 20
-22.9099
 30
0.0
 10
11.38
 20
-23.0614
 30
0.0
 10
11.4214
 20
-23.2217
 30
0.0
 10
11.4214
 20
-23.3915
 30
0.0
 10
11.4214
 20
-23.3915
 30
0.0
 10
11.4214
 20
-23.5185
 30
0.0
 10
11.4036
 20
-23.6333
 30
0.0
 10
11.3678
 20
-23.7363
 30
0.0
 10
11.3678
 20
-23.7363
 30
0.0
 10
11.3401
 20
-23.8153
 30
0.0
 10
11.2874
 20
-23.9075
 30
0.0
 10
11.2093
 20
-24.0134
 30
0.0
 10
11.2093
 20
-24.0134
 30
0.0
 10
11.2093
 20
-24.0134
 30
0.0
 10
11.4685
 20
-24.2448
 30
0.0
 10
11.4685
 20
-24.2448
 30
0.0
 10
11.4685
 20
-24.2448
 30
0.0
 10
11.4685
 20
-24.2448
 30
0.0
 10
11.3528
 20
-24.3812
 30
0.0
 10
11.3528
 20
-24.3812
 30
0.0
 10
11.3528
 20
-24.3812
 30
0.0
 10
11.3528
 20
-24.3812
 30
0.0
 10
11.0814
 20
-24.1385
 30
0.0
 10
11.0814
 20
-24.1385
 30
0.0
 10
11.0814
 20
-24.1385
 30
0.0
 10
10.9445
 20
-24.2288
 30
0.0
 10
10.8274
 20
-24.289
 30
0.0
 10
10.7305
 20
-24.3191
 30
0.0
 10
10.7305
 20
-24.3191
 30
0.0
 10
10.6336
 20
-24.3492
 30
0.0
 10
10.5169
 20
-24.3647
 30
0.0
 10
10.381
 20
-24.3647
 30
0.0
 10
10.381
 20
-24.3647
 30
0.0
 10
10.1736
 20
-24.3647
 30
0.0
 10
9.9887
 20
-24.3233
 30
0.0
 10
9.8264
 20
-24.2406
 30
0.0
 10
9.8264
 20
-24.2406
 30
0.0
 10
9.6641
 20
-24.1578
 30
0.0
 10
9.5414
 20
-24.0421
 30
0.0
 10
9.4577
 20
-23.8925
 30
0.0
 10
9.4577
 20
-23.8925
 30
0.0
 10
9.3744
 20
-23.7434
 30
0.0
 10
9.3325
 20
-23.5773
 30
0.0
 10
9.3325
 20
-23.3944
 30
0.0
 10
9.3325
 20
-23.3944
 30
0.0
 10
9.3325
 20
-23.2711
 30
0.0
 10
9.3485
 20
-23.1634
 30
0.0
 10
9.3815
 20
-23.0712
 30
0.0
 10
9.3815
 20
-23.0712
 30
0.0
 10
9.4139
 20
-22.979
 30
0.0
 10
9.4708
 20
-22.8793
 30
0.0
 10
9.5517
 20
-22.773
 30
0.0
  0
SPLINE
  5
7F
330
1F
100
AcDbEntity
  8
DEFAULT_1
 62
   250
100
AcDbSpline
210
0.0
220
0.0
230
1.0
 70
    11
 71
     3
 72
    32
 73
    28
 74
     0
 42
0.0000000001
 43
0.0000000001
 40
0.0
 40
0.0
 40
0.0
 40
0.0
 40
0.125
 40
0.125
 40
0.125
 40
0.125
 40
0.25
 40
0.25
 40
0.25
 40
0.25
 40
0.375
 40
0.375
 40
0.375
 40
0.375
 40
0.5
 40
0.5
 40
0.5
 40
0.5
 40
0.625
 40
0.625
 40
0.625
 40
0.625
 40
0.75
 40
0.75
 40
0.75
 40
0.75
 40
1.0
 40
1.0
 40
1.0
 40
1.0
 10
9.7375
 20
-22.9381
 30
0.0
 10
9.6698
 20
-23.0247
 30
0.0
 10
9.6232
 20
-23.1004
 30
0.0
 10
9.5983
 20
-23.1648
 30
0.0
 10
9.5983
 20
-23.1648
 30
0.0
 10
9.5738
 20
-23.2297
 30
0.0
 10
9.5611
 20
-23.3059
 30
0.0
 10
9.5611
 20
-23.393
 30
0.0
 10
9.5611
 20
-23.393
 30
0.0
 10
9.5611
 20
-23.5943
 30
0.0
 10
9.6293
 20
-23.7603
 30
0.0
 10
9.7657
 20
-23.892
 30
0.0
 10
9.7657
 20
-23.892
 30
0.0
 10
9.9022
 20
-24.0233
 30
0.0
 10
10.1058
 20
-24.0891
 30
0.0
 10
10.3772
 20
-24.0891
 30
0.0
 10
10.3772
 20
-24.0891
 30
0.0
 10
10.4835
 20
-24.0891
 30
0.0
 10
10.5781
 20
-24.0788
 30
0.0
 10
10.6609
 20
-24.0585
 30
0.0
 10
10.6609
 20
-24.0585
 30
0.0
 10
10.7225
 20
-24.0439
 30
0.0
 10
10.7982
 20
-24.0134
 30
0.0
 10
10.888
 20
-23.9663
 30
0.0
 10
10.888
 20
-23.9663
 30
0.0
 10
10.888
 20
-23.9663
 30
0.0
 10
9.7375
 20
-22.9381
 30
0.0
 10
9.7375
 20
-22.9381
 30
0.0
  0
SPLINE
  5
80
330
1F
100
AcDbEntity
  8
DEFAULT_1
 62
   250
100
AcDbSpline
210
0.0
220
0.0
230
1.0
 70
    11
 71
     3
 72
    28
 73
    24
 74
     0
 42
0.0000000001
 43
0.0000000001
 40
0.0
 40
0.0
 40
0.0
 40
0.0
 40
0.1428571428571428
 40
0.1428571428571428
 40
0.1428571428571428
 40
0.1428571428571428
 40
0.2857142857142857
 40
0.2857142857142857
 40
0.2857142857142857
 40
0.2857142857142857
 40
0.4285714285714285
 40
0.4285714285714285
 40
0.4285714285714285
 40
0.4285714285714285
 40
0.5714285714285714
 40
0.5714285714285714
 40
0.5714285714285714
 40
0.5714285714285714
 40
0.7142857142857143
 40
0.7142857142857143
 40
0.7142857142857143
 40
0.7142857142857143
 40
1.0
 40
1.0
 40
1.0
 40
1.0
 10
9.8796
 20
-22.8252
 30
0.0
 10
9.8796
 20
-22.8252
 30
0.0
 10
11.0259
 20
-23.8492
 30
0.0
 10
11.0259
 20
-23.8492
 30
0.0
 10
11.0259
 20
-23.8492
 30
0.0
 10
11.0837
 20
-23.7787
 30
0.0
 10
11.1242
 20
-23.7133
 30
0.0
 10
11.1472
 20
-23.6535
 30
0.0
 10
11.1472
 20
-23.6535
 30
0.0
 10
11.1778
 20
-23.5755
 30
0.0
 10
11.1928
 20
-23.4908
 30
0.0
 10
11.1928
 20
-23.4
 30
0.0
 10
11.1928
 20
-23.4
 30
0.0
 10
11.1928
 20
-23.1996
 30
0.0
 10
11.1223
 20
-23.0345
 30
0.0
 10
10.9807
 20
-22.9038
 30
0.0
 10
10.9807
 20
-22.9038
 30
0.0
 10
10.8391
 20
-22.7735
 30
0.0
 10
10.6406
 20
-22.7081
 30
0.0
 10
10.3852
 20
-22.7081
 30
0.0
 10
10.3852
 20
-22.7081
 30
0.0
 10
10.1943
 20
-22.7081
 30
0.0
 10
10.0254
 20
-22.7471
 30
0.0
 10
9.8796
 20
-22.8252
 30
0.0
  0
SPLINE
  5
81
330
1F
100
AcDbEntity
  8
DEFAULT_1
 62
   250
100
AcDbSpline
210
0.0
220
0.0
230
1.0
 70
    11
 71
     3
 72
    48
 73
    44
 74
     0
 42
0.0000000001
 43
0.0000000001
 40
0.0
 40
0.0
 40
0.0
 40
0.0
 40
0.0833333333333333
 40
0.0833333333333333
 40
0.0833333333333333
 40
0.0833333333333333
 40
0.1666666666666667
 40
0.1666666666666667
 40
0.1666666666666667
 40
0.1666666666666667
 40
0.25
 40
0.25
 40
0.25
 40
0.25
 40
0.3333333333333333
 40
0.3333333333333333
 40
0.3333333333333333
 40
0.3333333333333333
 40
0.4166666666666667
 40
0.4166666666666667
 40
0.4166666666666667
 40
0.4166666666666667
 40
0.5
 40
0.5
 40
0.5
 40
0.5
 40
0.5833333333333334
 40
0.5833333333333334
 40
0.5833333333333334
 40
0.5833333333333334
 40
0.6666666666666666
 40
0.6666666666666666
 40
0.6666666666666666
 40
0.6666666666666666
 40
0.75
 40
0.75
 40
0.75
 40
0.75
 40
0.8333333333333334
 40
0.8333333333333334
 40
0.8333333333333334
 40
0.8333333333333334
 40
1.0
 40
1.0
 40
1.0
 40
1.0
 10
11.3871
 20
-21.3883
 30
0.0
 10
11.3871
 20
-21.3883
 30
0.0
 10
10.9036
 20
-21.3883
 30
0.0
 10
10.9036
 20
-21.3883
 30
0.0
 10
10.9036
 20
-21.3883
 30
0.0
 10
10.9036
 20
-21.3883
 30
0.0
 10
10.9036
 20
-22.2646
 30
0.0
 10
10.9036
 20
-22.2646
 30
0.0
 10
10.9036
 20
-22.2646
 30
0.0
 10
10.9036
 20
-22.2646
 30
0.0
 10
10.6759
 20
-22.2646
 30
0.0
 10
10.6759
 20
-22.2646
 30
0.0
 10
10.6759
 20
-22.2646
 30
0.0
 10
10.6759
 20
-22.2646
 30
0.0
 10
9.3669
 20
-21.3426
 30
0.0
 10
9.3669
 20
-21.3426
 30
0.0
 10
9.3669
 20
-21.3426
 30
0.0
 10
9.3669
 20
-21.3426
 30
0.0
 10
9.3669
 20
-21.1399
 30
0.0
 10
9.3669
 20
-21.1399
 30
0.0
 10
9.3669
 20
-21.1399
 30
0.0
 10
9.3669
 20
-21.1399
 30
0.0
 10
10.6759
 20
-21.1399
 30
0.0
 10
10.6759
 20
-21.1399
 30
0.0
 10
10.6759
 20
-21.1399
 30
0.0
 10
10.6759
 20
-21.1399
 30
0.0
 10
10.6759
 20
-20.8671
 30
0.0
 10
10.6759
 20
-20.8671
 30
0.0
 10
10.6759
 20
-20.8671
 30
0.0
 10
10.6759
 20
-20.8671
 30
0.0
 10
10.9036
 20
-20.8671
 30
0.0
 10
10.9036
 20
-20.8671
 30
0.0
 10
10.9036
 20
-20.8671
 30
0.0
 10
10.9036
 20
-20.8671
 30
0.0
 10
10.9036
 20
-21.1399
 30
0.0
 10
10.9036
 20
-21.1399
 30
0.0
 10
10.9036
 20
-21.1399
 30
0.0
 10
10.9036
 20
-21.1399
 30
0.0
 10
11.3871
 20
-21.1399
 30
0.0
 10
11.3871
 20
-21.1399
 30
0.0
 10
11.3871
 20
-21.1399
 30
0.0
 10
11.3871
 20
-21.1399
 30
0.0
 10
11.3871
 20
-21.3883
 30
0.0
 10
11.3871
 20
-21.3883
 30
0.0
  0
SPLINE
  5
82
330
1F
100
AcDbEntity
  8
DEFAULT_1
 62
   250
100
AcDbSpline
210
0.0
220
0.0
230
1.0
 70
    11
 71
     3
 72
    16
 73
    12
 74
     0
 42
0.0000000001
 43
0.0000000001
 40
0.0
 40
0.0
 40
0.0
 40
0.0
 40
0.25
 40
0.25
 40
0.25
 40
0.25
 40
0.5
 40
0.5
 40
0.5
 40
0.5
 40
1.0
 40
1.0
 40
1.0
 40
1.0
 10
10.6759
 20
-21.3883
 30
0.0
 10
10.6759
 20
-21.3883
 30
0.0
 10
9.7653
 20
-21.3883
 30
0.0
 10
9.7653
 20
-21.3883
 30
0.0
 10
9.7653
 20
-21.3883
 30
0.0
 10
9.7653
 20
-21.3883
 30
0.0
 10
10.6759
 20
-22.0204
 30
0.0
 10
10.6759
 20
-22.0204
 30
0.0
 10
10.6759
 20
-22.0204
 30
0.0
 10
10.6759
 20
-22.0204
 30
0.0
 10
10.6759
 20
-21.3883
 30
0.0
 10
10.6759
 20
-21.3883
 30
0.0
  0
SPLINE
  5
83
330
1F
100
AcDbEntity
  8
DEFAULT_1
 62
   250
100
AcDbSpline
210
0.0
220
0.0
230
1.0
 70
    11
 71
     3
 72
    52
 73
    48
 74
     0
 42
0.0000000001
 43
0.0000000001
 40
0.0
 40
0.0
 40
0.0
 40
0.0
 40
0.0769230769230769
 40
0.0769230769230769
 40
0.0769230769230769
 40
0.0769230769230769
 40
0.1538461538461539
 40
0.1538461538461539
 40
0.1538461538461539
 40
0.1538461538461539
 40
0.2307692307692308
 40
0.2307692307692308
 40
0.2307692307692308
 40
0.2307692307692308
 40
0.3076923076923077
 40
0.3076923076923077
 40
0.3076923076923077
 40
0.3076923076923077
 40
0.3846153846153846
 40
0.3846153846153846
 40
0.3846153846153846
 40
0.3846153846153846
 40
0.4615384615384616
 40
0.4615384615384616
 40
0.4615384615384616
 40
0.4615384615384616
 40
0.5384615384615384
 40
0.5384615384615384
 40
0.5384615384615384
 40
0.5384615384615384
 40
0.6153846153846154
 40
0.6153846153846154
 40
0.6153846153846154
 40
0.6153846153846154
 40
0.6923076923076923
 40
0.6923076923076923
 40
0.6923076923076923
 40
0.6923076923076923
 40
0.7692307692307693
 40
0.7692307692307693
 40
0.7692307692307693
 40
0.7692307692307693
 40
0.8461538461538461
 40
0.8461538461538461
 40
0.8461538461538461
 40
0.8461538461538461
 40
1.0
 40
1.0
 40
1.0
 40
1.0
 10
10.3909
 20
-20.6136
 30
0.0
 10
10.1519
 20
-20.6136
 30
0.0
 10
9.9595
 20
-20.5891
 30
0.0
 10
9.8142
 20
-20.5397
 30
0.0
 10
9.8142
 20
-20.5397
 30
0.0
 10
9.6684
 20
-20.4908
 30
0.0
 10
9.556
 20
-20.4174
 30
0.0
 10
9.4769
 20
-20.3205
 30
0.0
 10
9.4769
 20
-20.3205
 30
0.0
 10
9.3979
 20
-20.2236
 30
0.0
 10
9.3584
 20
-20.1018
 30
0.0
 10
9.3584
 20
-19.9551
 30
0.0
 10
9.3584
 20
-19.9551
 30
0.0
 10
9.3584
 20
-19.8464
 30
0.0
 10
9.3805
 20
-19.7514
 30
0.0
 10
9.4243
 20
-19.6696
 30
0.0
 10
9.4243
 20
-19.6696
 30
0.0
 10
9.4675
 20
-19.5877
 30
0.0
 10
9.5306
 20
-19.5204
 30
0.0
 10
9.6129
 20
-19.4668
 30
0.0
 10
9.6129
 20
-19.4668
 30
0.0
 10
9.6952
 20
-19.4137
 30
0.0
 10
9.7954
 20
-19.3718
 30
0.0
 10
9.9134
 20
-19.3417
 30
0.0
 10
9.9134
 20
-19.3417
 30
0.0
 10
10.0315
 20
-19.3111
 30
0.0
 10
10.1905
 20
-19.2961
 30
0.0
 10
10.3909
 20
-19.2961
 30
0.0
 10
10.3909
 20
-19.2961
 30
0.0
 10
10.6279
 20
-19.2961
 30
0.0
 10
10.8189
 20
-19.3205
 30
0.0
 10
10.9647
 20
-19.369
 30
0.0
 10
10.9647
 20
-19.369
 30
0.0
 10
11.1105
 20
-19.4179
 30
0.0
 10
11.2229
 20
-19.4908
 30
0.0
 10
11.3024
 20
-19.5877
 30
0.0
 10
11.3024
 20
-19.5877
 30
0.0
 10
11.3819
 20
-19.6846
 30
0.0
 10
11.4214
 20
-19.8069
 30
0.0
 10
11.4214
 20
-19.9551
 30
0.0
 10
11.4214
 20
-19.9551
 30
0.0
 10
11.4214
 20
-20.1498
 30
0.0
 10
11.3518
 20
-20.3027
 30
0.0
 10
11.2121
 20
-20.4137
 30
0.0
 10
11.2121
 20
-20.4137
 30
0.0
 10
11.0442
 20
-20.5468
 30
0.0
 10
10.77
 20
-20.6136
 30
0.0
 10
10.3909
 20
-20.6136
 30
0.0
  0
SPLINE
  5
84
330
1F
100
AcDbEntity
  8
DEFAULT_1
 62
   250
100
AcDbSpline
210
0.0
220
0.0
230
1.0
 70
    11
 71
     3
 72
    36
 73
    32
 74
     0
 42
0.0000000001
 43
0.0000000001
 40
0.0
 40
0.0
 40
0.0
 40
0.0
 40
0.1111111111111111
 40
0.1111111111111111
 40
0.1111111111111111
 40
0.1111111111111111
 40
0.2222222222222222
 40
0.2222222222222222
 40
0.2222222222222222
 40
0.2222222222222222
 40
0.3333333333333333
 40
0.3333333333333333
 40
0.3333333333333333
 40
0.3333333333333333
 40
0.4444444444444444
 40
0.4444444444444444
 40
0.4444444444444444
 40
0.4444444444444444
 40
0.5555555555555556
 40
0.5555555555555556
 40
0.5555555555555556
 40
0.5555555555555556
 40
0.6666666666666666
 40
0.6666666666666666
 40
0.6666666666666666
 40
0.6666666666666666
 40
0.7777777777777778
 40
0.7777777777777778
 40
0.7777777777777778
 40
0.7777777777777778
 40
1.0
 40
1.0
 40
1.0
 40
1.0
 10
10.3909
 20
-20.3586
 30
0.0
 10
10.7225
 20
-20.3586
 30
0.0
 10
10.9431
 20
-20.3196
 30
0.0
 10
11.0531
 20
-20.242
 30
0.0
 10
11.0531
 20
-20.242
 30
0.0
 10
11.1627
 20
-20.1644
 30
0.0
 10
11.2178
 20
-20.0689
 30
0.0
 10
11.2178
 20
-19.9551
 30
0.0
 10
11.2178
 20
-19.9551
 30
0.0
 10
11.2178
 20
-19.8408
 30
0.0
 10
11.1623
 20
-19.7453
 30
0.0
 10
11.0522
 20
-19.6677
 30
0.0
 10
11.0522
 20
-19.6677
 30
0.0
 10
10.9421
 20
-19.5901
 30
0.0
 10
10.7215
 20
-19.551
 30
0.0
 10
10.3909
 20
-19.551
 30
0.0
 10
10.3909
 20
-19.551
 30
0.0
 10
10.0583
 20
-19.551
 30
0.0
 10
9.8372
 20
-19.5901
 30
0.0
 10
9.7281
 20
-19.6677
 30
0.0
 10
9.7281
 20
-19.6677
 30
0.0
 10
9.6185
 20
-19.7453
 30
0.0
 10
9.564
 20
-19.8417
 30
0.0
 10
9.564
 20
-19.9574
 30
0.0
 10
9.564
 20
-19.9574
 30
0.0
 10
9.564
 20
-20.0717
 30
0.0
 10
9.6124
 20
-20.1625
 30
0.0
 10
9.7088
 20
-20.2307
 30
0.0
 10
9.7088
 20
-20.2307
 30
0.0
 10
9.8316
 20
-20.3158
 30
0.0
 10
10.0593
 20
-20.3586
 30
0.0
 10
10.3909
 20
-20.3586
 30
0.0
  0
SPLINE
  5
85
330
1F
100
AcDbEntity
  8
DEFAULT_1
 62
   250
100
AcDbSpline
210
0.0
220
0.0
230
1.0
 70
    11
 71
     3
 72
    84
 73
    80
 74
     0
 42
0.0000000001
 43
0.0000000001
 40
0.0
 40
0.0
 40
0.0
 40
0.0
 40
0.0476190476190476
 40
0.0476190476190476
 40
0.0476190476190476
 40
0.0476190476190476
 40
0.0952380952380952
 40
0.0952380952380952
 40
0.0952380952380952
 40
0.0952380952380952
 40
0.1428571428571428
 40
0.1428571428571428
 40
0.1428571428571428
 40
0.1428571428571428
 40
0.1904761904761905
 40
0.1904761904761905
 40
0.1904761904761905
 40
0.1904761904761905
 40
0.2380952380952381
 40
0.2380952380952381
 40
0.2380952380952381
 40
0.2380952380952381
 40
0.2857142857142857
 40
0.2857142857142857
 40
0.2857142857142857
 40
0.2857142857142857
 40
0.3333333333333333
 40
0.3333333333333333
 40
0.3333333333333333
 40
0.3333333333333333
 40
0.3809523809523809
 40
0.3809523809523809
 40
0.3809523809523809
 40
0.3809523809523809
 40
0.4285714285714285
 40
0.4285714285714285
 40
0.4285714285714285
 40
0.4285714285714285
 40
0.4761904761904762
 40
0.4761904761904762
 40
0.4761904761904762
 40
0.4761904761904762
 40
0.5238095238095238
 40
0.5238095238095238
 40
0.5238095238095238
 40
0.5238095238095238
 40
0.5714285714285714
 40
0.5714285714285714
 40
0.5714285714285714
 40
0.5714285714285714
 40
0.6190476190476191
 40
0.6190476190476191
 40
0.6190476190476191
 40
0.6190476190476191
 40
0.6666666666666666
 40
0.6666666666666666
 40
0.6666666666666666
 40
0.6666666666666666
 40
0.7142857142857143
 40
0.7142857142857143
 40
0.7142857142857143
 40
0.7142857142857143
 40
0.7619047619047619
 40
0.7619047619047619
 40
0.7619047619047619
 40
0.7619047619047619
 40
0.8095238095238095
 40
0.8095238095238095
 40
0.8095238095238095
 40
0.8095238095238095
 40
0.8571428571428571
 40
0.8571428571428571
 40
0.8571428571428571
 40
0.8571428571428571
 40
0.9047619047619048
 40
0.9047619047619048
 40
0.9047619047619048
 40
0.9047619047619048
 40
1.0
 40
1.0
 40
1.0
 40
1.0
 10
13.5725
 20
-22.6674
 30
0.0
 10
13.5725
 20
-22.6674
 30
0.0
 10
13.3134
 20
-22.436
 30
0.0
 10
13.3134
 20
-22.436
 30
0.0
 10
13.3134
 20
-22.436
 30
0.0
 10
13.3134
 20
-22.436
 30
0.0
 10
13.4291
 20
-22.2996
 30
0.0
 10
13.4291
 20
-22.2996
 30
0.0
 10
13.4291
 20
-22.2996
 30
0.0
 10
13.4291
 20
-22.2996
 30
0.0
 10
13.7019
 20
-22.5418
 30
0.0
 10
13.7019
 20
-22.5418
 30
0.0
 10
13.7019
 20
-22.5418
 30
0.0
 10
13.8195
 20
-22.4628
 30
0.0
 10
13.9225
 20
-22.4097
 30
0.0
 10
14.0104
 20
-22.3819
 30
0.0
 10
14.0104
 20
-22.3819
 30
0.0
 10
14.1262
 20
-22.3452
 30
0.0
 10
14.256
 20
-22.3269
 30
0.0
 10
14.399
 20
-22.3269
 30
0.0
 10
14.399
 20
-22.3269
 30
0.0
 10
14.6059
 20
-22.3269
 30
0.0
 10
14.7903
 20
-22.3687
 30
0.0
 10
14.9516
 20
-22.4525
 30
0.0
 10
14.9516
 20
-22.4525
 30
0.0
 10
15.1135
 20
-22.5362
 30
0.0
 10
15.2357
 20
-22.6533
 30
0.0
 10
15.3185
 20
-22.8043
 30
0.0
 10
15.3185
 20
-22.8043
 30
0.0
 10
15.4008
 20
-22.9558
 30
0.0
 10
15.4422
 20
-23.1161
 30
0.0
 10
15.4422
 20
-23.2859
 30
0.0
 10
15.4422
 20
-23.2859
 30
0.0
 10
15.4422
 20
-23.4129
 30
0.0
 10
15.4244
 20
-23.5277
 30
0.0
 10
15.3886
 20
-23.6307
 30
0.0
 10
15.3886
 20
-23.6307
 30
0.0
 10
15.3609
 20
-23.7097
 30
0.0
 10
15.3082
 20
-23.8019
 30
0.0
 10
15.2301
 20
-23.9078
 30
0.0
 10
15.2301
 20
-23.9078
 30
0.0
 10
15.2301
 20
-23.9078
 30
0.0
 10
15.4893
 20
-24.1392
 30
0.0
 10
15.4893
 20
-24.1392
 30
0.0
 10
15.4893
 20
-24.1392
 30
0.0
 10
15.4893
 20
-24.1392
 30
0.0
 10
15.3736
 20
-24.2756
 30
0.0
 10
15.3736
 20
-24.2756
 30
0.0
 10
15.3736
 20
-24.2756
 30
0.0
 10
15.3736
 20
-24.2756
 30
0.0
 10
15.1022
 20
-24.0329
 30
0.0
 10
15.1022
 20
-24.0329
 30
0.0
 10
15.1022
 20
-24.0329
 30
0.0
 10
14.9653
 20
-24.1232
 30
0.0
 10
14.8482
 20
-24.1834
 30
0.0
 10
14.7513
 20
-24.2135
 30
0.0
 10
14.7513
 20
-24.2135
 30
0.0
 10
14.6544
 20
-24.2436
 30
0.0
 10
14.5377
 20
-24.2591
 30
0.0
 10
14.4018
 20
-24.2591
 30
0.0
 10
14.4018
 20
-24.2591
 30
0.0
 10
14.1944
 20
-24.2591
 30
0.0
 10
14.0095
 20
-24.2177
 30
0.0
 10
13.8472
 20
-24.135
 30
0.0
 10
13.8472
 20
-24.135
 30
0.0
 10
13.6849
 20
-24.0522
 30
0.0
 10
13.5622
 20
-23.9365
 30
0.0
 10
13.4785
 20
-23.7869
 30
0.0
 10
13.4785
 20
-23.7869
 30
0.0
 10
13.3952
 20
-23.6378
 30
0.0
 10
13.3533
 20
-23.4717
 30
0.0
 10
13.3533
 20
-23.2888
 30
0.0
 10
13.3533
 20
-23.2888
 30
0.0
 10
13.3533
 20
-23.1655
 30
0.0
 10
13.3693
 20
-23.0578
 30
0.0
 10
13.4023
 20
-22.9656
 30
0.0
 10
13.4023
 20
-22.9656
 30
0.0
 10
13.4347
 20
-22.8734
 30
0.0
 10
13.4916
 20
-22.7737
 30
0.0
 10
13.5725
 20
-22.6674
 30
0.0
  0
SPLINE
  5
86
330
1F
100
AcDbEntity
  8
DEFAULT_1
 62
   250
100
AcDbSpline
210
0.0
220
0.0
230
1.0
 70
    11
 71
     3
 72
    32
 73
    28
 74
     0
 42
0.0000000001
 43
0.0000000001
 40
0.0
 40
0.0
 40
0.0
 40
0.0
 40
0.125
 40
0.125
 40
0.125
 40
0.125
 40
0.25
 40
0.25
 40
0.25
 40
0.25
 40
0.375
 40
0.375
 40
0.375
 40
0.375
 40
0.5
 40
0.5
 40
0.5
 40
0.5
 40
0.625
 40
0.625
 40
0.625
 40
0.625
 40
0.75
 40
0.75
 40
0.75
 40
0.75
 40
1.0
 40
1.0
 40
1.0
 40
1.0
 10
13.7583
 20
-22.8325
 30
0.0
 10
13.6906
 20
-22.9191
 30
0.0
 10
13.644
 20
-22.9948
 30
0.0
 10
13.6191
 20
-23.0592
 30
0.0
 10
13.6191
 20
-23.0592
 30
0.0
 10
13.5946
 20
-23.1241
 30
0.0
 10
13.5819
 20
-23.2003
 30
0.0
 10
13.5819
 20
-23.2874
 30
0.0
 10
13.5819
 20
-23.2874
 30
0.0
 10
13.5819
 20
-23.4887
 30
0.0
 10
13.6501
 20
-23.6547
 30
0.0
 10
13.7865
 20
-23.7864
 30
0.0
 10
13.7865
 20
-23.7864
 30
0.0
 10
13.923
 20
-23.9177
 30
0.0
 10
14.1266
 20
-23.9835
 30
0.0
 10
14.398
 20
-23.9835
 30
0.0
 10
14.398
 20
-23.9835
 30
0.0
 10
14.5043
 20
-23.9835
 30
0.0
 10
14.5989
 20
-23.9732
 30
0.0
 10
14.6817
 20
-23.9529
 30
0.0
 10
14.6817
 20
-23.9529
 30
0.0
 10
14.7433
 20
-23.9383
 30
0.0
 10
14.819
 20
-23.9078
 30
0.0
 10
14.9088
 20
-23.8607
 30
0.0
 10
14.9088
 20
-23.8607
 30
0.0
 10
14.9088
 20
-23.8607
 30
0.0
 10
13.7583
 20
-22.8325
 30
0.0
 10
13.7583
 20
-22.8325
 30
0.0
  0
SPLINE
  5
87
330
1F
100
AcDbEntity
  8
DEFAULT_1
 62
   250
100
AcDbSpline
210
0.0
220
0.0
230
1.0
 70
    11
 71
     3
 72
    28
 73
    24
 74
     0
 42
0.0000000001
 43
0.0000000001
 40
0.0
 40
0.0
 40
0.0
 40
0.0
 40
0.1428571428571428
 40
0.1428571428571428
 40
0.1428571428571428
 40
0.1428571428571428
 40
0.2857142857142857
 40
0.2857142857142857
 40
0.2857142857142857
 40
0.2857142857142857
 40
0.4285714285714285
 40
0.4285714285714285
 40
0.4285714285714285
 40
0.4285714285714285
 40
0.5714285714285714
 40
0.5714285714285714
 40
0.5714285714285714
 40
0.5714285714285714
 40
0.7142857142857143
 40
0.7142857142857143
 40
0.7142857142857143
 40
0.7142857142857143
 40
1.0
 40
1.0
 40
1.0
 40
1.0
 10
13.9004
 20
-22.7196
 30
0.0
 10
13.9004
 20
-22.7196
 30
0.0
 10
15.0467
 20
-23.7436
 30
0.0
 10
15.0467
 20
-23.7436
 30
0.0
 10
15.0467
 20
-23.7436
 30
0.0
 10
15.1045
 20
-23.6731
 30
0.0
 10
15.145
 20
-23.6077
 30
0.0
 10
15.168
 20
-23.5479
 30
0.0
 10
15.168
 20
-23.5479
 30
0.0
 10
15.1986
 20
-23.4699
 30
0.0
 10
15.2136
 20
-23.3852
 30
0.0
 10
15.2136
 20
-23.2944
 30
0.0
 10
15.2136
 20
-23.2944
 30
0.0
 10
15.2136
 20
-23.094
 30
0.0
 10
15.1431
 20
-22.9289
 30
0.0
 10
15.0015
 20
-22.7982
 30
0.0
 10
15.0015
 20
-22.7982
 30
0.0
 10
14.8599
 20
-22.6679
 30
0.0
 10
14.6614
 20
-22.6025
 30
0.0
 10
14.406
 20
-22.6025
 30
0.0
 10
14.406
 20
-22.6025
 30
0.0
 10
14.2151
 20
-22.6025
 30
0.0
 10
14.0462
 20
-22.6415
 30
0.0
 10
13.9004
 20
-22.7196
 30
0.0
  0
SPLINE
  5
88
330
1F
100
AcDbEntity
  8
DEFAULT_1
 62
   250
100
AcDbSpline
210
0.0
220
0.0
230
1.0
 70
    11
 71
     3
 72
    92
 73
    88
 74
     0
 42
0.0000000001
 43
0.0000000001
 40
0.0
 40
0.0
 40
0.0
 40
0.0
 40
0.0434782608695652
 40
0.0434782608695652
 40
0.0434782608695652
 40
0.0434782608695652
 40
0.0869565217391304
 40
0.0869565217391304
 40
0.0869565217391304
 40
0.0869565217391304
 40
0.1304347826086956
 40
0.1304347826086956
 40
0.1304347826086956
 40
0.1304347826086956
 40
0.1739130434782609
 40
0.1739130434782609
 40
0.1739130434782609
 40
0.1739130434782609
 40
0.2173913043478261
 40
0.2173913043478261
 40
0.2173913043478261
 40
0.2173913043478261
 40
0.2608695652173913
 40
0.2608695652173913
 40
0.2608695652173913
 40
0.2608695652173913
 40
0.3043478260869565
 40
0.3043478260869565
 40
0.3043478260869565
 40
0.3043478260869565
 40
0.3478260869565217
 40
0.3478260869565217
 40
0.3478260869565217
 40
0.3478260869565217
 40
0.391304347826087
 40
0.391304347826087
 40
0.391304347826087
 40
0.391304347826087
 40
0.4347826086956522
 40
0.4347826086956522
 40
0.4347826086956522
 40
0.4347826086956522
 40
0.4782608695652174
 40
0.4782608695652174
 40
0.4782608695652174
 40
0.4782608695652174
 40
0.5217391304347826
 40
0.5217391304347826
 40
0.5217391304347826
 40
0.5217391304347826
 40
0.5652173913043478
 40
0.5652173913043478
 40
0.5652173913043478
 40
0.5652173913043478
 40
0.6086956521739131
 40
0.6086956521739131
 40
0.6086956521739131
 40
0.6086956521739131
 40
0.6521739130434783
 40
0.6521739130434783
 40
0.6521739130434783
 40
0.6521739130434783
 40
0.6956521739130435
 40
0.6956521739130435
 40
0.6956521739130435
 40
0.6956521739130435
 40
0.7391304347826086
 40
0.7391304347826086
 40
0.7391304347826086
 40
0.7391304347826086
 40
0.782608695652174
 40
0.782608695652174
 40
0.782608695652174
 40
0.782608695652174
 40
0.8260869565217391
 40
0.8260869565217391
 40
0.8260869565217391
 40
0.8260869565217391
 40
0.8695652173913043
 40
0.8695652173913043
 40
0.8695652173913043
 40
0.8695652173913043
 40
0.9130434782608695
 40
0.9130434782608695
 40
0.9130434782608695
 40
0.9130434782608695
 40
1.0
 40
1.0
 40
1.0
 40
1.0
 10
14.8787
 20
-22.0776
 30
0.0
 10
14.8787
 20
-22.0776
 30
0.0
 10
14.8566
 20
-21.817
 30
0.0
 10
14.8566
 20
-21.817
 30
0.0
 10
14.8566
 20
-21.817
 30
0.0
 10
14.9836
 20
-21.7977
 30
0.0
 10
15.0786
 20
-21.753
 30
0.0
 10
15.1426
 20
-21.6829
 30
0.0
 10
15.1426
 20
-21.6829
 30
0.0
 10
15.2066
 20
-21.6124
 30
0.0
 10
15.2386
 20
-21.5277
 30
0.0
 10
15.2386
 20
-21.4285
 30
0.0
 10
15.2386
 20
-21.4285
 30
0.0
 10
15.2386
 20
-21.309
 30
0.0
 10
15.1934
 20
-21.2079
 30
0.0
 10
15.1036
 20
-21.1256
 30
0.0
 10
15.1036
 20
-21.1256
 30
0.0
 10
15.0133
 20
-21.0428
 30
0.0
 10
14.8938
 20
-21.0014
 30
0.0
 10
14.7452
 20
-21.0014
 30
0.0
 10
14.7452
 20
-21.0014
 30
0.0
 10
14.6036
 20
-21.0014
 30
0.0
 10
14.4921
 20
-21.0409
 30
0.0
 10
14.4103
 20
-21.1204
 30
0.0
 10
14.4103
 20
-21.1204
 30
0.0
 10
14.3284
 20
-21.1999
 30
0.0
 10
14.2875
 20
-21.3038
 30
0.0
 10
14.2875
 20
-21.4327
 30
0.0
 10
14.2875
 20
-21.4327
 30
0.0
 10
14.2875
 20
-21.5127
 30
0.0
 10
14.3058
 20
-21.5846
 30
0.0
 10
14.342
 20
-21.6491
 30
0.0
 10
14.342
 20
-21.6491
 30
0.0
 10
14.3783
 20
-21.7135
 30
0.0
 10
14.4253
 20
-21.7638
 30
0.0
 10
14.4832
 20
-21.8005
 30
0.0
 10
14.4832
 20
-21.8005
 30
0.0
 10
14.4832
 20
-21.8005
 30
0.0
 10
14.4531
 20
-22.0334
 30
0.0
 10
14.4531
 20
-22.0334
 30
0.0
 10
14.4531
 20
-22.0334
 30
0.0
 10
14.4531
 20
-22.0334
 30
0.0
 10
13.4154
 20
-21.8377
 30
0.0
 10
13.4154
 20
-21.8377
 30
0.0
 10
13.4154
 20
-21.8377
 30
0.0
 10
13.4154
 20
-21.8377
 30
0.0
 10
13.4154
 20
-20.833
 30
0.0
 10
13.4154
 20
-20.833
 30
0.0
 10
13.4154
 20
-20.833
 30
0.0
 10
13.4154
 20
-20.833
 30
0.0
 10
13.6525
 20
-20.833
 30
0.0
 10
13.6525
 20
-20.833
 30
0.0
 10
13.6525
 20
-20.833
 30
0.0
 10
13.6525
 20
-20.833
 30
0.0
 10
13.6525
 20
-21.6392
 30
0.0
 10
13.6525
 20
-21.6392
 30
0.0
 10
13.6525
 20
-21.6392
 30
0.0
 10
13.6525
 20
-21.6392
 30
0.0
 10
14.1953
 20
-21.7483
 30
0.0
 10
14.1953
 20
-21.7483
 30
0.0
 10
14.1953
 20
-21.7483
 30
0.0
 10
14.1106
 20
-21.627
 30
0.0
 10
14.0683
 20
-21.4995
 30
0.0
 10
14.0683
 20
-21.3664
 30
0.0
 10
14.0683
 20
-21.3664
 30
0.0
 10
14.0683
 20
-21.19
 30
0.0
 10
14.1294
 20
-21.0414
 30
0.0
 10
14.2517
 20
-20.92
 30
0.0
 10
14.2517
 20
-20.92
 30
0.0
 10
14.374
 20
-20.7987
 30
0.0
 10
14.5311
 20
-20.738
 30
0.0
 10
14.723
 20
-20.738
 30
0.0
 10
14.723
 20
-20.738
 30
0.0
 10
14.906
 20
-20.738
 30
0.0
 10
15.0641
 20
-20.7916
 30
0.0
 10
15.1972
 20
-20.8979
 30
0.0
 10
15.1972
 20
-20.8979
 30
0.0
 10
15.3604
 20
-21.0277
 30
0.0
 10
15.4422
 20
-21.2046
 30
0.0
 10
15.4422
 20
-21.4285
 30
0.0
 10
15.4422
 20
-21.4285
 30
0.0
 10
15.4422
 20
-21.6124
 30
0.0
 10
15.391
 20
-21.7624
 30
0.0
 10
15.288
 20
-21.8786
 30
0.0
 10
15.288
 20
-21.8786
 30
0.0
 10
15.1849
 20
-21.9948
 30
0.0
 10
15.0485
 20
-22.0611
 30
0.0
 10
14.8787
 20
-22.0776
 30
0.0
  0
SPLINE
  5
89
330
1F
100
AcDbEntity
  8
DEFAULT_1
 62
   250
100
AcDbSpline
210
0.0
220
0.0
230
1.0
 70
    11
 71
     3
 72
    52
 73
    48
 74
     0
 42
0.0000000001
 43
0.0000000001
 40
0.0
 40
0.0
 40
0.0
 40
0.0
 40
0.0769230769230769
 40
0.0769230769230769
 40
0.0769230769230769
 40
0.0769230769230769
 40
0.1538461538461539
 40
0.1538461538461539
 40
0.1538461538461539
 40
0.1538461538461539
 40
0.2307692307692308
 40
0.2307692307692308
 40
0.2307692307692308
 40
0.2307692307692308
 40
0.3076923076923077
 40
0.3076923076923077
 40
0.3076923076923077
 40
0.3076923076923077
 40
0.3846153846153846
 40
0.3846153846153846
 40
0.3846153846153846
 40
0.3846153846153846
 40
0.4615384615384616
 40
0.4615384615384616
 40
0.4615384615384616
 40
0.4615384615384616
 40
0.5384615384615384
 40
0.5384615384615384
 40
0.5384615384615384
 40
0.5384615384615384
 40
0.6153846153846154
 40
0.6153846153846154
 40
0.6153846153846154
 40
0.6153846153846154
 40
0.6923076923076923
 40
0.6923076923076923
 40
0.6923076923076923
 40
0.6923076923076923
 40
0.7692307692307693
 40
0.7692307692307693
 40
0.7692307692307693
 40
0.7692307692307693
 40
0.8461538461538461
 40
0.8461538461538461
 40
0.8461538461538461
 40
0.8461538461538461
 40
1.0
 40
1.0
 40
1.0
 40
1.0
 10
14.4117
 20
-20.508
 30
0.0
 10
14.1727
 20
-20.508
 30
0.0
 10
13.9803
 20
-20.4835
 30
0.0
 10
13.835
 20
-20.4341
 30
0.0
 10
13.835
 20
-20.4341
 30
0.0
 10
13.6892
 20
-20.3852
 30
0.0
 10
13.5768
 20
-20.3118
 30
0.0
 10
13.4977
 20
-20.2149
 30
0.0
 10
13.4977
 20
-20.2149
 30
0.0
 10
13.4187
 20
-20.118
 30
0.0
 10
13.3792
 20
-19.9962
 30
0.0
 10
13.3792
 20
-19.8495
 30
0.0
 10
13.3792
 20
-19.8495
 30
0.0
 10
13.3792
 20
-19.7408
 30
0.0
 10
13.4013
 20
-19.6458
 30
0.0
 10
13.4451
 20
-19.564
 30
0.0
 10
13.4451
 20
-19.564
 30
0.0
 10
13.4883
 20
-19.4821
 30
0.0
 10
13.5514
 20
-19.4148
 30
0.0
 10
13.6337
 20
-19.3612
 30
0.0
 10
13.6337
 20
-19.3612
 30
0.0
 10
13.716
 20
-19.3081
 30
0.0
 10
13.8162
 20
-19.2662
 30
0.0
 10
13.9342
 20
-19.2361
 30
0.0
 10
13.9342
 20
-19.2361
 30
0.0
 10
14.0523
 20
-19.2055
 30
0.0
 10
14.2113
 20
-19.1905
 30
0.0
 10
14.4117
 20
-19.1905
 30
0.0
 10
14.4117
 20
-19.1905
 30
0.0
 10
14.6487
 20
-19.1905
 30
0.0
 10
14.8397
 20
-19.2149
 30
0.0
 10
14.9855
 20
-19.2634
 30
0.0
 10
14.9855
 20
-19.2634
 30
0.0
 10
15.1313
 20
-19.3123
 30
0.0
 10
15.2437
 20
-19.3852
 30
0.0
 10
15.3232
 20
-19.4821
 30
0.0
 10
15.3232
 20
-19.4821
 30
0.0
 10
15.4027
 20
-19.579
 30
0.0
 10
15.4422
 20
-19.7013
 30
0.0
 10
15.4422
 20
-19.8495
 30
0.0
 10
15.4422
 20
-19.8495
 30
0.0
 10
15.4422
 20
-20.0442
 30
0.0
 10
15.3726
 20
-20.1971
 30
0.0
 10
15.2329
 20
-20.3081
 30
0.0
 10
15.2329
 20
-20.3081
 30
0.0
 10
15.065
 20
-20.4412
 30
0.0
 10
14.7908
 20
-20.508
 30
0.0
 10
14.4117
 20
-20.508
 30
0.0
  0
SPLINE
  5
8A
330
1F
100
AcDbEntity
  8
DEFAULT_1
 62
   250
100
AcDbSpline
210
0.0
220
0.0
230
1.0
 70
    11
 71
     3
 72
    36
 73
    32
 74
     0
 42
0.0000000001
 43
0.0000000001
 40
0.0
 40
0.0
 40
0.0
 40
0.0
 40
0.1111111111111111
 40
0.1111111111111111
 40
0.1111111111111111
 40
0.1111111111111111
 40
0.2222222222222222
 40
0.2222222222222222
 40
0.2222222222222222
 40
0.2222222222222222
 40
0.3333333333333333
 40
0.3333333333333333
 40
0.3333333333333333
 40
0.3333333333333333
 40
0.4444444444444444
 40
0.4444444444444444
 40
0.4444444444444444
 40
0.4444444444444444
 40
0.5555555555555556
 40
0.5555555555555556
 40
0.5555555555555556
 40
0.5555555555555556
 40
0.6666666666666666
 40
0.6666666666666666
 40
0.6666666666666666
 40
0.6666666666666666
 40
0.7777777777777778
 40
0.7777777777777778
 40
0.7777777777777778
 40
0.7777777777777778
 40
1.0
 40
1.0
 40
1.0
 40
1.0
 10
14.4117
 20
-20.253
 30
0.0
 10
14.7433
 20
-20.253
 30
0.0
 10
14.9639
 20
-20.214
 30
0.0
 10
15.0739
 20
-20.1364
 30
0.0
 10
15.0739
 20
-20.1364
 30
0.0
 10
15.1835
 20
-20.0588
 30
0.0
 10
15.2386
 20
-19.9633
 30
0.0
 10
15.2386
 20
-19.8495
 30
0.0
 10
15.2386
 20
-19.8495
 30
0.0
 10
15.2386
 20
-19.7352
 30
0.0
 10
15.1831
 20
-19.6397
 30
0.0
 10
15.073
 20
-19.5621
 30
0.0
 10
15.073
 20
-19.5621
 30
0.0
 10
14.9629
 20
-19.4845
 30
0.0
 10
14.7423
 20
-19.4454
 30
0.0
 10
14.4117
 20
-19.4454
 30
0.0
 10
14.4117
 20
-19.4454
 30
0.0
 10
14.0791
 20
-19.4454
 30
0.0
 10
13.858
 20
-19.4845
 30
0.0
 10
13.7489
 20
-19.5621
 30
0.0
 10
13.7489
 20
-19.5621
 30
0.0
 10
13.6393
 20
-19.6397
 30
0.0
 10
13.5848
 20
-19.7361
 30
0.0
 10
13.5848
 20
-19.8518
 30
0.0
 10
13.5848
 20
-19.8518
 30
0.0
 10
13.5848
 20
-19.9661
 30
0.0
 10
13.6332
 20
-20.0569
 30
0.0
 10
13.7296
 20
-20.1251
 30
0.0
 10
13.7296
 20
-20.1251
 30
0.0
 10
13.8524
 20
-20.2102
 30
0.0
 10
14.0801
 20
-20.253
 30
0.0
 10
14.4117
 20
-20.253
 30
0.0
  0
SPLINE
  5
8B
330
1F
100
AcDbEntity
  8
DEFAULT_1
 62
   250
100
AcDbSpline
210
0.0
220
0.0
230
1.0
 70
    11
 71
     3
 72
    84
 73
    80
 74
     0
 42
0.0000000001
 43
0.0000000001
 40
0.0
 40
0.0
 40
0.0
 40
0.0
 40
0.0476190476190476
 40
0.0476190476190476
 40
0.0476190476190476
 40
0.0476190476190476
 40
0.0952380952380952
 40
0.0952380952380952
 40
0.0952380952380952
 40
0.0952380952380952
 40
0.1428571428571428
 40
0.1428571428571428
 40
0.1428571428571428
 40
0.1428571428571428
 40
0.1904761904761905
 40
0.1904761904761905
 40
0.1904761904761905
 40
0.1904761904761905
 40
0.2380952380952381
 40
0.2380952380952381
 40
0.2380952380952381
 40
0.2380952380952381
 40
0.2857142857142857
 40
0.2857142857142857
 40
0.2857142857142857
 40
0.2857142857142857
 40
0.3333333333333333
 40
0.3333333333333333
 40
0.3333333333333333
 40
0.3333333333333333
 40
0.3809523809523809
 40
0.3809523809523809
 40
0.3809523809523809
 40
0.3809523809523809
 40
0.4285714285714285
 40
0.4285714285714285
 40
0.4285714285714285
 40
0.4285714285714285
 40
0.4761904761904762
 40
0.4761904761904762
 40
0.4761904761904762
 40
0.4761904761904762
 40
0.5238095238095238
 40
0.5238095238095238
 40
0.5238095238095238
 40
0.5238095238095238
 40
0.5714285714285714
 40
0.5714285714285714
 40
0.5714285714285714
 40
0.5714285714285714
 40
0.6190476190476191
 40
0.6190476190476191
 40
0.6190476190476191
 40
0.6190476190476191
 40
0.6666666666666666
 40
0.6666666666666666
 40
0.6666666666666666
 40
0.6666666666666666
 40
0.7142857142857143
 40
0.7142857142857143
 40
0.7142857142857143
 40
0.7142857142857143
 40
0.7619047619047619
 40
0.7619047619047619
 40
0.7619047619047619
 40
0.7619047619047619
 40
0.8095238095238095
 40
0.8095238095238095
 40
0.8095238095238095
 40
0.8095238095238095
 40
0.8571428571428571
 40
0.8571428571428571
 40
0.8571428571428571
 40
0.8571428571428571
 40
0.9047619047619048
 40
0.9047619047619048
 40
0.9047619047619048
 40
0.9047619047619048
 40
1.0
 40
1.0
 40
1.0
 40
1.0
 10
-8.9939
 20
0.5769
 30
0.0
 10
-8.9939
 20
0.5769
 30
0.0
 10
-8.7599
 20
0.8337
 30
0.0
 10
-8.7599
 20
0.8337
 30
0.0
 10
-8.7599
 20
0.8337
 30
0.0
 10
-8.7599
 20
0.8337
 30
0.0
 10
-8.6247
 20
0.7167
 30
0.0
 10
-8.6247
 20
0.7167
 30
0.0
 10
-8.6247
 20
0.7167
 30
0.0
 10
-8.6247
 20
0.7167
 30
0.0
 10
-8.8696
 20
0.4463
 30
0.0
 10
-8.8696
 20
0.4463
 30
0.0
 10
-8.8696
 20
0.4463
 30
0.0
 10
-8.7917
 20
0.3279
 30
0.0
 10
-8.7396
 20
0.2244
 30
0.0
 10
-8.7127
 20
0.1362
 30
0.0
 10
-8.7127
 20
0.1362
 30
0.0
 10
-8.6772
 20
0.02
 30
0.0
 10
-8.6601
 20
-0.1099
 30
0.0
 10
-8.6615
 20
-0.2529
 30
0.0
 10
-8.6615
 20
-0.2529
 30
0.0
 10
-8.6636
 20
-0.4598
 30
0.0
 10
-8.7072
 20
-0.6438
 30
0.0
 10
-8.7926
 20
-0.8043
 30
0.0
 10
-8.7926
 20
-0.8043
 30
0.0
 10
-8.8779
 20
-0.9653
 30
0.0
 10
-8.9962
 20
-1.0864
 30
0.0
 10
-9.148
 20
-1.1677
 30
0.0
 10
-9.148
 20
-1.1677
 30
0.0
 10
-9.3003
 20
-1.2485
 30
0.0
 10
-9.461
 20
-1.2883
 30
0.0
 10
-9.6308
 20
-1.2866
 30
0.0
 10
-9.6308
 20
-1.2866
 30
0.0
 10
-9.7578
 20
-1.2854
 30
0.0
 10
-9.8724
 20
-1.2664
 30
0.0
 10
-9.975
 20
-1.2296
 30
0.0
 10
-9.975
 20
-1.2296
 30
0.0
 10
-10.0538
 20
-1.2011
 30
0.0
 10
-10.1454
 20
-1.1475
 30
0.0
 10
-10.2506
 20
-1.0684
 30
0.0
 10
-10.2506
 20
-1.0684
 30
0.0
 10
-10.2506
 20
-1.0684
 30
0.0
 10
-10.4845
 20
-1.3253
 30
0.0
 10
-10.4845
 20
-1.3253
 30
0.0
 10
-10.4845
 20
-1.3253
 30
0.0
 10
-10.4845
 20
-1.3253
 30
0.0
 10
-10.6198
 20
-1.2083
 30
0.0
 10
-10.6198
 20
-1.2083
 30
0.0
 10
-10.6198
 20
-1.2083
 30
0.0
 10
-10.6198
 20
-1.2083
 30
0.0
 10
-10.3744
 20
-0.9393
 30
0.0
 10
-10.3744
 20
-0.9393
 30
0.0
 10
-10.3744
 20
-0.9393
 30
0.0
 10
-10.4633
 20
-0.8015
 30
0.0
 10
-10.5224
 20
-0.6838
 30
0.0
 10
-10.5515
 20
-0.5866
 30
0.0
 10
-10.5515
 20
-0.5866
 30
0.0
 10
-10.5807
 20
-0.4894
 30
0.0
 10
-10.595
 20
-0.3726
 30
0.0
 10
-10.5937
 20
-0.2367
 30
0.0
 10
-10.5937
 20
-0.2367
 30
0.0
 10
-10.5916
 20
-0.0293
 30
0.0
 10
-10.5484
 20
0.1552
 30
0.0
 10
-10.4641
 20
0.3167
 30
0.0
 10
-10.4641
 20
0.3167
 30
0.0
 10
-10.3797
 20
0.4782
 30
0.0
 10
-10.2628
 20
0.5997
 30
0.0
 10
-10.1124
 20
0.6819
 30
0.0
 10
-10.1124
 20
0.6819
 30
0.0
 10
-9.9625
 20
0.7638
 30
0.0
 10
-9.796
 20
0.804
 30
0.0
 10
-9.6131
 20
0.8022
 30
0.0
 10
-9.6131
 20
0.8022
 30
0.0
 10
-9.4898
 20
0.801
 30
0.0
 10
-9.3823
 20
0.7839
 30
0.0
 10
-9.2904
 20
0.75
 30
0.0
 10
-9.2904
 20
0.75
 30
0.0
 10
-9.1985
 20
0.7167
 30
0.0
 10
-9.0994
 20
0.6588
 30
0.0
 10
-8.9939
 20
0.5769
 30
0.0
  0
SPLINE
  5
8C
330
1F
100
AcDbEntity
  8
DEFAULT_1
 62
   250
100
AcDbSpline
210
0.0
220
0.0
230
1.0
 70
    11
 71
     3
 72
    32
 73
    28
 74
     0
 42
0.0000000001
 43
0.0000000001
 40
0.0
 40
0.0
 40
0.0
 40
0.0
 40
0.125
 40
0.125
 40
0.125
 40
0.125
 40
0.25
 40
0.25
 40
0.25
 40
0.25
 40
0.375
 40
0.375
 40
0.375
 40
0.375
 40
0.5
 40
0.5
 40
0.5
 40
0.5
 40
0.625
 40
0.625
 40
0.625
 40
0.625
 40
0.75
 40
0.75
 40
0.75
 40
0.75
 40
1.0
 40
1.0
 40
1.0
 40
1.0
 10
-9.1608
 20
0.3927
 30
0.0
 10
-9.2467
 20
0.4613
 30
0.0
 10
-9.322
 20
0.5086
 30
0.0
 10
-9.3861
 20
0.5342
 30
0.0
 10
-9.3861
 20
0.5342
 30
0.0
 10
-9.4508
 20
0.5593
 30
0.0
 10
-9.5268
 20
0.5728
 30
0.0
 10
-9.6139
 20
0.5736
 30
0.0
 10
-9.6139
 20
0.5736
 30
0.0
 10
-9.8152
 20
0.5756
 30
0.0
 10
-9.9819
 20
0.509
 30
0.0
 10
-10.1149
 20
0.3739
 30
0.0
 10
-10.1149
 20
0.3739
 30
0.0
 10
-10.2476
 20
0.2387
 30
0.0
 10
-10.3154
 20
0.0358
 30
0.0
 10
-10.3181
 20
-0.2356
 30
0.0
 10
-10.3181
 20
-0.2356
 30
0.0
 10
-10.3191
 20
-0.3419
 30
0.0
 10
-10.3097
 20
-0.4366
 30
0.0
 10
-10.2903
 20
-0.5196
 30
0.0
 10
-10.2903
 20
-0.5196
 30
0.0
 10
-10.2763
 20
-0.5813
 30
0.0
 10
-10.2465
 20
-0.6573
 30
0.0
 10
-10.2003
 20
-0.7476
 30
0.0
 10
-10.2003
 20
-0.7476
 30
0.0
 10
-10.2003
 20
-0.7476
 30
0.0
 10
-9.1608
 20
0.3927
 30
0.0
 10
-9.1608
 20
0.3927
 30
0.0
  0
SPLINE
  5
8D
330
1F
100
AcDbEntity
  8
DEFAULT_1
 62
   250
100
AcDbSpline
210
0.0
220
0.0
230
1.0
 70
    11
 71
     3
 72
    28
 73
    24
 74
     0
 42
0.0000000001
 43
0.0000000001
 40
0.0
 40
0.0
 40
0.0
 40
0.0
 40
0.1428571428571428
 40
0.1428571428571428
 40
0.1428571428571428
 40
0.1428571428571428
 40
0.2857142857142857
 40
0.2857142857142857
 40
0.2857142857142857
 40
0.2857142857142857
 40
0.4285714285714285
 40
0.4285714285714285
 40
0.4285714285714285
 40
0.4285714285714285
 40
0.5714285714285714
 40
0.5714285714285714
 40
0.5714285714285714
 40
0.5714285714285714
 40
0.7142857142857143
 40
0.7142857142857143
 40
0.7142857142857143
 40
0.7142857142857143
 40
1.0
 40
1.0
 40
1.0
 40
1.0
 10
-9.0493
 20
0.2495
 30
0.0
 10
-9.0493
 20
0.2495
 30
0.0
 10
-10.0846
 20
-0.8866
 30
0.0
 10
-10.0846
 20
-0.8866
 30
0.0
 10
-10.0846
 20
-0.8866
 30
0.0
 10
-10.0146
 20
-0.9451
 30
0.0
 10
-9.9496
 20
-0.9863
 30
0.0
 10
-9.8901
 20
-1.0098
 30
0.0
 10
-9.8901
 20
-1.0098
 30
0.0
 10
-9.8124
 20
-1.0412
 30
0.0
 10
-9.7278
 20
-1.057
 30
0.0
 10
-9.637
 20
-1.0579
 30
0.0
 10
-9.637
 20
-1.0579
 30
0.0
 10
-9.4366
 20
-1.0599
 30
0.0
 10
-9.2709
 20
-0.991
 30
0.0
 10
-9.1388
 20
-0.8507
 30
0.0
 10
-9.1388
 20
-0.8507
 30
0.0
 10
-9.0071
 20
-0.7104
 30
0.0
 10
-8.9397
 20
-0.5126
 30
0.0
 10
-8.9372
 20
-0.2572
 30
0.0
 10
-8.9372
 20
-0.2572
 30
0.0
 10
-8.9353
 20
-0.0663
 30
0.0
 10
-8.9727
 20
0.103
 30
0.0
 10
-9.0493
 20
0.2495
 30
0.0
  0
SPLINE
  5
8E
330
1F
100
AcDbEntity
  8
DEFAULT_1
 62
   250
100
AcDbSpline
210
0.0
220
0.0
230
1.0
 70
    11
 71
     3
 72
    48
 73
    44
 74
     0
 42
0.0000000001
 43
0.0000000001
 40
0.0
 40
0.0
 40
0.0
 40
0.0
 40
0.0833333333333333
 40
0.0833333333333333
 40
0.0833333333333333
 40
0.0833333333333333
 40
0.1666666666666667
 40
0.1666666666666667
 40
0.1666666666666667
 40
0.1666666666666667
 40
0.25
 40
0.25
 40
0.25
 40
0.25
 40
0.3333333333333333
 40
0.3333333333333333
 40
0.3333333333333333
 40
0.3333333333333333
 40
0.4166666666666667
 40
0.4166666666666667
 40
0.4166666666666667
 40
0.4166666666666667
 40
0.5
 40
0.5
 40
0.5
 40
0.5
 40
0.5833333333333334
 40
0.5833333333333334
 40
0.5833333333333334
 40
0.5833333333333334
 40
0.6666666666666666
 40
0.6666666666666666
 40
0.6666666666666666
 40
0.6666666666666666
 40
0.75
 40
0.75
 40
0.75
 40
0.75
 40
0.8333333333333334
 40
0.8333333333333334
 40
0.8333333333333334
 40
0.8333333333333334
 40
1.0
 40
1.0
 40
1.0
 40
1.0
 10
-7.6273
 20
-1.2721
 30
0.0
 10
-7.6273
 20
-1.2721
 30
0.0
 10
-7.6226
 20
-0.7886
 30
0.0
 10
-7.6226
 20
-0.7886
 30
0.0
 10
-7.6226
 20
-0.7886
 30
0.0
 10
-7.6226
 20
-0.7886
 30
0.0
 10
-8.4988
 20
-0.7799
 30
0.0
 10
-8.4988
 20
-0.7799
 30
0.0
 10
-8.4988
 20
-0.7799
 30
0.0
 10
-8.4988
 20
-0.7799
 30
0.0
 10
-8.4966
 20
-0.5523
 30
0.0
 10
-8.4966
 20
-0.5523
 30
0.0
 10
-8.4966
 20
-0.5523
 30
0.0
 10
-8.4966
 20
-0.5523
 30
0.0
 10
-7.5617
 20
0.7476
 30
0.0
 10
-7.5617
 20
0.7476
 30
0.0
 10
-7.5617
 20
0.7476
 30
0.0
 10
-7.5617
 20
0.7476
 30
0.0
 10
-7.359
 20
0.7456
 30
0.0
 10
-7.359
 20
0.7456
 30
0.0
 10
-7.359
 20
0.7456
 30
0.0
 10
-7.359
 20
0.7456
 30
0.0
 10
-7.3719
 20
-0.5633
 30
0.0
 10
-7.3719
 20
-0.5633
 30
0.0
 10
-7.3719
 20
-0.5633
 30
0.0
 10
-7.3719
 20
-0.5633
 30
0.0
 10
-7.0992
 20
-0.566
 30
0.0
 10
-7.0992
 20
-0.566
 30
0.0
 10
-7.0992
 20
-0.566
 30
0.0
 10
-7.0992
 20
-0.566
 30
0.0
 10
-7.1014
 20
-0.7937
 30
0.0
 10
-7.1014
 20
-0.7937
 30
0.0
 10
-7.1014
 20
-0.7937
 30
0.0
 10
-7.1014
 20
-0.7937
 30
0.0
 10
-7.3742
 20
-0.791
 30
0.0
 10
-7.3742
 20
-0.791
 30
0.0
 10
-7.3742
 20
-0.791
 30
0.0
 10
-7.3742
 20
-0.791
 30
0.0
 10
-7.379
 20
-1.2745
 30
0.0
 10
-7.379
 20
-1.2745
 30
0.0
 10
-7.379
 20
-1.2745
 30
0.0
 10
-7.379
 20
-1.2745
 30
0.0
 10
-7.6273
 20
-1.2721
 30
0.0
 10
-7.6273
 20
-1.2721
 30
0.0
  0
SPLINE
  5
8F
330
1F
100
AcDbEntity
  8
DEFAULT_1
 62
   250
100
AcDbSpline
210
0.0
220
0.0
230
1.0
 70
    11
 71
     3
 72
    16
 73
    12
 74
     0
 42
0.0000000001
 43
0.0000000001
 40
0.0
 40
0.0
 40
0.0
 40
0.0
 40
0.25
 40
0.25
 40
0.25
 40
0.25
 40
0.5
 40
0.5
 40
0.5
 40
0.5
 40
1.0
 40
1.0
 40
1.0
 40
1.0
 10
-7.6203
 20
-0.5609
 30
0.0
 10
-7.6203
 20
-0.5609
 30
0.0
 10
-7.6114
 20
0.3497
 30
0.0
 10
-7.6114
 20
0.3497
 30
0.0
 10
-7.6114
 20
0.3497
 30
0.0
 10
-7.6114
 20
0.3497
 30
0.0
 10
-8.2524
 20
-0.5547
 30
0.0
 10
-8.2524
 20
-0.5547
 30
0.0
 10
-8.2524
 20
-0.5547
 30
0.0
 10
-8.2524
 20
-0.5547
 30
0.0
 10
-7.6203
 20
-0.5609
 30
0.0
 10
-7.6203
 20
-0.5609
 30
0.0
  0
SPLINE
  5
90
330
1F
100
AcDbEntity
  8
DEFAULT_1
 62
   250
100
AcDbSpline
210
0.0
220
0.0
230
1.0
 70
    11
 71
     3
 72
    52
 73
    48
 74
     0
 42
0.0000000001
 43
0.0000000001
 40
0.0
 40
0.0
 40
0.0
 40
0.0
 40
0.0769230769230769
 40
0.0769230769230769
 40
0.0769230769230769
 40
0.0769230769230769
 40
0.1538461538461539
 40
0.1538461538461539
 40
0.1538461538461539
 40
0.1538461538461539
 40
0.2307692307692308
 40
0.2307692307692308
 40
0.2307692307692308
 40
0.2307692307692308
 40
0.3076923076923077
 40
0.3076923076923077
 40
0.3076923076923077
 40
0.3076923076923077
 40
0.3846153846153846
 40
0.3846153846153846
 40
0.3846153846153846
 40
0.3846153846153846
 40
0.4615384615384616
 40
0.4615384615384616
 40
0.4615384615384616
 40
0.4615384615384616
 40
0.5384615384615384
 40
0.5384615384615384
 40
0.5384615384615384
 40
0.5384615384615384
 40
0.6153846153846154
 40
0.6153846153846154
 40
0.6153846153846154
 40
0.6153846153846154
 40
0.6923076923076923
 40
0.6923076923076923
 40
0.6923076923076923
 40
0.6923076923076923
 40
0.7692307692307693
 40
0.7692307692307693
 40
0.7692307692307693
 40
0.7692307692307693
 40
0.8461538461538461
 40
0.8461538461538461
 40
0.8461538461538461
 40
0.8461538461538461
 40
1.0
 40
1.0
 40
1.0
 40
1.0
 10
-6.8429
 20
-0.2836
 30
0.0
 10
-6.8405
 20
-0.0446
 30
0.0
 10
-6.8141
 20
0.1476
 30
0.0
 10
-6.7633
 20
0.2924
 30
0.0
 10
-6.7633
 20
0.2924
 30
0.0
 10
-6.7129
 20
0.4377
 30
0.0
 10
-6.6384
 20
0.5494
 30
0.0
 10
-6.5408
 20
0.6275
 30
0.0
 10
-6.5408
 20
0.6275
 30
0.0
 10
-6.4431
 20
0.7056
 30
0.0
 10
-6.3209
 20
0.7439
 30
0.0
 10
-6.1742
 20
0.7424
 30
0.0
 10
-6.1742
 20
0.7424
 30
0.0
 10
-6.0655
 20
0.7413
 30
0.0
 10
-5.9707
 20
0.7183
 30
0.0
 10
-5.8894
 20
0.6737
 30
0.0
 10
-5.8894
 20
0.6737
 30
0.0
 10
-5.8079
 20
0.6297
 30
0.0
 10
-5.7412
 20
0.5659
 30
0.0
 10
-5.6884
 20
0.4831
 30
0.0
 10
-5.6884
 20
0.4831
 30
0.0
 10
-5.6362
 20
0.4003
 30
0.0
 10
-5.5952
 20
0.2997
 30
0.0
 10
-5.5663
 20
0.1814
 30
0.0
 10
-5.5663
 20
0.1814
 30
0.0
 10
-5.5369
 20
0.063
 30
0.0
 10
-5.5234
 20
-0.0962
 30
0.0
 10
-5.5254
 20
-0.2965
 30
0.0
 10
-5.5254
 20
-0.2965
 30
0.0
 10
-5.5278
 20
-0.5335
 30
0.0
 10
-5.554
 20
-0.7243
 30
0.0
 10
-5.604
 20
-0.8696
 30
0.0
 10
-5.604
 20
-0.8696
 30
0.0
 10
-5.6543
 20
-1.0149
 30
0.0
 10
-5.7283
 20
-1.1266
 30
0.0
 10
-5.826
 20
-1.2051
 30
0.0
 10
-5.826
 20
-1.2051
 30
0.0
 10
-5.9237
 20
-1.2837
 30
0.0
 10
-6.0464
 20
-1.322
 30
0.0
 10
-6.1946
 20
-1.3205
 30
0.0
 10
-6.1946
 20
-1.3205
 30
0.0
 10
-6.3892
 20
-1.3186
 30
0.0
 10
-6.5415
 20
-1.2475
 30
0.0
 10
-6.6511
 20
-1.1067
 30
0.0
 10
-6.6511
 20
-1.1067
 30
0.0
 10
-6.7825
 20
-0.9375
 30
0.0
 10
-6.8466
 20
-0.6626
 30
0.0
 10
-6.8429
 20
-0.2836
 30
0.0
  0
SPLINE
  5
91
330
1F
100
AcDbEntity
  8
DEFAULT_1
 62
   250
100
AcDbSpline
210
0.0
220
0.0
230
1.0
 70
    11
 71
     3
 72
    36
 73
    32
 74
     0
 42
0.0000000001
 43
0.0000000001
 40
0.0
 40
0.0
 40
0.0
 40
0.0
 40
0.1111111111111111
 40
0.1111111111111111
 40
0.1111111111111111
 40
0.1111111111111111
 40
0.2222222222222222
 40
0.2222222222222222
 40
0.2222222222222222
 40
0.2222222222222222
 40
0.3333333333333333
 40
0.3333333333333333
 40
0.3333333333333333
 40
0.3333333333333333
 40
0.4444444444444444
 40
0.4444444444444444
 40
0.4444444444444444
 40
0.4444444444444444
 40
0.5555555555555556
 40
0.5555555555555556
 40
0.5555555555555556
 40
0.5555555555555556
 40
0.6666666666666666
 40
0.6666666666666666
 40
0.6666666666666666
 40
0.6666666666666666
 40
0.7777777777777778
 40
0.7777777777777778
 40
0.7777777777777778
 40
0.7777777777777778
 40
1.0
 40
1.0
 40
1.0
 40
1.0
 10
-6.5879
 20
-0.2861
 30
0.0
 10
-6.5911
 20
-0.6177
 30
0.0
 10
-6.5543
 20
-0.8386
 30
0.0
 10
-6.4778
 20
-0.9494
 30
0.0
 10
-6.4778
 20
-0.9494
 30
0.0
 10
-6.4013
 20
-1.0597
 30
0.0
 10
-6.3063
 20
-1.1158
 30
0.0
 10
-6.1925
 20
-1.1169
 30
0.0
 10
-6.1925
 20
-1.1169
 30
0.0
 10
-6.0783
 20
-1.118
 30
0.0
 10
-5.9822
 20
-1.0635
 30
0.0
 10
-5.9035
 20
-0.9541
 30
0.0
 10
-5.9035
 20
-0.9541
 30
0.0
 10
-5.8248
 20
-0.8448
 30
0.0
 10
-5.7836
 20
-0.6246
 30
0.0
 10
-5.7803
 20
-0.294
 30
0.0
 10
-5.7803
 20
-0.294
 30
0.0
 10
-5.777
 20
0.0386
 30
0.0
 10
-5.814
 20
0.26
 30
0.0
 10
-5.8905
 20
0.3699
 30
0.0
 10
-5.8905
 20
0.3699
 30
0.0
 10
-5.967
 20
0.4802
 30
0.0
 10
-6.0628
 20
0.5357
 30
0.0
 10
-6.1785
 20
0.5368
 30
0.0
 10
-6.1785
 20
0.5368
 30
0.0
 10
-6.2928
 20
0.538
 30
0.0
 10
-6.3841
 20
0.4905
 30
0.0
 10
-6.4533
 20
0.3947
 30
0.0
 10
-6.4533
 20
0.3947
 30
0.0
 10
-6.5396
 20
0.2728
 30
0.0
 10
-6.5846
 20
0.0455
 30
0.0
 10
-6.5879
 20
-0.2861
 30
0.0
  0
SPLINE
  5
92
330
1F
100
AcDbEntity
  8
DEFAULT_1
 62
   250
100
AcDbSpline
210
0.0
220
0.0
230
1.0
 70
    24
 71
     3
 72
     8
 73
     4
 74
     0
 42
0.0000000001
 43
0.0000000001
 40
0.0
 40
0.0
 40
0.0
 40
0.0
 40
1.0
 40
1.0
 40
1.0
 40
1.0
 10
-13.6478
 20
-13.4613
 30
0.0
 10
-13.6478
 20
-13.4613
 30
0.0
 10
-14.1088
 20
-10.3378
 30
0.0
 10
-14.1088
 20
-10.3378
 30
0.0
  0
SPLINE
  5
93
330
1F
100
AcDbEntity
  8
DEFAULT_1
 62
   250
100
AcDbSpline
210
0.0
220
0.0
230
1.0
 70
     8
 71
     3
 72
    12
 73
     8
 74
     0
 42
0.0000000001
 43
0.0000000001
 40
0.0
 40
0.0
 40
0.0
 40
0.0
 40
0.3333333333333333
 40
0.3333333333333333
 40
0.3333333333333333
 40
0.3333333333333333
 40
1.0
 40
1.0
 40
1.0
 40
1.0
 10
-14.1088
 20
-10.3378
 30
0.0
 10
-14.1088
 20
-10.3378
 30
0.0
 10
-13.1868
 20
-10.3378
 30
0.0
 10
-13.1868
 20
-10.3378
 30
0.0
 10
-13.1868
 20
-10.3378
 30
0.0
 10
-13.1868
 20
-10.3378
 30
0.0
 10
-13.6478
 20
-13.4613
 30
0.0
 10
-13.6478
 20
-13.4613
 30
0.0
  0
SPLINE
  5
94
330
1F
100
AcDbEntity
  8
DEFAULT_1
 62
   250
100
AcDbSpline
210
0.0
220
0.0
230
1.0
 70
    11
 71
     3
 72
    20
 73
    16
 74
     0
 42
0.0000000001
 43
0.0000000001
 40
0.0
 40
0.0
 40
0.0
 40
0.0
 40
0.2
 40
0.2
 40
0.2
 40
0.2
 40
0.4
 40
0.4
 40
0.4
 40
0.4
 40
0.6
 40
0.6
 40
0.6
 40
0.6
 40
1.0
 40
1.0
 40
1.0
 40
1.0
 10
-14.056
 20
14.3731
 30
0.0
 10
-14.056
 20
14.3731
 30
0.0
 10
-13.7031
 20
16.8731
 30
0.0
 10
-13.7031
 20
16.8731
 30
0.0
 10
-13.7031
 20
16.8731
 30
0.0
 10
-13.7031
 20
16.8731
 30
0.0
 10
-13.6248
 20
16.8731
 30
0.0
 10
-13.6248
 20
16.8731
 30
0.0
 10
-13.6248
 20
16.8731
 30
0.0
 10
-13.6248
 20
16.8731
 30
0.0
 10
-13.2485
 20
14.3731
 30
0.0
 10
-13.2485
 20
14.3731
 30
0.0
 10
-13.2485
 20
14.3731
 30
0.0
 10
-13.2485
 20
14.3731
 30
0.0
 10
-14.056
 20
14.3731
 30
0.0
 10
-14.056
 20
14.3731
 30
0.0
  0
SPLINE
  5
95
330
1F
100
AcDbEntity
  8
DEFAULT_1
 62
   250
100
AcDbSpline
210
0.0
220
0.0
230
1.0
 70
    24
 71
     3
 72
     8
 73
     4
 74
     0
 42
0.0000000001
 43
0.0000000001
 40
0.0
 40
0.0
 40
0.0
 40
0.0
 40
1.0
 40
1.0
 40
1.0
 40
1.0
 10
16.0747
 20
-9.9086
 30
0.0
 10
16.0747
 20
-9.9086
 30
0.0
 10
15.6137
 20
-6.7851
 30
0.0
 10
15.6137
 20
-6.7851
 30
0.0
  0
SPLINE
  5
96
330
1F
100
AcDbEntity
  8
DEFAULT_1
 62
   250
100
AcDbSpline
210
0.0
220
0.0
230
1.0
 70
     8
 71
     3
 72
    12
 73
     8
 74
     0
 42
0.0000000001
 43
0.0000000001
 40
0.0
 40
0.0
 40
0.0
 40
0.0
 40
0.3333333333333333
 40
0.3333333333333333
 40
0.3333333333333333
 40
0.3333333333333333
 40
1.0
 40
1.0
 40
1.0
 40
1.0
 10
15.6137
 20
-6.7851
 30
0.0
 10
15.6137
 20
-6.7851
 30
0.0
 10
16.5357
 20
-6.7851
 30
0.0
 10
16.5357
 20
-6.7851
 30
0.0
 10
16.5357
 20
-6.7851
 30
0.0
 10
16.5357
 20
-6.7851
 30
0.0
 10
16.0747
 20
-9.9086
 30
0.0
 10
16.0747
 20
-9.9086
 30
0.0
  0
SPLINE
  5
97
330
1F
100
AcDbEntity
  8
DEFAULT_1
 62
   250
100
AcDbSpline
210
0.0
220
0.0
230
1.0
 70
    11
 71
     3
 72
    20
 73
    16
 74
     0
 42
0.0000000001
 43
0.0000000001
 40
0.0
 40
0.0
 40
0.0
 40
0.0
 40
0.2
 40
0.2
 40
0.2
 40
0.2
 40
0.4
 40
0.4
 40
0.4
 40
0.4
 40
0.6
 40
0.6
 40
0.6
 40
0.6
 40
1.0
 40
1.0
 40
1.0
 40
1.0
 10
11.669
 20
-19.209
 30
0.0
 10
11.669
 20
-19.209
 30
0.0
 10
12.0219
 20
-16.709
 30
0.0
 10
12.0219
 20
-16.709
 30
0.0
 10
12.0219
 20
-16.709
 30
0.0
 10
12.0219
 20
-16.709
 30
0.0
 10
12.1002
 20
-16.709
 30
0.0
 10
12.1002
 20
-16.709
 30
0.0
 10
12.1002
 20
-16.709
 30
0.0
 10
12.1002
 20
-16.709
 30
0.0
 10
12.4765
 20
-19.209
 30
0.0
 10
12.4765
 20
-19.209
 30
0.0
 10
12.4765
 20
-19.209
 30
0.0
 10
12.4765
 20
-19.209
 30
0.0
 10
11.669
 20
-19.209
 30
0.0
 10
11.669
 20
-19.209
 30
0.0
  0
SPLINE
  5
98
330
1F
100
AcDbEntity
  8
DEFAULT_1
 62
   250
100
AcDbSpline
210
0.0
220
0.0
230
1.0
 70
    11
 71
     3
 72
    20
 73
    16
 74
     0
 42
0.0000000001
 43
0.0000000001
 40
0.0
 40
0.0
 40
0.0
 40
0.0
 40
0.2
 40
0.2
 40
0.2
 40
0.2
 40
0.4
 40
0.4
 40
0.4
 40
0.4
 40
0.6
 40
0.6
 40
0.6
 40
0.6
 40
1.0
 40
1.0
 40
1.0
 40
1.0
 10
15.6878
 20
-19.9842
 30
0.0
 10
15.6878
 20
-19.9842
 30
0.0
 10
16.0407
 20
-17.4842
 30
0.0
 10
16.0407
 20
-17.4842
 30
0.0
 10
16.0407
 20
-17.4842
 30
0.0
 10
16.0407
 20
-17.4842
 30
0.0
 10
16.119
 20
-17.4842
 30
0.0
 10
16.119
 20
-17.4842
 30
0.0
 10
16.119
 20
-17.4842
 30
0.0
 10
16.119
 20
-17.4842
 30
0.0
 10
16.4953
 20
-19.9842
 30
0.0
 10
16.4953
 20
-19.9842
 30
0.0
 10
16.4953
 20
-19.9842
 30
0.0
 10
16.4953
 20
-19.9842
 30
0.0
 10
15.6878
 20
-19.9842
 30
0.0
 10
15.6878
 20
-19.9842
 30
0.0
  0
SPLINE
  5
99
330
1F
100
AcDbEntity
  8
DEFAULT_1
 62
   250
100
AcDbSpline
210
0.0
220
0.0
230
1.0
 70
    24
 71
     3
 72
     8
 73
     4
 74
     0
 42
0.0000000001
 43
0.0000000001
 40
0.0
 40
0.0
 40
0.0
 40
0.0
 40
1.0
 40
1.0
 40
1.0
 40
1.0
 10
12.0747
 20
-10.6446
 30
0.0
 10
12.0747
 20
-10.6446
 30
0.0
 10
11.6137
 20
-7.5211
 30
0.0
 10
11.6137
 20
-7.5211
 30
0.0
  0
SPLINE
  5
9A
330
1F
100
AcDbEntity
  8
DEFAULT_1
 62
   250
100
AcDbSpline
210
0.0
220
0.0
230
1.0
 70
     8
 71
     3
 72
    12
 73
     8
 74
     0
 42
0.0000000001
 43
0.0000000001
 40
0.0
 40
0.0
 40
0.0
 40
0.0
 40
0.3333333333333333
 40
0.3333333333333333
 40
0.3333333333333333
 40
0.3333333333333333
 40
1.0
 40
1.0
 40
1.0
 40
1.0
 10
11.6137
 20
-7.5211
 30
0.0
 10
11.6137
 20
-7.5211
 30
0.0
 10
12.5357
 20
-7.5211
 30
0.0
 10
12.5357
 20
-7.5211
 30
0.0
 10
12.5357
 20
-7.5211
 30
0.0
 10
12.5357
 20
-7.5211
 30
0.0
 10
12.0747
 20
-10.6446
 30
0.0
 10
12.0747
 20
-10.6446
 30
0.0
  0
SPLINE
  5
9B
330
1F
100
AcDbEntity
  8
DEFAULT_1
 62
   250
100
AcDbSpline
210
0.0
220
0.0
230
1.0
 70
    11
 71
     3
 72
   164
 73
   160
 74
     0
 42
0.0000000001
 43
0.0000000001
 40
0.0
 40
0.0
 40
0.0
 40
0.0
 40
0.024390243902439
 40
0.024390243902439
 40
0.024390243902439
 40
0.024390243902439
 40
0.0487804878048781
 40
0.0487804878048781
 40
0.0487804878048781
 40
0.0487804878048781
 40
0.0731707317073171
 40
0.0731707317073171
 40
0.0731707317073171
 40
0.0731707317073171
 40
0.0975609756097561
 40
0.0975609756097561
 40
0.0975609756097561
 40
0.0975609756097561
 40
0.1219512195121951
 40
0.1219512195121951
 40
0.1219512195121951
 40
0.1219512195121951
 40
0.1463414634146341
 40
0.1463414634146341
 40
0.1463414634146341
 40
0.1463414634146341
 40
0.1707317073170732
 40
0.1707317073170732
 40
0.1707317073170732
 40
0.1707317073170732
 40
0.1951219512195122
 40
0.1951219512195122
 40
0.1951219512195122
 40
0.1951219512195122
 40
0.2195121951219512
 40
0.2195121951219512
 40
0.2195121951219512
 40
0.2195121951219512
 40
0.2439024390243902
 40
0.2439024390243902
 40
0.2439024390243902
 40
0.2439024390243902
 40
0.2682926829268293
 40
0.2682926829268293
 40
0.2682926829268293
 40
0.2682926829268293
 40
0.2926829268292683
 40
0.2926829268292683
 40
0.2926829268292683
 40
0.2926829268292683
 40
0.3170731707317073
 40
0.3170731707317073
 40
0.3170731707317073
 40
0.3170731707317073
 40
0.3414634146341464
 40
0.3414634146341464
 40
0.3414634146341464
 40
0.3414634146341464
 40
0.3658536585365854
 40
0.3658536585365854
 40
0.3658536585365854
 40
0.3658536585365854
 40
0.3902439024390244
 40
0.3902439024390244
 40
0.3902439024390244
 40
0.3902439024390244
 40
0.4146341463414634
 40
0.4146341463414634
 40
0.4146341463414634
 40
0.4146341463414634
 40
0.4390243902439024
 40
0.4390243902439024
 40
0.4390243902439024
 40
0.4390243902439024
 40
0.4634146341463415
 40
0.4634146341463415
 40
0.4634146341463415
 40
0.4634146341463415
 40
0.4878048780487805
 40
0.4878048780487805
 40
0.4878048780487805
 40
0.4878048780487805
 40
0.5121951219512195
 40
0.5121951219512195
 40
0.5121951219512195
 40
0.5121951219512195
 40
0.5365853658536586
 40
0.5365853658536586
 40
0.5365853658536586
 40
0.5365853658536586
 40
0.5609756097560976
 40
0.5609756097560976
 40
0.5609756097560976
 40
0.5609756097560976
 40
0.5853658536585366
 40
0.5853658536585366
 40
0.5853658536585366
 40
0.5853658536585366
 40
0.6097560975609756
 40
0.6097560975609756
 40
0.6097560975609756
 40
0.6097560975609756
 40
0.6341463414634146
 40
0.6341463414634146
 40
0.6341463414634146
 40
0.6341463414634146
 40
0.6585365853658537
 40
0.6585365853658537
 40
0.6585365853658537
 40
0.6585365853658537
 40
0.6829268292682927
 40
0.6829268292682927
 40
0.6829268292682927
 40
0.6829268292682927
 40
0.7073170731707317
 40
0.7073170731707317
 40
0.7073170731707317
 40
0.7073170731707317
 40
0.7317073170731707
 40
0.7317073170731707
 40
0.7317073170731707
 40
0.7317073170731707
 40
0.7560975609756098
 40
0.7560975609756098
 40
0.7560975609756098
 40
0.7560975609756098
 40
0.7804878048780488
 40
0.7804878048780488
 40
0.7804878048780488
 40
0.7804878048780488
 40
0.8048780487804879
 40
0.8048780487804879
 40
0.8048780487804879
 40
0.8048780487804879
 40
0.8292682926829268
 40
0.8292682926829268
 40
0.8292682926829268
 40
0.8292682926829268
 40
0.8536585365853658
 40
0.8536585365853658
 40
0.8536585365853658
 40
0.8536585365853658
 40
0.8780487804878049
 40
0.8780487804878049
 40
0.8780487804878049
 40
0.8780487804878049
 40
0.9024390243902439
 40
0.9024390243902439
 40
0.9024390243902439
 40
0.9024390243902439
 40
0.926829268292683
 40
0.926829268292683
 40
0.926829268292683
 40
0.926829268292683
 40
0.9512195121951219
 40
0.9512195121951219
 40
0.9512195121951219
 40
0.9512195121951219
 40
1.0
 40
1.0
 40
1.0
 40
1.0
 10
-0.5646
 20
9.2434
 30
0.0
 10
-0.5646
 20
9.2434
 30
0.0
 10
1.9291
 20
9.2434
 30
0.0
 10
1.9291
 20
9.2434
 30
0.0
 10
1.9291
 20
9.2434
 30
0.0
 10
1.9291
 20
9.2434
 30
0.0
 10
1.9166
 20
8.1389
 30
0.0
 10
1.9166
 20
8.1389
 30
0.0
 10
1.9166
 20
8.1389
 30
0.0
 10
1.9166
 20
8.1389
 30
0.0
 10
1.9869
 20
7.9746
 30
0.0
 10
1.9869
 20
7.9746
 30
0.0
 10
1.9869
 20
7.9746
 30
0.0
 10
1.9869
 20
7.9746
 30
0.0
 10
2.1188
 20
7.8536
 30
0.0
 10
2.1188
 20
7.8536
 30
0.0
 10
2.1188
 20
7.8536
 30
0.0
 10
2.1188
 20
7.8536
 30
0.0
 10
2.2154
 20
7.8709
 30
0.0
 10
2.2154
 20
7.8709
 30
0.0
 10
2.2154
 20
7.8709
 30
0.0
 10
2.2154
 20
7.8709
 30
0.0
 10
2.2946
 20
7.94
 30
0.0
 10
2.2946
 20
7.94
 30
0.0
 10
2.2946
 20
7.94
 30
0.0
 10
2.2946
 20
7.94
 30
0.0
 10
2.3386
 20
8.0524
 30
0.0
 10
2.3386
 20
8.0524
 30
0.0
 10
2.3386
 20
8.0524
 30
0.0
 10
2.3386
 20
8.0524
 30
0.0
 10
2.3825
 20
8.2081
 30
0.0
 10
2.3825
 20
8.2081
 30
0.0
 10
2.3825
 20
8.2081
 30
0.0
 10
2.3825
 20
8.2081
 30
0.0
 10
2.3825
 20
9.2367
 30
0.0
 10
2.3825
 20
9.2367
 30
0.0
 10
2.3825
 20
9.2367
 30
0.0
 10
2.3825
 20
9.2367
 30
0.0
 10
3.3581
 20
9.2454
 30
0.0
 10
3.3581
 20
9.2454
 30
0.0
 10
3.3581
 20
9.2454
 30
0.0
 10
3.3581
 20
9.2454
 30
0.0
 10
3.3406
 20
7.3608
 30
0.0
 10
3.3406
 20
7.3608
 30
0.0
 10
3.3406
 20
7.3608
 30
0.0
 10
3.3406
 20
7.3608
 30
0.0
 10
3.2966
 20
7.2485
 30
0.0
 10
3.2966
 20
7.2485
 30
0.0
 10
3.2966
 20
7.2485
 30
0.0
 10
3.2966
 20
7.2485
 30
0.0
 10
3.1999
 20
7.162
 30
0.0
 10
3.1999
 20
7.162
 30
0.0
 10
3.1999
 20
7.162
 30
0.0
 10
3.1999
 20
7.162
 30
0.0
 10
3.1209
 20
7.1188
 30
0.0
 10
3.1209
 20
7.1188
 30
0.0
 10
3.1209
 20
7.1188
 30
0.0
 10
3.1209
 20
7.1188
 30
0.0
 10
3.0065
 20
7.0841
 30
0.0
 10
3.0065
 20
7.0841
 30
0.0
 10
3.0065
 20
7.0841
 30
0.0
 10
3.0065
 20
7.0841
 30
0.0
 10
-4.7876
 20
7.0779
 30
0.0
 10
-4.7876
 20
7.0779
 30
0.0
 10
-4.7876
 20
7.0779
 30
0.0
 10
-4.7876
 20
7.0779
 30
0.0
 10
-4.9479
 20
7.1379
 30
0.0
 10
-4.9479
 20
7.1379
 30
0.0
 10
-4.9479
 20
7.1379
 30
0.0
 10
-4.9479
 20
7.1379
 30
0.0
 10
-5.0564
 20
7.2292
 30
0.0
 10
-5.0564
 20
7.2292
 30
0.0
 10
-5.0564
 20
7.2292
 30
0.0
 10
-5.0564
 20
7.2292
 30
0.0
 10
-5.0873
 20
7.3892
 30
0.0
 10
-5.0873
 20
7.3892
 30
0.0
 10
-5.0873
 20
7.3892
 30
0.0
 10
-5.0873
 20
7.3892
 30
0.0
 10
-5.0873
 20
9.2633
 30
0.0
 10
-5.0873
 20
9.2633
 30
0.0
 10
-5.0873
 20
9.2633
 30
0.0
 10
-5.0873
 20
9.2633
 30
0.0
 10
-4.0959
 20
9.2557
 30
0.0
 10
-4.0959
 20
9.2557
 30
0.0
 10
-4.0959
 20
9.2557
 30
0.0
 10
-4.0959
 20
9.2557
 30
0.0
 10
-4.1191
 20
8.1663
 30
0.0
 10
-4.1191
 20
8.1663
 30
0.0
 10
-4.1191
 20
8.1663
 30
0.0
 10
-4.1191
 20
8.1663
 30
0.0
 10
-4.0649
 20
7.9605
 30
0.0
 10
-4.0649
 20
7.9605
 30
0.0
 10
-4.0649
 20
7.9605
 30
0.0
 10
-4.0649
 20
7.9605
 30
0.0
 10
-4.0029
 20
7.8692
 30
0.0
 10
-4.0029
 20
7.8692
 30
0.0
 10
-4.0029
 20
7.8692
 30
0.0
 10
-4.0029
 20
7.8692
 30
0.0
 10
-3.9332
 20
7.8692
 30
0.0
 10
-3.9332
 20
7.8692
 30
0.0
 10
-3.9332
 20
7.8692
 30
0.0
 10
-3.9332
 20
7.8692
 30
0.0
 10
-3.8558
 20
7.8692
 30
0.0
 10
-3.8558
 20
7.8692
 30
0.0
 10
-3.8558
 20
7.8692
 30
0.0
 10
-3.8558
 20
7.8692
 30
0.0
 10
-3.7473
 20
7.9529
 30
0.0
 10
-3.7473
 20
7.9529
 30
0.0
 10
-3.7473
 20
7.9529
 30
0.0
 10
-3.7473
 20
7.9529
 30
0.0
 10
-3.6776
 20
8.0825
 30
0.0
 10
-3.6776
 20
8.0825
 30
0.0
 10
-3.6776
 20
8.0825
 30
0.0
 10
-3.6776
 20
8.0825
 30
0.0
 10
-3.6776
 20
8.1587
 30
0.0
 10
-3.6776
 20
8.1587
 30
0.0
 10
-3.6776
 20
8.1587
 30
0.0
 10
-3.6776
 20
8.1587
 30
0.0
 10
-3.6776
 20
9.2404
 30
0.0
 10
-3.6776
 20
9.2404
 30
0.0
 10
-3.6776
 20
9.2404
 30
0.0
 10
-3.6776
 20
9.2404
 30
0.0
 10
-1.1604
 20
9.2404
 30
0.0
 10
-1.1604
 20
9.2404
 30
0.0
 10
-1.1604
 20
9.2404
 30
0.0
 10
-1.1604
 20
9.2404
 30
0.0
 10
-1.1604
 20
8.1815
 30
0.0
 10
-1.1604
 20
8.1815
 30
0.0
 10
-1.1604
 20
8.1815
 30
0.0
 10
-1.1604
 20
8.1815
 30
0.0
 10
-1.1294
 20
8.0367
 30
0.0
 10
-1.1294
 20
8.0367
 30
0.0
 10
-1.1294
 20
8.0367
 30
0.0
 10
-1.1294
 20
8.0367
 30
0.0
 10
-1.0519
 20
7.9302
 30
0.0
 10
-1.0519
 20
7.9302
 30
0.0
 10
-1.0519
 20
7.9302
 30
0.0
 10
-1.0519
 20
7.9302
 30
0.0
 10
-0.9048
 20
7.8844
 30
0.0
 10
-0.9048
 20
7.8844
 30
0.0
 10
-0.9048
 20
7.8844
 30
0.0
 10
-0.9048
 20
7.8844
 30
0.0
 10
-0.7575
 20
7.9073
 30
0.0
 10
-0.7575
 20
7.9073
 30
0.0
 10
-0.7575
 20
7.9073
 30
0.0
 10
-0.7575
 20
7.9073
 30
0.0
 10
-0.6492
 20
7.9529
 30
0.0
 10
-0.6492
 20
7.9529
 30
0.0
 10
-0.6492
 20
7.9529
 30
0.0
 10
-0.6492
 20
7.9529
 30
0.0
 10
-0.5872
 20
8.0215
 30
0.0
 10
-0.5872
 20
8.0215
 30
0.0
 10
-0.5872
 20
8.0215
 30
0.0
 10
-0.5872
 20
8.0215
 30
0.0
 10
-0.5562
 20
8.0901
 30
0.0
 10
-0.5562
 20
8.0901
 30
0.0
 10
-0.5562
 20
8.0901
 30
0.0
 10
-0.5562
 20
8.0901
 30
0.0
 10
-0.5646
 20
9.2434
 30
0.0
 10
-0.5646
 20
9.2434
 30
0.0
  0
SPLINE
  5
9C
330
1F
100
AcDbEntity
  8
DEFAULT_1
 62
   250
100
AcDbSpline
210
0.0
220
0.0
230
1.0
 70
    11
 71
     3
 72
    28
 73
    24
 74
     0
 42
0.0000000001
 43
0.0000000001
 40
0.0
 40
0.0
 40
0.0
 40
0.0
 40
0.1428571428571428
 40
0.1428571428571428
 40
0.1428571428571428
 40
0.1428571428571428
 40
0.2857142857142857
 40
0.2857142857142857
 40
0.2857142857142857
 40
0.2857142857142857
 40
0.4285714285714285
 40
0.4285714285714285
 40
0.4285714285714285
 40
0.4285714285714285
 40
0.5714285714285714
 40
0.5714285714285714
 40
0.5714285714285714
 40
0.5714285714285714
 40
0.7142857142857143
 40
0.7142857142857143
 40
0.7142857142857143
 40
0.7142857142857143
 40
1.0
 40
1.0
 40
1.0
 40
1.0
 10
3.4149
 20
7.8591
 30
0.0
 10
3.4149
 20
7.8591
 30
0.0
 10
3.4149
 20
9.7049
 30
0.0
 10
3.4149
 20
9.7049
 30
0.0
 10
3.4149
 20
9.7049
 30
0.0
 10
3.4149
 20
9.7049
 30
0.0
 10
-5.1682
 20
9.7049
 30
0.0
 10
-5.1682
 20
9.7049
 30
0.0
 10
-5.1682
 20
9.7049
 30
0.0
 10
-5.1682
 20
9.7049
 30
0.0
 10
-5.1682
 20
7.8591
 30
0.0
 10
-5.1682
 20
7.8591
 30
0.0
 10
-5.1682
 20
7.8591
 30
0.0
 10
-5.1682
 20
7.8591
 30
0.0
 10
-5.1682
 20
9.7049
 30
0.0
 10
-5.1682
 20
9.7049
 30
0.0
 10
-5.1682
 20
9.7049
 30
0.0
 10
-5.1682
 20
9.7049
 30
0.0
 10
3.4149
 20
9.7049
 30
0.0
 10
3.4149
 20
9.7049
 30
0.0
 10
3.4149
 20
9.7049
 30
0.0
 10
3.4149
 20
9.7049
 30
0.0
 10
3.4149
 20
7.8591
 30
0.0
 10
3.4149
 20
7.8591
 30
0.0
  0
SPLINE
  5
9D
330
1F
100
AcDbEntity
  8
DEFAULT_1
 62
   250
100
AcDbSpline
210
0.0
220
0.0
230
1.0
 70
    24
 71
     3
 72
     8
 73
     4
 74
     0
 42
0.0000000001
 43
0.0000000001
 40
0.0
 40
0.0
 40
0.0
 40
0.0
 40
1.0
 40
1.0
 40
1.0
 40
1.0
 10
-6.5137
 20
-25.2771
 30
0.0
 10
-6.5137
 20
-25.2771
 30
0.0
 10
4.5769
 20
-25.2771
 30
0.0
 10
4.5769
 20
-25.2771
 30
0.0
  0
SPLINE
  5
9E
330
1F
100
AcDbEntity
  8
DEFAULT_1
 62
   250
100
AcDbSpline
210
0.0
220
0.0
230
1.0
 70
    24
 71
     3
 72
     8
 73
     4
 74
     0
 42
0.0000000001
 43
0.0000000001
 40
0.0
 40
0.0
 40
0.0
 40
0.0
 40
1.0
 40
1.0
 40
1.0
 40
1.0
 10
5.0204
 20
-24.3779
 30
0.0
 10
5.0204
 20
-24.3779
 30
0.0
 10
4.8222
 20
-24.3779
 30
0.0
 10
4.8222
 20
-24.3779
 30
0.0
  0
SPLINE
  5
9F
330
1F
100
AcDbEntity
  8
DEFAULT_1
 62
   250
100
AcDbSpline
210
0.0
220
0.0
230
1.0
 70
    24
 71
     3
 72
     8
 73
     4
 74
     0
 42
0.0000000001
 43
0.0000000001
 40
0.0
 40
0.0
 40
0.0
 40
0.0
 40
1.0
 40
1.0
 40
1.0
 40
1.0
 10
-6.9679
 20
-24.3779
 30
0.0
 10
-6.9679
 20
-24.3779
 30
0.0
 10
-6.759
 20
-24.3779
 30
0.0
 10
-6.759
 20
-24.3779
 30
0.0
  0
SPLINE
  5
A0
330
1F
100
AcDbEntity
  8
DEFAULT_1
 62
   250
100
AcDbSpline
210
0.0
220
0.0
230
1.0
 70
    24
 71
     3
 72
     8
 73
     4
 74
     0
 42
0.0000000001
 43
0.0000000001
 40
0.0
 40
0.0
 40
0.0
 40
0.0
 40
1.0
 40
1.0
 40
1.0
 40
1.0
 10
5.1773
 20
-22.8792
 30
0.0
 10
5.1773
 20
-22.8792
 30
0.0
 10
3.5834
 20
-22.8792
 30
0.0
 10
3.5834
 20
-22.8792
 30
0.0
  0
SPLINE
  5
A1
330
1F
100
AcDbEntity
  8
DEFAULT_1
 62
   250
100
AcDbSpline
210
0.0
220
0.0
230
1.0
 70
    24
 71
     3
 72
     8
 73
     4
 74
     0
 42
0.0000000001
 43
0.0000000001
 40
0.0
 40
0.0
 40
0.0
 40
0.0
 40
1.0
 40
1.0
 40
1.0
 40
1.0
 10
3.1595
 20
-22.8792
 30
0.0
 10
3.1595
 20
-22.8792
 30
0.0
 10
0.9096
 20
-22.8792
 30
0.0
 10
0.9096
 20
-22.8792
 30
0.0
  0
SPLINE
  5
A2
330
1F
100
AcDbEntity
  8
DEFAULT_1
 62
   250
100
AcDbSpline
210
0.0
220
0.0
230
1.0
 70
    24
 71
     3
 72
     8
 73
     4
 74
     0
 42
0.0000000001
 43
0.0000000001
 40
0.0
 40
0.0
 40
0.0
 40
0.0
 40
1.0
 40
1.0
 40
1.0
 40
1.0
 10
0.3305
 20
-22.8792
 30
0.0
 10
0.3305
 20
-22.8792
 30
0.0
 10
-2.2673
 20
-22.8792
 30
0.0
 10
-2.2673
 20
-22.8792
 30
0.0
  0
SPLINE
  5
A3
330
1F
100
AcDbEntity
  8
DEFAULT_1
 62
   250
100
AcDbSpline
210
0.0
220
0.0
230
1.0
 70
    24
 71
     3
 72
     8
 73
     4
 74
     0
 42
0.0000000001
 43
0.0000000001
 40
0.0
 40
0.0
 40
0.0
 40
0.0
 40
1.0
 40
1.0
 40
1.0
 40
1.0
 10
-2.8464
 20
-22.8792
 30
0.0
 10
-2.8464
 20
-22.8792
 30
0.0
 10
-5.0963
 20
-22.8792
 30
0.0
 10
-5.0963
 20
-22.8792
 30
0.0
  0
SPLINE
  5
A4
330
1F
100
AcDbEntity
  8
DEFAULT_1
 62
   250
100
AcDbSpline
210
0.0
220
0.0
230
1.0
 70
    24
 71
     3
 72
     8
 73
     4
 74
     0
 42
0.0000000001
 43
0.0000000001
 40
0.0
 40
0.0
 40
0.0
 40
0.0
 40
1.0
 40
1.0
 40
1.0
 40
1.0
 10
-5.5201
 20
-22.8792
 30
0.0
 10
-5.5201
 20
-22.8792
 30
0.0
 10
-7.1111
 20
-22.8792
 30
0.0
 10
-7.1111
 20
-22.8792
 30
0.0
  0
SPLINE
  5
A5
330
1F
100
AcDbEntity
  8
DEFAULT_1
 62
   250
100
AcDbSpline
210
0.0
220
0.0
230
1.0
 70
    24
 71
     3
 72
     8
 73
     4
 74
     0
 42
0.0000000001
 43
0.0000000001
 40
0.0
 40
0.0
 40
0.0
 40
0.0
 40
1.0
 40
1.0
 40
1.0
 40
1.0
 10
5.1764
 20
-22.3321
 30
0.0
 10
5.1764
 20
-22.3321
 30
0.0
 10
-7.1132
 20
-22.3321
 30
0.0
 10
-7.1132
 20
-22.3321
 30
0.0
  0
SPLINE
  5
A6
330
1F
100
AcDbEntity
  8
DEFAULT_1
 62
   250
100
AcDbSpline
210
0.0
220
0.0
230
1.0
 70
    24
 71
     3
 72
     8
 73
     4
 74
     0
 42
0.0000000001
 43
0.0000000001
 40
0.0
 40
0.0
 40
0.0
 40
0.0
 40
1.0
 40
1.0
 40
1.0
 40
1.0
 10
-6.8134
 20
-21.8825
 30
0.0
 10
-6.8134
 20
-21.8825
 30
0.0
 10
4.8766
 20
-21.8825
 30
0.0
 10
4.8766
 20
-21.8825
 30
0.0
  0
SPLINE
  5
A7
330
1F
100
AcDbEntity
  8
DEFAULT_1
 62
   250
100
AcDbSpline
210
0.0
220
0.0
230
1.0
 70
    24
 71
     3
 72
     8
 73
     4
 74
     0
 42
0.0000000001
 43
0.0000000001
 40
0.0
 40
0.0
 40
0.0
 40
0.0
 40
1.0
 40
1.0
 40
1.0
 40
1.0
 10
5.1764
 20
-18.1067
 30
0.0
 10
5.1764
 20
-18.1067
 30
0.0
 10
5.626
 20
-18.1067
 30
0.0
 10
5.626
 20
-18.1067
 30
0.0
  0
SPLINE
  5
A8
330
1F
100
AcDbEntity
  8
DEFAULT_1
 62
   250
100
AcDbSpline
210
0.0
220
0.0
230
1.0
 70
    24
 71
     3
 72
     8
 73
     4
 74
     0
 42
0.0000000001
 43
0.0000000001
 40
0.0
 40
0.0
 40
0.0
 40
0.0
 40
1.0
 40
1.0
 40
1.0
 40
1.0
 10
4.2798
 20
-17.8809
 30
0.0
 10
4.2798
 20
-17.8809
 30
0.0
 10
5.1764
 20
-17.8809
 30
0.0
 10
5.1764
 20
-17.8809
 30
0.0
  0
SPLINE
  5
A9
330
1F
100
AcDbEntity
  8
DEFAULT_1
 62
   250
100
AcDbSpline
210
0.0
220
0.0
230
1.0
 70
    24
 71
     3
 72
     8
 73
     4
 74
     0
 42
0.0000000001
 43
0.0000000001
 40
0.0
 40
0.0
 40
0.0
 40
0.0
 40
1.0
 40
1.0
 40
1.0
 40
1.0
 10
3.9538
 20
-9.3981
 30
0.0
 10
3.9538
 20
-9.3981
 30
0.0
 10
5.1764
 20
-9.3981
 30
0.0
 10
5.1764
 20
-9.3981
 30
0.0
  0
SPLINE
  5
AA
330
1F
100
AcDbEntity
  8
DEFAULT_1
 62
   250
100
AcDbSpline
210
0.0
220
0.0
230
1.0
 70
    24
 71
     3
 72
     8
 73
     4
 74
     0
 42
0.0000000001
 43
0.0000000001
 40
0.0
 40
0.0
 40
0.0
 40
0.0
 40
1.0
 40
1.0
 40
1.0
 40
1.0
 10
5.1764
 20
-9.1723
 30
0.0
 10
5.1764
 20
-9.1723
 30
0.0
 10
5.626
 20
-9.1723
 30
0.0
 10
5.626
 20
-9.1723
 30
0.0
  0
SPLINE
  5
AB
330
1F
100
AcDbEntity
  8
DEFAULT_1
 62
   250
100
AcDbSpline
210
0.0
220
0.0
230
1.0
 70
    24
 71
     3
 72
     8
 73
     4
 74
     0
 42
0.0000000001
 43
0.0000000001
 40
0.0
 40
0.0
 40
0.0
 40
0.0
 40
1.0
 40
1.0
 40
1.0
 40
1.0
 10
3.3909
 20
-9.1434
 30
0.0
 10
3.3909
 20
-9.1434
 30
0.0
 10
-5.3276
 20
-9.1434
 30
0.0
 10
-5.3276
 20
-9.1434
 30
0.0
  0
SPLINE
  5
AC
330
1F
100
AcDbEntity
  8
DEFAULT_1
 62
   250
100
AcDbSpline
210
0.0
220
0.0
230
1.0
 70
    24
 71
     3
 72
     8
 73
     4
 74
     0
 42
0.0000000001
 43
0.0000000001
 40
0.0
 40
0.0
 40
0.0
 40
0.0
 40
1.0
 40
1.0
 40
1.0
 40
1.0
 10
-7.1132
 20
-22.1822
 30
0.0
 10
-7.1132
 20
-22.1822
 30
0.0
 10
-7.1132
 20
-22.3321
 30
0.0
 10
-7.1132
 20
-22.3321
 30
0.0
  0
SPLINE
  5
AD
330
1F
100
AcDbEntity
  8
DEFAULT_1
 62
   250
100
AcDbSpline
210
0.0
220
0.0
230
1.0
 70
    24
 71
     3
 72
     8
 73
     4
 74
     0
 42
0.0000000001
 43
0.0000000001
 40
0.0
 40
0.0
 40
0.0
 40
0.0
 40
1.0
 40
1.0
 40
1.0
 40
1.0
 10
-7.1131
 20
-22.8792
 30
0.0
 10
-7.1131
 20
-22.8792
 30
0.0
 10
-7.1131
 20
-22.3306
 30
0.0
 10
-7.1131
 20
-22.3306
 30
0.0
  0
SPLINE
  5
AE
330
1F
100
AcDbEntity
  8
DEFAULT_1
 62
   250
100
AcDbSpline
210
0.0
220
0.0
230
1.0
 70
    24
 71
     3
 72
     8
 73
     4
 74
     0
 42
0.0000000001
 43
0.0000000001
 40
0.0
 40
0.0
 40
0.0
 40
0.0
 40
1.0
 40
1.0
 40
1.0
 40
1.0
 10
-6.9631
 20
-24.8275
 30
0.0
 10
-6.9631
 20
-24.8275
 30
0.0
 10
-6.9631
 20
-22.8647
 30
0.0
 10
-6.9631
 20
-22.8647
 30
0.0
  0
SPLINE
  5
AF
330
1F
100
AcDbEntity
  8
DEFAULT_1
 62
   250
100
AcDbSpline
210
0.0
220
0.0
230
1.0
 70
    24
 71
     3
 72
     8
 73
     4
 74
     0
 42
0.0000000001
 43
0.0000000001
 40
0.0
 40
0.0
 40
0.0
 40
0.0
 40
1.0
 40
1.0
 40
1.0
 40
1.0
 10
-6.6742
 20
-24.0781
 30
0.0
 10
-6.6742
 20
-24.0781
 30
0.0
 10
-6.6742
 20
-22.8792
 30
0.0
 10
-6.6742
 20
-22.8792
 30
0.0
  0
SPLINE
  5
B0
330
1F
100
AcDbEntity
  8
DEFAULT_1
 62
   250
100
AcDbSpline
210
0.0
220
0.0
230
1.0
 70
    24
 71
     3
 72
     8
 73
     4
 74
     0
 42
0.0000000001
 43
0.0000000001
 40
0.0
 40
0.0
 40
0.0
 40
0.0
 40
1.0
 40
1.0
 40
1.0
 40
1.0
 10
-5.5201
 20
-24.0781
 30
0.0
 10
-5.5201
 20
-24.0781
 30
0.0
 10
-5.5201
 20
-22.8792
 30
0.0
 10
-5.5201
 20
-22.8792
 30
0.0
  0
SPLINE
  5
B1
330
1F
100
AcDbEntity
  8
DEFAULT_1
 62
   250
100
AcDbSpline
210
0.0
220
0.0
230
1.0
 70
    24
 71
     3
 72
     8
 73
     4
 74
     0
 42
0.0000000001
 43
0.0000000001
 40
0.0
 40
0.0
 40
0.0
 40
0.0
 40
1.0
 40
1.0
 40
1.0
 40
1.0
 10
-5.0963
 20
-24.0781
 30
0.0
 10
-5.0963
 20
-24.0781
 30
0.0
 10
-5.0963
 20
-22.8792
 30
0.0
 10
-5.0963
 20
-22.8792
 30
0.0
  0
SPLINE
  5
B2
330
1F
100
AcDbEntity
  8
DEFAULT_1
 62
   250
100
AcDbSpline
210
0.0
220
0.0
230
1.0
 70
    24
 71
     3
 72
     8
 73
     4
 74
     0
 42
0.0000000001
 43
0.0000000001
 40
0.0
 40
0.0
 40
0.0
 40
0.0
 40
1.0
 40
1.0
 40
1.0
 40
1.0
 10
-6.0769
 20
-9.8796
 30
0.0
 10
-6.0769
 20
-9.8796
 30
0.0
 10
-6.2812
 20
-21.588
 30
0.0
 10
-6.2812
 20
-21.588
 30
0.0
  0
SPLINE
  5
B3
330
1F
100
AcDbEntity
  8
DEFAULT_1
 62
   250
100
AcDbSpline
210
0.0
220
0.0
230
1.0
 70
    24
 71
     3
 72
     8
 73
     4
 74
     0
 42
0.0000000001
 43
0.0000000001
 40
0.0
 40
0.0
 40
0.0
 40
0.0
 40
1.0
 40
1.0
 40
1.0
 40
1.0
 10
-2.8464
 20
-24.0781
 30
0.0
 10
-2.8464
 20
-24.0781
 30
0.0
 10
-2.8464
 20
-22.8792
 30
0.0
 10
-2.8464
 20
-22.8792
 30
0.0
  0
SPLINE
  5
B4
330
1F
100
AcDbEntity
  8
DEFAULT_1
 62
   250
100
AcDbSpline
210
0.0
220
0.0
230
1.0
 70
    24
 71
     3
 72
     8
 73
     4
 74
     0
 42
0.0000000001
 43
0.0000000001
 40
0.0
 40
0.0
 40
0.0
 40
0.0
 40
1.0
 40
1.0
 40
1.0
 40
1.0
 10
-2.2673
 20
-24.0781
 30
0.0
 10
-2.2673
 20
-24.0781
 30
0.0
 10
-2.2673
 20
-22.8792
 30
0.0
 10
-2.2673
 20
-22.8792
 30
0.0
  0
SPLINE
  5
B5
330
1F
100
AcDbEntity
  8
DEFAULT_1
 62
   250
100
AcDbSpline
210
0.0
220
0.0
230
1.0
 70
    24
 71
     3
 72
     8
 73
     4
 74
     0
 42
0.0000000001
 43
0.0000000001
 40
0.0
 40
0.0
 40
0.0
 40
0.0
 40
1.0
 40
1.0
 40
1.0
 40
1.0
 10
0.3305
 20
-24.0781
 30
0.0
 10
0.3305
 20
-24.0781
 30
0.0
 10
0.3305
 20
-22.8792
 30
0.0
 10
0.3305
 20
-22.8792
 30
0.0
  0
SPLINE
  5
B6
330
1F
100
AcDbEntity
  8
DEFAULT_1
 62
   250
100
AcDbSpline
210
0.0
220
0.0
230
1.0
 70
    24
 71
     3
 72
     8
 73
     4
 74
     0
 42
0.0000000001
 43
0.0000000001
 40
0.0
 40
0.0
 40
0.0
 40
0.0
 40
1.0
 40
1.0
 40
1.0
 40
1.0
 10
0.9096
 20
-24.0781
 30
0.0
 10
0.9096
 20
-24.0781
 30
0.0
 10
0.9096
 20
-22.8792
 30
0.0
 10
0.9096
 20
-22.8792
 30
0.0
  0
SPLINE
  5
B7
330
1F
100
AcDbEntity
  8
DEFAULT_1
 62
   250
100
AcDbSpline
210
0.0
220
0.0
230
1.0
 70
    24
 71
     3
 72
     8
 73
     4
 74
     0
 42
0.0000000001
 43
0.0000000001
 40
0.0
 40
0.0
 40
0.0
 40
0.0
 40
1.0
 40
1.0
 40
1.0
 40
1.0
 10
3.1595
 20
-24.0781
 30
0.0
 10
3.1595
 20
-24.0781
 30
0.0
 10
3.1595
 20
-22.8792
 30
0.0
 10
3.1595
 20
-22.8792
 30
0.0
  0
SPLINE
  5
B8
330
1F
100
AcDbEntity
  8
DEFAULT_1
 62
   250
100
AcDbSpline
210
0.0
220
0.0
230
1.0
 70
    24
 71
     3
 72
     8
 73
     4
 74
     0
 42
0.0000000001
 43
0.0000000001
 40
0.0
 40
0.0
 40
0.0
 40
0.0
 40
1.0
 40
1.0
 40
1.0
 40
1.0
 10
3.5834
 20
-24.0781
 30
0.0
 10
3.5834
 20
-24.0781
 30
0.0
 10
3.5834
 20
-22.8792
 30
0.0
 10
3.5834
 20
-22.8792
 30
0.0
  0
SPLINE
  5
B9
330
1F
100
AcDbEntity
  8
DEFAULT_1
 62
   250
100
AcDbSpline
210
0.0
220
0.0
230
1.0
 70
    24
 71
     3
 72
     8
 73
     4
 74
     0
 42
0.0000000001
 43
0.0000000001
 40
0.0
 40
0.0
 40
0.0
 40
0.0
 40
1.0
 40
1.0
 40
1.0
 40
1.0
 10
4.2798
 20
-17.8809
 30
0.0
 10
4.2798
 20
-17.8809
 30
0.0
 10
4.3445
 20
-21.588
 30
0.0
 10
4.3445
 20
-21.588
 30
0.0
  0
SPLINE
  5
BA
330
1F
100
AcDbEntity
  8
DEFAULT_1
 62
   250
100
AcDbSpline
210
0.0
220
0.0
230
1.0
 70
    24
 71
     3
 72
     8
 73
     4
 74
     0
 42
0.0000000001
 43
0.0000000001
 40
0.0
 40
0.0
 40
0.0
 40
0.0
 40
1.0
 40
1.0
 40
1.0
 40
1.0
 10
4.7374
 20
-24.0781
 30
0.0
 10
4.7374
 20
-24.0781
 30
0.0
 10
4.7374
 20
-22.8792
 30
0.0
 10
4.7374
 20
-22.8792
 30
0.0
  0
SPLINE
  5
BB
330
1F
100
AcDbEntity
  8
DEFAULT_1
 62
   250
100
AcDbSpline
210
0.0
220
0.0
230
1.0
 70
    24
 71
     3
 72
     8
 73
     4
 74
     0
 42
0.0000000001
 43
0.0000000001
 40
0.0
 40
0.0
 40
0.0
 40
0.0
 40
1.0
 40
1.0
 40
1.0
 40
1.0
 10
5.0267
 20
-24.8275
 30
0.0
 10
5.0267
 20
-24.8275
 30
0.0
 10
5.0267
 20
-22.8806
 30
0.0
 10
5.0267
 20
-22.8806
 30
0.0
  0
SPLINE
  5
BC
330
1F
100
AcDbEntity
  8
DEFAULT_1
 62
   250
100
AcDbSpline
210
0.0
220
0.0
230
1.0
 70
    24
 71
     3
 72
     8
 73
     4
 74
     0
 42
0.0000000001
 43
0.0000000001
 40
0.0
 40
0.0
 40
0.0
 40
0.0
 40
1.0
 40
1.0
 40
1.0
 40
1.0
 10
5.1764
 20
-9.1723
 30
0.0
 10
5.1764
 20
-9.1723
 30
0.0
 10
5.1764
 20
-18.1067
 30
0.0
 10
5.1764
 20
-18.1067
 30
0.0
  0
SPLINE
  5
BD
330
1F
100
AcDbEntity
  8
DEFAULT_1
 62
   250
100
AcDbSpline
210
0.0
220
0.0
230
1.0
 70
    24
 71
     3
 72
     8
 73
     4
 74
     0
 42
0.0000000001
 43
0.0000000001
 40
0.0
 40
0.0
 40
0.0
 40
0.0
 40
1.0
 40
1.0
 40
1.0
 40
1.0
 10
5.1764
 20
-22.1822
 30
0.0
 10
5.1764
 20
-22.1822
 30
0.0
 10
5.1764
 20
-22.3321
 30
0.0
 10
5.1764
 20
-22.3321
 30
0.0
  0
SPLINE
  5
BE
330
1F
100
AcDbEntity
  8
DEFAULT_1
 62
   250
100
AcDbSpline
210
0.0
220
0.0
230
1.0
 70
    24
 71
     3
 72
     8
 73
     4
 74
     0
 42
0.0000000001
 43
0.0000000001
 40
0.0
 40
0.0
 40
0.0
 40
0.0
 40
1.0
 40
1.0
 40
1.0
 40
1.0
 10
5.1764
 20
-22.8792
 30
0.0
 10
5.1764
 20
-22.8792
 30
0.0
 10
5.1764
 20
-22.3302
 30
0.0
 10
5.1764
 20
-22.3302
 30
0.0
  0
SPLINE
  5
BF
330
1F
100
AcDbEntity
  8
DEFAULT_1
 62
   250
100
AcDbSpline
210
0.0
220
0.0
230
1.0
 70
     8
 71
     3
 72
     8
 73
     4
 74
     0
 42
0.0000000001
 43
0.0000000001
 40
0.0
 40
0.0
 40
0.0
 40
0.0
 40
1.0
 40
1.0
 40
1.0
 40
1.0
 10
-6.9633
 20
-24.8275
 30
0.0
 10
-6.9633
 20
-25.0758
 30
0.0
 10
-6.7619
 20
-25.2771
 30
0.0
 10
-6.5137
 20
-25.2771
 30
0.0
  0
SPLINE
  5
C0
330
1F
100
AcDbEntity
  8
DEFAULT_1
 62
   250
100
AcDbSpline
210
0.0
220
0.0
230
1.0
 70
     8
 71
     3
 72
     8
 73
     4
 74
     0
 42
0.0000000001
 43
0.0000000001
 40
0.0
 40
0.0
 40
0.0
 40
0.0
 40
1.0
 40
1.0
 40
1.0
 40
1.0
 10
4.5769
 20
-25.2771
 30
0.0
 10
4.8252
 20
-25.2771
 30
0.0
 10
5.0265
 20
-25.0758
 30
0.0
 10
5.0265
 20
-24.8275
 30
0.0
  0
SPLINE
  5
C1
330
1F
100
AcDbEntity
  8
DEFAULT_1
 62
   250
100
AcDbSpline
210
0.0
220
0.0
230
1.0
 70
     8
 71
     3
 72
     8
 73
     4
 74
     0
 42
0.0000000001
 43
0.0000000001
 40
0.0
 40
0.0
 40
0.0
 40
0.0
 40
1.0
 40
1.0
 40
1.0
 40
1.0
 10
-5.897
 20
-25.6893
 30
0.0
 10
-5.9164
 20
-25.4563
 30
0.0
 10
-6.1112
 20
-25.2771
 30
0.0
 10
-6.345
 20
-25.2771
 30
0.0
  0
SPLINE
  5
C2
330
1F
100
AcDbEntity
  8
DEFAULT_1
 62
   250
100
AcDbSpline
210
0.0
220
0.0
230
1.0
 70
     8
 71
     3
 72
     8
 73
     4
 74
     0
 42
0.0000000001
 43
0.0000000001
 40
0.0
 40
0.0
 40
0.0
 40
0.0
 40
1.0
 40
1.0
 40
1.0
 40
1.0
 10
4.4082
 20
-25.2771
 30
0.0
 10
4.1744
 20
-25.2771
 30
0.0
 10
3.9797
 20
-25.4563
 30
0.0
 10
3.9602
 20
-25.6893
 30
0.0
  0
SPLINE
  5
C3
330
1F
100
AcDbEntity
  8
DEFAULT_1
 62
   250
100
AcDbSpline
210
0.0
220
0.0
230
1.0
 70
     8
 71
     3
 72
    12
 73
     8
 74
     0
 42
0.0000000001
 43
0.0000000001
 40
0.0
 40
0.0
 40
0.0
 40
0.0
 40
0.3333333333333333
 40
0.3333333333333333
 40
0.3333333333333333
 40
0.3333333333333333
 40
1.0
 40
1.0
 40
1.0
 40
1.0
 10
-5.897
 20
-25.6893
 30
0.0
 10
-5.6826
 20
-28.252
 30
0.0
 10
-3.5401
 20
-30.2229
 30
0.0
 10
-0.9684
 20
-30.2229
 30
0.0
 10
-0.9684
 20
-30.2229
 30
0.0
 10
1.6033
 20
-30.2229
 30
0.0
 10
3.7459
 20
-28.252
 30
0.0
 10
3.9602
 20
-25.6893
 30
0.0
  0
SPLINE
  5
C4
330
1F
100
AcDbEntity
  8
DEFAULT_1
 62
   250
100
AcDbSpline
210
0.0
220
0.0
230
1.0
 70
     8
 71
     3
 72
     8
 73
     4
 74
     0
 42
0.0000000001
 43
0.0000000001
 40
0.0
 40
0.0
 40
0.0
 40
0.0
 40
1.0
 40
1.0
 40
1.0
 40
1.0
 10
5.1764
 20
-22.1822
 30
0.0
 10
5.1764
 20
-22.0167
 30
0.0
 10
5.0422
 20
-21.8825
 30
0.0
 10
4.8766
 20
-21.8825
 30
0.0
  0
SPLINE
  5
C5
330
1F
100
AcDbEntity
  8
DEFAULT_1
 62
   250
100
AcDbSpline
210
0.0
220
0.0
230
1.0
 70
     8
 71
     3
 72
     8
 73
     4
 74
     0
 42
0.0000000001
 43
0.0000000001
 40
0.0
 40
0.0
 40
0.0
 40
0.0
 40
1.0
 40
1.0
 40
1.0
 40
1.0
 10
-6.8134
 20
-21.8825
 30
0.0
 10
-6.979
 20
-21.8825
 30
0.0
 10
-7.1132
 20
-22.0167
 30
0.0
 10
-7.1132
 20
-22.1822
 30
0.0
  0
SPLINE
  5
C6
330
1F
100
AcDbEntity
  8
DEFAULT_1
 62
   250
100
AcDbSpline
210
0.0
220
0.0
230
1.0
 70
     8
 71
     3
 72
     8
 73
     4
 74
     0
 42
0.0000000001
 43
0.0000000001
 40
0.0
 40
0.0
 40
0.0
 40
0.0
 40
1.0
 40
1.0
 40
1.0
 40
1.0
 10
4.3445
 20
-21.588
 30
0.0
 10
4.3473
 20
-21.7514
 30
0.0
 10
4.4807
 20
-21.8825
 30
0.0
 10
4.6442
 20
-21.8825
 30
0.0
  0
SPLINE
  5
C7
330
1F
100
AcDbEntity
  8
DEFAULT_1
 62
   250
100
AcDbSpline
210
0.0
220
0.0
230
1.0
 70
     8
 71
     3
 72
     8
 73
     4
 74
     0
 42
0.0000000001
 43
0.0000000001
 40
0.0
 40
0.0
 40
0.0
 40
0.0
 40
1.0
 40
1.0
 40
1.0
 40
1.0
 10
-6.5809
 20
-21.8825
 30
0.0
 10
-6.4175
 20
-21.8825
 30
0.0
 10
-6.2841
 20
-21.7514
 30
0.0
 10
-6.2812
 20
-21.588
 30
0.0
  0
SPLINE
  5
C8
330
1F
100
AcDbEntity
  8
DEFAULT_1
 62
   250
100
AcDbSpline
210
0.0
220
0.0
230
1.0
 70
     8
 71
     3
 72
     8
 73
     4
 74
     0
 42
0.0000000001
 43
0.0000000001
 40
0.0
 40
0.0
 40
0.0
 40
0.0
 40
1.0
 40
1.0
 40
1.0
 40
1.0
 10
-5.3276
 20
-9.1434
 30
0.0
 10
-5.7364
 20
-9.1434
 30
0.0
 10
-6.0697
 20
-9.4709
 30
0.0
 10
-6.0769
 20
-9.8796
 30
0.0
  0
SPLINE
  5
C9
330
1F
100
AcDbEntity
  8
DEFAULT_1
 62
   250
100
AcDbSpline
210
0.0
220
0.0
230
1.0
 70
     8
 71
     3
 72
     8
 73
     4
 74
     0
 42
0.0000000001
 43
0.0000000001
 40
0.0
 40
0.0
 40
0.0
 40
0.0
 40
1.0
 40
1.0
 40
1.0
 40
1.0
 10
3.9538
 20
-9.3981
 30
0.0
 10
3.8116
 20
-9.2362
 30
0.0
 10
3.6064
 20
-9.1434
 30
0.0
 10
3.3909
 20
-9.1434
 30
0.0
  0
SPLINE
  5
CA
330
1F
100
AcDbEntity
  8
DEFAULT_1
 62
   250
100
AcDbSpline
210
0.0
220
0.0
230
1.0
 70
     8
 71
     3
 72
    28
 73
    24
 74
     0
 42
0.0000000001
 43
0.0000000001
 40
0.0
 40
0.0
 40
0.0
 40
0.0
 40
0.1428571428571428
 40
0.1428571428571428
 40
0.1428571428571428
 40
0.1428571428571428
 40
0.2857142857142857
 40
0.2857142857142857
 40
0.2857142857142857
 40
0.2857142857142857
 40
0.4285714285714285
 40
0.4285714285714285
 40
0.4285714285714285
 40
0.4285714285714285
 40
0.5714285714285714
 40
0.5714285714285714
 40
0.5714285714285714
 40
0.5714285714285714
 40
0.7142857142857143
 40
0.7142857142857143
 40
0.7142857142857143
 40
0.7142857142857143
 40
1.0
 40
1.0
 40
1.0
 40
1.0
 10
3.3766
 20
-24.3778
 30
0.0
 10
3.3766
 20
-24.3778
 30
0.0
 10
3.4067
 20
-24.3748
 30
0.0
 10
3.4067
 20
-24.3748
 30
0.0
 10
3.4067
 20
-24.3748
 30
0.0
 10
3.4067
 20
-24.3748
 30
0.0
 10
3.4637
 20
-24.3508
 30
0.0
 10
3.4637
 20
-24.3508
 30
0.0
 10
3.4637
 20
-24.3508
 30
0.0
 10
3.4637
 20
-24.3508
 30
0.0
 10
3.5132
 20
-24.3046
 30
0.0
 10
3.5132
 20
-24.3046
 30
0.0
 10
3.5132
 20
-24.3046
 30
0.0
 10
3.5132
 20
-24.3046
 30
0.0
 10
3.5513
 20
-24.2401
 30
0.0
 10
3.5513
 20
-24.2401
 30
0.0
 10
3.5513
 20
-24.2401
 30
0.0
 10
3.5513
 20
-24.2401
 30
0.0
 10
3.5752
 20
-24.1625
 30
0.0
 10
3.5752
 20
-24.1625
 30
0.0
 10
3.5752
 20
-24.1625
 30
0.0
 10
3.5752
 20
-24.1625
 30
0.0
 10
3.5834
 20
-24.0781
 30
0.0
 10
3.5834
 20
-24.0781
 30
0.0
  0
SPLINE
  5
CB
330
1F
100
AcDbEntity
  8
DEFAULT_1
 62
   250
100
AcDbSpline
210
0.0
220
0.0
230
1.0
 70
     8
 71
     3
 72
    28
 73
    24
 74
     0
 42
0.0000000001
 43
0.0000000001
 40
0.0
 40
0.0
 40
0.0
 40
0.0
 40
0.1428571428571428
 40
0.1428571428571428
 40
0.1428571428571428
 40
0.1428571428571428
 40
0.2857142857142857
 40
0.2857142857142857
 40
0.2857142857142857
 40
0.2857142857142857
 40
0.4285714285714285
 40
0.4285714285714285
 40
0.4285714285714285
 40
0.4285714285714285
 40
0.5714285714285714
 40
0.5714285714285714
 40
0.5714285714285714
 40
0.5714285714285714
 40
0.7142857142857143
 40
0.7142857142857143
 40
0.7142857142857143
 40
0.7142857142857143
 40
1.0
 40
1.0
 40
1.0
 40
1.0
 10
0.622
 20
-24.3778
 30
0.0
 10
0.622
 20
-24.3778
 30
0.0
 10
0.6631
 20
-24.3748
 30
0.0
 10
0.6631
 20
-24.3748
 30
0.0
 10
0.6631
 20
-24.3748
 30
0.0
 10
0.6631
 20
-24.3748
 30
0.0
 10
0.7419
 20
-24.3508
 30
0.0
 10
0.7419
 20
-24.3508
 30
0.0
 10
0.7419
 20
-24.3508
 30
0.0
 10
0.7419
 20
-24.3508
 30
0.0
 10
0.8108
 20
-24.3046
 30
0.0
 10
0.8108
 20
-24.3046
 30
0.0
 10
0.8108
 20
-24.3046
 30
0.0
 10
0.8108
 20
-24.3046
 30
0.0
 10
0.8642
 20
-24.2401
 30
0.0
 10
0.8642
 20
-24.2401
 30
0.0
 10
0.8642
 20
-24.2401
 30
0.0
 10
0.8642
 20
-24.2401
 30
0.0
 10
0.898
 20
-24.1625
 30
0.0
 10
0.898
 20
-24.1625
 30
0.0
 10
0.898
 20
-24.1625
 30
0.0
 10
0.898
 20
-24.1625
 30
0.0
 10
0.9096
 20
-24.0781
 30
0.0
 10
0.9096
 20
-24.0781
 30
0.0
  0
SPLINE
  5
CC
330
1F
100
AcDbEntity
  8
DEFAULT_1
 62
   250
100
AcDbSpline
210
0.0
220
0.0
230
1.0
 70
     8
 71
     3
 72
    28
 73
    24
 74
     0
 42
0.0000000001
 43
0.0000000001
 40
0.0
 40
0.0
 40
0.0
 40
0.0
 40
0.1428571428571428
 40
0.1428571428571428
 40
0.1428571428571428
 40
0.1428571428571428
 40
0.2857142857142857
 40
0.2857142857142857
 40
0.2857142857142857
 40
0.2857142857142857
 40
0.4285714285714285
 40
0.4285714285714285
 40
0.4285714285714285
 40
0.4285714285714285
 40
0.5714285714285714
 40
0.5714285714285714
 40
0.5714285714285714
 40
0.5714285714285714
 40
0.7142857142857143
 40
0.7142857142857143
 40
0.7142857142857143
 40
0.7142857142857143
 40
1.0
 40
1.0
 40
1.0
 40
1.0
 10
-5.5201
 20
-24.0781
 30
0.0
 10
-5.5201
 20
-24.0781
 30
0.0
 10
-5.512
 20
-24.1625
 30
0.0
 10
-5.512
 20
-24.1625
 30
0.0
 10
-5.512
 20
-24.1625
 30
0.0
 10
-5.512
 20
-24.1625
 30
0.0
 10
-5.488
 20
-24.2401
 30
0.0
 10
-5.488
 20
-24.2401
 30
0.0
 10
-5.488
 20
-24.2401
 30
0.0
 10
-5.488
 20
-24.2401
 30
0.0
 10
-5.45
 20
-24.3046
 30
0.0
 10
-5.45
 20
-24.3046
 30
0.0
 10
-5.45
 20
-24.3046
 30
0.0
 10
-5.45
 20
-24.3046
 30
0.0
 10
-5.4005
 20
-24.3508
 30
0.0
 10
-5.4005
 20
-24.3508
 30
0.0
 10
-5.4005
 20
-24.3508
 30
0.0
 10
-5.4005
 20
-24.3508
 30
0.0
 10
-5.3434
 20
-24.3748
 30
0.0
 10
-5.3434
 20
-24.3748
 30
0.0
 10
-5.3434
 20
-24.3748
 30
0.0
 10
-5.3434
 20
-24.3748
 30
0.0
 10
-5.3134
 20
-24.3778
 30
0.0
 10
-5.3134
 20
-24.3778
 30
0.0
  0
SPLINE
  5
CD
330
1F
100
AcDbEntity
  8
DEFAULT_1
 62
   250
100
AcDbSpline
210
0.0
220
0.0
230
1.0
 70
     8
 71
     3
 72
    28
 73
    24
 74
     0
 42
0.0000000001
 43
0.0000000001
 40
0.0
 40
0.0
 40
0.0
 40
0.0
 40
0.1428571428571428
 40
0.1428571428571428
 40
0.1428571428571428
 40
0.1428571428571428
 40
0.2857142857142857
 40
0.2857142857142857
 40
0.2857142857142857
 40
0.2857142857142857
 40
0.4285714285714285
 40
0.4285714285714285
 40
0.4285714285714285
 40
0.4285714285714285
 40
0.5714285714285714
 40
0.5714285714285714
 40
0.5714285714285714
 40
0.5714285714285714
 40
0.7142857142857143
 40
0.7142857142857143
 40
0.7142857142857143
 40
0.7142857142857143
 40
1.0
 40
1.0
 40
1.0
 40
1.0
 10
-2.8464
 20
-24.0781
 30
0.0
 10
-2.8464
 20
-24.0781
 30
0.0
 10
-2.8348
 20
-24.1625
 30
0.0
 10
-2.8348
 20
-24.1625
 30
0.0
 10
-2.8348
 20
-24.1625
 30
0.0
 10
-2.8348
 20
-24.1625
 30
0.0
 10
-2.801
 20
-24.2401
 30
0.0
 10
-2.801
 20
-24.2401
 30
0.0
 10
-2.801
 20
-24.2401
 30
0.0
 10
-2.801
 20
-24.2401
 30
0.0
 10
-2.7475
 20
-24.3046
 30
0.0
 10
-2.7475
 20
-24.3046
 30
0.0
 10
-2.7475
 20
-24.3046
 30
0.0
 10
-2.7475
 20
-24.3046
 30
0.0
 10
-2.6787
 20
-24.3508
 30
0.0
 10
-2.6787
 20
-24.3508
 30
0.0
 10
-2.6787
 20
-24.3508
 30
0.0
 10
-2.6787
 20
-24.3508
 30
0.0
 10
-2.5999
 20
-24.3748
 30
0.0
 10
-2.5999
 20
-24.3748
 30
0.0
 10
-2.5999
 20
-24.3748
 30
0.0
 10
-2.5999
 20
-24.3748
 30
0.0
 10
-2.5587
 20
-24.3778
 30
0.0
 10
-2.5587
 20
-24.3778
 30
0.0
  0
SPLINE
  5
CE
330
1F
100
AcDbEntity
  8
DEFAULT_1
 62
   250
100
AcDbSpline
210
0.0
220
0.0
230
1.0
 70
     8
 71
     3
 72
    28
 73
    24
 74
     0
 42
0.0000000001
 43
0.0000000001
 40
0.0
 40
0.0
 40
0.0
 40
0.0
 40
0.1428571428571428
 40
0.1428571428571428
 40
0.1428571428571428
 40
0.1428571428571428
 40
0.2857142857142857
 40
0.2857142857142857
 40
0.2857142857142857
 40
0.2857142857142857
 40
0.4285714285714285
 40
0.4285714285714285
 40
0.4285714285714285
 40
0.4285714285714285
 40
0.5714285714285714
 40
0.5714285714285714
 40
0.5714285714285714
 40
0.5714285714285714
 40
0.7142857142857143
 40
0.7142857142857143
 40
0.7142857142857143
 40
0.7142857142857143
 40
1.0
 40
1.0
 40
1.0
 40
1.0
 10
-2.5587
 20
-24.3778
 30
0.0
 10
-2.5587
 20
-24.3778
 30
0.0
 10
-2.5175
 20
-24.3748
 30
0.0
 10
-2.5175
 20
-24.3748
 30
0.0
 10
-2.5175
 20
-24.3748
 30
0.0
 10
-2.5175
 20
-24.3748
 30
0.0
 10
-2.4382
 20
-24.3508
 30
0.0
 10
-2.4382
 20
-24.3508
 30
0.0
 10
-2.4382
 20
-24.3508
 30
0.0
 10
-2.4382
 20
-24.3508
 30
0.0
 10
-2.3683
 20
-24.3046
 30
0.0
 10
-2.3683
 20
-24.3046
 30
0.0
 10
-2.3683
 20
-24.3046
 30
0.0
 10
-2.3683
 20
-24.3046
 30
0.0
 10
-2.3138
 20
-24.2401
 30
0.0
 10
-2.3138
 20
-24.2401
 30
0.0
 10
-2.3138
 20
-24.2401
 30
0.0
 10
-2.3138
 20
-24.2401
 30
0.0
 10
-2.2792
 20
-24.1625
 30
0.0
 10
-2.2792
 20
-24.1625
 30
0.0
 10
-2.2792
 20
-24.1625
 30
0.0
 10
-2.2792
 20
-24.1625
 30
0.0
 10
-2.2673
 20
-24.0781
 30
0.0
 10
-2.2673
 20
-24.0781
 30
0.0
  0
SPLINE
  5
CF
330
1F
100
AcDbEntity
  8
DEFAULT_1
 62
   250
100
AcDbSpline
210
0.0
220
0.0
230
1.0
 70
     8
 71
     3
 72
    28
 73
    24
 74
     0
 42
0.0000000001
 43
0.0000000001
 40
0.0
 40
0.0
 40
0.0
 40
0.0
 40
0.1428571428571428
 40
0.1428571428571428
 40
0.1428571428571428
 40
0.1428571428571428
 40
0.2857142857142857
 40
0.2857142857142857
 40
0.2857142857142857
 40
0.2857142857142857
 40
0.4285714285714285
 40
0.4285714285714285
 40
0.4285714285714285
 40
0.4285714285714285
 40
0.5714285714285714
 40
0.5714285714285714
 40
0.5714285714285714
 40
0.5714285714285714
 40
0.7142857142857143
 40
0.7142857142857143
 40
0.7142857142857143
 40
0.7142857142857143
 40
1.0
 40
1.0
 40
1.0
 40
1.0
 10
-6.759
 20
-24.3779
 30
0.0
 10
-6.759
 20
-24.3779
 30
0.0
 10
-6.7384
 20
-24.3676
 30
0.0
 10
-6.7384
 20
-24.3676
 30
0.0
 10
-6.7384
 20
-24.3676
 30
0.0
 10
-6.7384
 20
-24.3676
 30
0.0
 10
-6.7184
 20
-24.3376
 30
0.0
 10
-6.7184
 20
-24.3376
 30
0.0
 10
-6.7184
 20
-24.3376
 30
0.0
 10
-6.7184
 20
-24.3376
 30
0.0
 10
-6.7005
 20
-24.2899
 30
0.0
 10
-6.7005
 20
-24.2899
 30
0.0
 10
-6.7005
 20
-24.2899
 30
0.0
 10
-6.7005
 20
-24.2899
 30
0.0
 10
-6.6863
 20
-24.2277
 30
0.0
 10
-6.6863
 20
-24.2277
 30
0.0
 10
-6.6863
 20
-24.2277
 30
0.0
 10
-6.6863
 20
-24.2277
 30
0.0
 10
-6.6772
 20
-24.1552
 30
0.0
 10
-6.6772
 20
-24.1552
 30
0.0
 10
-6.6772
 20
-24.1552
 30
0.0
 10
-6.6772
 20
-24.1552
 30
0.0
 10
-6.6742
 20
-24.0781
 30
0.0
 10
-6.6742
 20
-24.0781
 30
0.0
  0
SPLINE
  5
D0
330
1F
100
AcDbEntity
  8
DEFAULT_1
 62
   250
100
AcDbSpline
210
0.0
220
0.0
230
1.0
 70
     8
 71
     3
 72
    28
 73
    24
 74
     0
 42
0.0000000001
 43
0.0000000001
 40
0.0
 40
0.0
 40
0.0
 40
0.0
 40
0.1428571428571428
 40
0.1428571428571428
 40
0.1428571428571428
 40
0.1428571428571428
 40
0.2857142857142857
 40
0.2857142857142857
 40
0.2857142857142857
 40
0.2857142857142857
 40
0.4285714285714285
 40
0.4285714285714285
 40
0.4285714285714285
 40
0.4285714285714285
 40
0.5714285714285714
 40
0.5714285714285714
 40
0.5714285714285714
 40
0.5714285714285714
 40
0.7142857142857143
 40
0.7142857142857143
 40
0.7142857142857143
 40
0.7142857142857143
 40
1.0
 40
1.0
 40
1.0
 40
1.0
 10
-5.3134
 20
-24.3778
 30
0.0
 10
-5.3134
 20
-24.3778
 30
0.0
 10
-5.2831
 20
-24.3748
 30
0.0
 10
-5.2831
 20
-24.3748
 30
0.0
 10
-5.2831
 20
-24.3748
 30
0.0
 10
-5.2831
 20
-24.3748
 30
0.0
 10
-5.2245
 20
-24.3508
 30
0.0
 10
-5.2245
 20
-24.3508
 30
0.0
 10
-5.2245
 20
-24.3508
 30
0.0
 10
-5.2245
 20
-24.3508
 30
0.0
 10
-5.1724
 20
-24.3046
 30
0.0
 10
-5.1724
 20
-24.3046
 30
0.0
 10
-5.1724
 20
-24.3046
 30
0.0
 10
-5.1724
 20
-24.3046
 30
0.0
 10
-5.1314
 20
-24.2401
 30
0.0
 10
-5.1314
 20
-24.2401
 30
0.0
 10
-5.1314
 20
-24.2401
 30
0.0
 10
-5.1314
 20
-24.2401
 30
0.0
 10
-5.1053
 20
-24.1625
 30
0.0
 10
-5.1053
 20
-24.1625
 30
0.0
 10
-5.1053
 20
-24.1625
 30
0.0
 10
-5.1053
 20
-24.1625
 30
0.0
 10
-5.0963
 20
-24.0781
 30
0.0
 10
-5.0963
 20
-24.0781
 30
0.0
  0
SPLINE
  5
D1
330
1F
100
AcDbEntity
  8
DEFAULT_1
 62
   250
100
AcDbSpline
210
0.0
220
0.0
230
1.0
 70
     8
 71
     3
 72
    28
 73
    24
 74
     0
 42
0.0000000001
 43
0.0000000001
 40
0.0
 40
0.0
 40
0.0
 40
0.0
 40
0.1428571428571428
 40
0.1428571428571428
 40
0.1428571428571428
 40
0.1428571428571428
 40
0.2857142857142857
 40
0.2857142857142857
 40
0.2857142857142857
 40
0.2857142857142857
 40
0.4285714285714285
 40
0.4285714285714285
 40
0.4285714285714285
 40
0.4285714285714285
 40
0.5714285714285714
 40
0.5714285714285714
 40
0.5714285714285714
 40
0.5714285714285714
 40
0.7142857142857143
 40
0.7142857142857143
 40
0.7142857142857143
 40
0.7142857142857143
 40
1.0
 40
1.0
 40
1.0
 40
1.0
 10
0.3305
 20
-24.0781
 30
0.0
 10
0.3305
 20
-24.0781
 30
0.0
 10
0.3424
 20
-24.1625
 30
0.0
 10
0.3424
 20
-24.1625
 30
0.0
 10
0.3424
 20
-24.1625
 30
0.0
 10
0.3424
 20
-24.1625
 30
0.0
 10
0.377
 20
-24.2401
 30
0.0
 10
0.377
 20
-24.2401
 30
0.0
 10
0.377
 20
-24.2401
 30
0.0
 10
0.377
 20
-24.2401
 30
0.0
 10
0.4316
 20
-24.3046
 30
0.0
 10
0.4316
 20
-24.3046
 30
0.0
 10
0.4316
 20
-24.3046
 30
0.0
 10
0.4316
 20
-24.3046
 30
0.0
 10
0.5014
 20
-24.3508
 30
0.0
 10
0.5014
 20
-24.3508
 30
0.0
 10
0.5014
 20
-24.3508
 30
0.0
 10
0.5014
 20
-24.3508
 30
0.0
 10
0.5807
 20
-24.3748
 30
0.0
 10
0.5807
 20
-24.3748
 30
0.0
 10
0.5807
 20
-24.3748
 30
0.0
 10
0.5807
 20
-24.3748
 30
0.0
 10
0.622
 20
-24.3778
 30
0.0
 10
0.622
 20
-24.3778
 30
0.0
  0
SPLINE
  5
D2
330
1F
100
AcDbEntity
  8
DEFAULT_1
 62
   250
100
AcDbSpline
210
0.0
220
0.0
230
1.0
 70
     8
 71
     3
 72
    28
 73
    24
 74
     0
 42
0.0000000001
 43
0.0000000001
 40
0.0
 40
0.0
 40
0.0
 40
0.0
 40
0.1428571428571428
 40
0.1428571428571428
 40
0.1428571428571428
 40
0.1428571428571428
 40
0.2857142857142857
 40
0.2857142857142857
 40
0.2857142857142857
 40
0.2857142857142857
 40
0.4285714285714285
 40
0.4285714285714285
 40
0.4285714285714285
 40
0.4285714285714285
 40
0.5714285714285714
 40
0.5714285714285714
 40
0.5714285714285714
 40
0.5714285714285714
 40
0.7142857142857143
 40
0.7142857142857143
 40
0.7142857142857143
 40
0.7142857142857143
 40
1.0
 40
1.0
 40
1.0
 40
1.0
 10
4.7374
 20
-24.0781
 30
0.0
 10
4.7374
 20
-24.0781
 30
0.0
 10
4.7405
 20
-24.1553
 30
0.0
 10
4.7405
 20
-24.1553
 30
0.0
 10
4.7405
 20
-24.1553
 30
0.0
 10
4.7405
 20
-24.1553
 30
0.0
 10
4.7496
 20
-24.2277
 30
0.0
 10
4.7496
 20
-24.2277
 30
0.0
 10
4.7496
 20
-24.2277
 30
0.0
 10
4.7496
 20
-24.2277
 30
0.0
 10
4.7637
 20
-24.2898
 30
0.0
 10
4.7637
 20
-24.2898
 30
0.0
 10
4.7637
 20
-24.2898
 30
0.0
 10
4.7637
 20
-24.2898
 30
0.0
 10
4.7816
 20
-24.3376
 30
0.0
 10
4.7816
 20
-24.3376
 30
0.0
 10
4.7816
 20
-24.3376
 30
0.0
 10
4.7816
 20
-24.3376
 30
0.0
 10
4.8016
 20
-24.3676
 30
0.0
 10
4.8016
 20
-24.3676
 30
0.0
 10
4.8016
 20
-24.3676
 30
0.0
 10
4.8016
 20
-24.3676
 30
0.0
 10
4.8222
 20
-24.3779
 30
0.0
 10
4.8222
 20
-24.3779
 30
0.0
  0
SPLINE
  5
D3
330
1F
100
AcDbEntity
  8
DEFAULT_1
 62
   250
100
AcDbSpline
210
0.0
220
0.0
230
1.0
 70
     8
 71
     3
 72
    28
 73
    24
 74
     0
 42
0.0000000001
 43
0.0000000001
 40
0.0
 40
0.0
 40
0.0
 40
0.0
 40
0.1428571428571428
 40
0.1428571428571428
 40
0.1428571428571428
 40
0.1428571428571428
 40
0.2857142857142857
 40
0.2857142857142857
 40
0.2857142857142857
 40
0.2857142857142857
 40
0.4285714285714285
 40
0.4285714285714285
 40
0.4285714285714285
 40
0.4285714285714285
 40
0.5714285714285714
 40
0.5714285714285714
 40
0.5714285714285714
 40
0.5714285714285714
 40
0.7142857142857143
 40
0.7142857142857143
 40
0.7142857142857143
 40
0.7142857142857143
 40
1.0
 40
1.0
 40
1.0
 40
1.0
 10
3.1595
 20
-24.0781
 30
0.0
 10
3.1595
 20
-24.0781
 30
0.0
 10
3.1685
 20
-24.1625
 30
0.0
 10
3.1685
 20
-24.1625
 30
0.0
 10
3.1685
 20
-24.1625
 30
0.0
 10
3.1685
 20
-24.1625
 30
0.0
 10
3.1946
 20
-24.2401
 30
0.0
 10
3.1946
 20
-24.2401
 30
0.0
 10
3.1946
 20
-24.2401
 30
0.0
 10
3.1946
 20
-24.2401
 30
0.0
 10
3.2356
 20
-24.3046
 30
0.0
 10
3.2356
 20
-24.3046
 30
0.0
 10
3.2356
 20
-24.3046
 30
0.0
 10
3.2356
 20
-24.3046
 30
0.0
 10
3.2877
 20
-24.3508
 30
0.0
 10
3.2877
 20
-24.3508
 30
0.0
 10
3.2877
 20
-24.3508
 30
0.0
 10
3.2877
 20
-24.3508
 30
0.0
 10
3.3464
 20
-24.3748
 30
0.0
 10
3.3464
 20
-24.3748
 30
0.0
 10
3.3464
 20
-24.3748
 30
0.0
 10
3.3464
 20
-24.3748
 30
0.0
 10
3.3766
 20
-24.3778
 30
0.0
 10
3.3766
 20
-24.3778
 30
0.0
  0
SPLINE
  5
D4
330
1F
100
AcDbEntity
  8
DEFAULT_1
 62
   250
100
AcDbSpline
210
0.0
220
0.0
230
1.0
 70
     8
 71
     3
 72
   216
 73
   212
 74
     0
 42
0.0000000001
 43
0.0000000001
 40
0.0
 40
0.0
 40
0.0
 40
0.0
 40
0.0185185185185185
 40
0.0185185185185185
 40
0.0185185185185185
 40
0.0185185185185185
 40
0.037037037037037
 40
0.037037037037037
 40
0.037037037037037
 40
0.037037037037037
 40
0.0555555555555556
 40
0.0555555555555556
 40
0.0555555555555556
 40
0.0555555555555556
 40
0.0740740740740741
 40
0.0740740740740741
 40
0.0740740740740741
 40
0.0740740740740741
 40
0.0925925925925926
 40
0.0925925925925926
 40
0.0925925925925926
 40
0.0925925925925926
 40
0.1111111111111111
 40
0.1111111111111111
 40
0.1111111111111111
 40
0.1111111111111111
 40
0.1296296296296296
 40
0.1296296296296296
 40
0.1296296296296296
 40
0.1296296296296296
 40
0.1481481481481481
 40
0.1481481481481481
 40
0.1481481481481481
 40
0.1481481481481481
 40
0.1666666666666667
 40
0.1666666666666667
 40
0.1666666666666667
 40
0.1666666666666667
 40
0.1851851851851852
 40
0.1851851851851852
 40
0.1851851851851852
 40
0.1851851851851852
 40
0.2037037037037037
 40
0.2037037037037037
 40
0.2037037037037037
 40
0.2037037037037037
 40
0.2222222222222222
 40
0.2222222222222222
 40
0.2222222222222222
 40
0.2222222222222222
 40
0.2407407407407407
 40
0.2407407407407407
 40
0.2407407407407407
 40
0.2407407407407407
 40
0.2592592592592592
 40
0.2592592592592592
 40
0.2592592592592592
 40
0.2592592592592592
 40
0.2777777777777778
 40
0.2777777777777778
 40
0.2777777777777778
 40
0.2777777777777778
 40
0.2962962962962963
 40
0.2962962962962963
 40
0.2962962962962963
 40
0.2962962962962963
 40
0.3148148148148148
 40
0.3148148148148148
 40
0.3148148148148148
 40
0.3148148148148148
 40
0.3333333333333333
 40
0.3333333333333333
 40
0.3333333333333333
 40
0.3333333333333333
 40
0.3518518518518519
 40
0.3518518518518519
 40
0.3518518518518519
 40
0.3518518518518519
 40
0.3703703703703703
 40
0.3703703703703703
 40
0.3703703703703703
 40
0.3703703703703703
 40
0.3888888888888889
 40
0.3888888888888889
 40
0.3888888888888889
 40
0.3888888888888889
 40
0.4074074074074074
 40
0.4074074074074074
 40
0.4074074074074074
 40
0.4074074074074074
 40
0.4259259259259259
 40
0.4259259259259259
 40
0.4259259259259259
 40
0.4259259259259259
 40
0.4444444444444444
 40
0.4444444444444444
 40
0.4444444444444444
 40
0.4444444444444444
 40
0.462962962962963
 40
0.462962962962963
 40
0.462962962962963
 40
0.462962962962963
 40
0.4814814814814815
 40
0.4814814814814815
 40
0.4814814814814815
 40
0.4814814814814815
 40
0.5
 40
0.5
 40
0.5
 40
0.5
 40
0.5185185185185185
 40
0.5185185185185185
 40
0.5185185185185185
 40
0.5185185185185185
 40
0.5370370370370371
 40
0.5370370370370371
 40
0.5370370370370371
 40
0.5370370370370371
 40
0.5555555555555556
 40
0.5555555555555556
 40
0.5555555555555556
 40
0.5555555555555556
 40
0.5740740740740741
 40
0.5740740740740741
 40
0.5740740740740741
 40
0.5740740740740741
 40
0.5925925925925926
 40
0.5925925925925926
 40
0.5925925925925926
 40
0.5925925925925926
 40
0.6111111111111112
 40
0.6111111111111112
 40
0.6111111111111112
 40
0.6111111111111112
 40
0.6296296296296297
 40
0.6296296296296297
 40
0.6296296296296297
 40
0.6296296296296297
 40
0.6481481481481481
 40
0.6481481481481481
 40
0.6481481481481481
 40
0.6481481481481481
 40
0.6666666666666666
 40
0.6666666666666666
 40
0.6666666666666666
 40
0.6666666666666666
 40
0.6851851851851852
 40
0.6851851851851852
 40
0.6851851851851852
 40
0.6851851851851852
 40
0.7037037037037037
 40
0.7037037037037037
 40
0.7037037037037037
 40
0.7037037037037037
 40
0.7222222222222222
 40
0.7222222222222222
 40
0.7222222222222222
 40
0.7222222222222222
 40
0.7407407407407407
 40
0.7407407407407407
 40
0.7407407407407407
 40
0.7407407407407407
 40
0.7592592592592593
 40
0.7592592592592593
 40
0.7592592592592593
 40
0.7592592592592593
 40
0.7777777777777778
 40
0.7777777777777778
 40
0.7777777777777778
 40
0.7777777777777778
 40
0.7962962962962963
 40
0.7962962962962963
 40
0.7962962962962963
 40
0.7962962962962963
 40
0.8148148148148148
 40
0.8148148148148148
 40
0.8148148148148148
 40
0.8148148148148148
 40
0.8333333333333334
 40
0.8333333333333334
 40
0.8333333333333334
 40
0.8333333333333334
 40
0.8518518518518519
 40
0.8518518518518519
 40
0.8518518518518519
 40
0.8518518518518519
 40
0.8703703703703703
 40
0.8703703703703703
 40
0.8703703703703703
 40
0.8703703703703703
 40
0.8888888888888888
 40
0.8888888888888888
 40
0.8888888888888888
 40
0.8888888888888888
 40
0.9074074074074074
 40
0.9074074074074074
 40
0.9074074074074074
 40
0.9074074074074074
 40
0.9259259259259259
 40
0.9259259259259259
 40
0.9259259259259259
 40
0.9259259259259259
 40
0.9444444444444444
 40
0.9444444444444444
 40
0.9444444444444444
 40
0.9444444444444444
 40
0.9629629629629629
 40
0.9629629629629629
 40
0.9629629629629629
 40
0.9629629629629629
 40
1.0
 40
1.0
 40
1.0
 40
1.0
 10
3.748
 20
-9.8796
 30
0.0
 10
3.748
 20
-9.8796
 30
0.0
 10
3.6639
 20
-9.9883
 30
0.0
 10
3.6639
 20
-9.9883
 30
0.0
 10
3.6639
 20
-9.9883
 30
0.0
 10
3.6639
 20
-9.9883
 30
0.0
 10
3.571
 20
-10.11
 30
0.0
 10
3.571
 20
-10.11
 30
0.0
 10
3.571
 20
-10.11
 30
0.0
 10
3.571
 20
-10.11
 30
0.0
 10
3.4697
 20
-10.2448
 30
0.0
 10
3.4697
 20
-10.2448
 30
0.0
 10
3.4697
 20
-10.2448
 30
0.0
 10
3.4697
 20
-10.2448
 30
0.0
 10
3.3604
 20
-10.3931
 30
0.0
 10
3.3604
 20
-10.3931
 30
0.0
 10
3.3604
 20
-10.3931
 30
0.0
 10
3.3604
 20
-10.3931
 30
0.0
 10
3.2439
 20
-10.5548
 30
0.0
 10
3.2439
 20
-10.5548
 30
0.0
 10
3.2439
 20
-10.5548
 30
0.0
 10
3.2439
 20
-10.5548
 30
0.0
 10
3.1214
 20
-10.7297
 30
0.0
 10
3.1214
 20
-10.7297
 30
0.0
 10
3.1214
 20
-10.7297
 30
0.0
 10
3.1214
 20
-10.7297
 30
0.0
 10
2.9945
 20
-10.9171
 30
0.0
 10
2.9945
 20
-10.9171
 30
0.0
 10
2.9945
 20
-10.9171
 30
0.0
 10
2.9945
 20
-10.9171
 30
0.0
 10
2.8658
 20
-11.115
 30
0.0
 10
2.8658
 20
-11.115
 30
0.0
 10
2.8658
 20
-11.115
 30
0.0
 10
2.8658
 20
-11.115
 30
0.0
 10
2.7384
 20
-11.321
 30
0.0
 10
2.7384
 20
-11.321
 30
0.0
 10
2.7384
 20
-11.321
 30
0.0
 10
2.7384
 20
-11.321
 30
0.0
 10
2.6161
 20
-11.5311
 30
0.0
 10
2.6161
 20
-11.5311
 30
0.0
 10
2.6161
 20
-11.5311
 30
0.0
 10
2.6161
 20
-11.5311
 30
0.0
 10
2.5021
 20
-11.7412
 30
0.0
 10
2.5021
 20
-11.7412
 30
0.0
 10
2.5021
 20
-11.7412
 30
0.0
 10
2.5021
 20
-11.7412
 30
0.0
 10
2.399
 20
-11.9479
 30
0.0
 10
2.399
 20
-11.9479
 30
0.0
 10
2.399
 20
-11.9479
 30
0.0
 10
2.399
 20
-11.9479
 30
0.0
 10
2.3084
 20
-12.1483
 30
0.0
 10
2.3084
 20
-12.1483
 30
0.0
 10
2.3084
 20
-12.1483
 30
0.0
 10
2.3084
 20
-12.1483
 30
0.0
 10
2.2307
 20
-12.3412
 30
0.0
 10
2.2307
 20
-12.3412
 30
0.0
 10
2.2307
 20
-12.3412
 30
0.0
 10
2.2307
 20
-12.3412
 30
0.0
 10
2.1654
 20
-12.5265
 30
0.0
 10
2.1654
 20
-12.5265
 30
0.0
 10
2.1654
 20
-12.5265
 30
0.0
 10
2.1654
 20
-12.5265
 30
0.0
 10
2.1118
 20
-12.7045
 30
0.0
 10
2.1118
 20
-12.7045
 30
0.0
 10
2.1118
 20
-12.7045
 30
0.0
 10
2.1118
 20
-12.7045
 30
0.0
 10
2.0692
 20
-12.8765
 30
0.0
 10
2.0692
 20
-12.8765
 30
0.0
 10
2.0692
 20
-12.8765
 30
0.0
 10
2.0692
 20
-12.8765
 30
0.0
 10
2.0366
 20
-13.0433
 30
0.0
 10
2.0366
 20
-13.0433
 30
0.0
 10
2.0366
 20
-13.0433
 30
0.0
 10
2.0366
 20
-13.0433
 30
0.0
 10
2.0135
 20
-13.2064
 30
0.0
 10
2.0135
 20
-13.2064
 30
0.0
 10
2.0135
 20
-13.2064
 30
0.0
 10
2.0135
 20
-13.2064
 30
0.0
 10
1.9993
 20
-13.3675
 30
0.0
 10
1.9993
 20
-13.3675
 30
0.0
 10
1.9993
 20
-13.3675
 30
0.0
 10
1.9993
 20
-13.3675
 30
0.0
 10
1.9938
 20
-13.5273
 30
0.0
 10
1.9938
 20
-13.5273
 30
0.0
 10
1.9938
 20
-13.5273
 30
0.0
 10
1.9938
 20
-13.5273
 30
0.0
 10
1.9969
 20
-13.6867
 30
0.0
 10
1.9969
 20
-13.6867
 30
0.0
 10
1.9969
 20
-13.6867
 30
0.0
 10
1.9969
 20
-13.6867
 30
0.0
 10
2.0087
 20
-13.8474
 30
0.0
 10
2.0087
 20
-13.8474
 30
0.0
 10
2.0087
 20
-13.8474
 30
0.0
 10
2.0087
 20
-13.8474
 30
0.0
 10
2.0295
 20
-14.0107
 30
0.0
 10
2.0295
 20
-14.0107
 30
0.0
 10
2.0295
 20
-14.0107
 30
0.0
 10
2.0295
 20
-14.0107
 30
0.0
 10
2.0596
 20
-14.1773
 30
0.0
 10
2.0596
 20
-14.1773
 30
0.0
 10
2.0596
 20
-14.1773
 30
0.0
 10
2.0596
 20
-14.1773
 30
0.0
 10
2.0997
 20
-14.3484
 30
0.0
 10
2.0997
 20
-14.3484
 30
0.0
 10
2.0997
 20
-14.3484
 30
0.0
 10
2.0997
 20
-14.3484
 30
0.0
 10
2.1506
 20
-14.5256
 30
0.0
 10
2.1506
 20
-14.5256
 30
0.0
 10
2.1506
 20
-14.5256
 30
0.0
 10
2.1506
 20
-14.5256
 30
0.0
 10
2.213
 20
-14.7098
 30
0.0
 10
2.213
 20
-14.7098
 30
0.0
 10
2.213
 20
-14.7098
 30
0.0
 10
2.213
 20
-14.7098
 30
0.0
 10
2.288
 20
-14.9017
 30
0.0
 10
2.288
 20
-14.9017
 30
0.0
 10
2.288
 20
-14.9017
 30
0.0
 10
2.288
 20
-14.9017
 30
0.0
 10
2.3759
 20
-15.1014
 30
0.0
 10
2.3759
 20
-15.1014
 30
0.0
 10
2.3759
 20
-15.1014
 30
0.0
 10
2.3759
 20
-15.1014
 30
0.0
 10
2.4766
 20
-15.3079
 30
0.0
 10
2.4766
 20
-15.3079
 30
0.0
 10
2.4766
 20
-15.3079
 30
0.0
 10
2.4766
 20
-15.3079
 30
0.0
 10
2.5896
 20
-15.52
 30
0.0
 10
2.5896
 20
-15.52
 30
0.0
 10
2.5896
 20
-15.52
 30
0.0
 10
2.5896
 20
-15.52
 30
0.0
 10
2.7129
 20
-15.7347
 30
0.0
 10
2.7129
 20
-15.7347
 30
0.0
 10
2.7129
 20
-15.7347
 30
0.0
 10
2.7129
 20
-15.7347
 30
0.0
 10
2.8437
 20
-15.9484
 30
0.0
 10
2.8437
 20
-15.9484
 30
0.0
 10
2.8437
 20
-15.9484
 30
0.0
 10
2.8437
 20
-15.9484
 30
0.0
 10
2.978
 20
-16.1565
 30
0.0
 10
2.978
 20
-16.1565
 30
0.0
 10
2.978
 20
-16.1565
 30
0.0
 10
2.978
 20
-16.1565
 30
0.0
 10
3.1121
 20
-16.3553
 30
0.0
 10
3.1121
 20
-16.3553
 30
0.0
 10
3.1121
 20
-16.3553
 30
0.0
 10
3.1121
 20
-16.3553
 30
0.0
 10
3.2433
 20
-16.5428
 30
0.0
 10
3.2433
 20
-16.5428
 30
0.0
 10
3.2433
 20
-16.5428
 30
0.0
 10
3.2433
 20
-16.5428
 30
0.0
 10
3.3694
 20
-16.7176
 30
0.0
 10
3.3694
 20
-16.7176
 30
0.0
 10
3.3694
 20
-16.7176
 30
0.0
 10
3.3694
 20
-16.7176
 30
0.0
 10
3.489
 20
-16.8795
 30
0.0
 10
3.489
 20
-16.8795
 30
0.0
 10
3.489
 20
-16.8795
 30
0.0
 10
3.489
 20
-16.8795
 30
0.0
 10
3.601
 20
-17.028
 30
0.0
 10
3.601
 20
-17.028
 30
0.0
 10
3.601
 20
-17.028
 30
0.0
 10
3.601
 20
-17.028
 30
0.0
 10
3.7046
 20
-17.1629
 30
0.0
 10
3.7046
 20
-17.1629
 30
0.0
 10
3.7046
 20
-17.1629
 30
0.0
 10
3.7046
 20
-17.1629
 30
0.0
 10
3.7994
 20
-17.2847
 30
0.0
 10
3.7994
 20
-17.2847
 30
0.0
 10
3.7994
 20
-17.2847
 30
0.0
 10
3.7994
 20
-17.2847
 30
0.0
 10
3.8853
 20
-17.3936
 30
0.0
 10
3.8853
 20
-17.3936
 30
0.0
 10
3.8853
 20
-17.3936
 30
0.0
 10
3.8853
 20
-17.3936
 30
0.0
 10
3.9622
 20
-17.4903
 30
0.0
 10
3.9622
 20
-17.4903
 30
0.0
 10
3.9622
 20
-17.4903
 30
0.0
 10
3.9622
 20
-17.4903
 30
0.0
 10
4.0303
 20
-17.5752
 30
0.0
 10
4.0303
 20
-17.5752
 30
0.0
 10
4.0303
 20
-17.5752
 30
0.0
 10
4.0303
 20
-17.5752
 30
0.0
 10
4.0899
 20
-17.6489
 30
0.0
 10
4.0899
 20
-17.6489
 30
0.0
 10
4.0899
 20
-17.6489
 30
0.0
 10
4.0899
 20
-17.6489
 30
0.0
 10
4.1409
 20
-17.7116
 30
0.0
 10
4.1409
 20
-17.7116
 30
0.0
 10
4.1409
 20
-17.7116
 30
0.0
 10
4.1409
 20
-17.7116
 30
0.0
 10
4.1837
 20
-17.7641
 30
0.0
 10
4.1837
 20
-17.7641
 30
0.0
 10
4.1837
 20
-17.7641
 30
0.0
 10
4.1837
 20
-17.7641
 30
0.0
 10
4.2185
 20
-17.8065
 30
0.0
 10
4.2185
 20
-17.8065
 30
0.0
 10
4.2185
 20
-17.8065
 30
0.0
 10
4.2185
 20
-17.8065
 30
0.0
 10
4.2454
 20
-17.8392
 30
0.0
 10
4.2454
 20
-17.8392
 30
0.0
 10
4.2454
 20
-17.8392
 30
0.0
 10
4.2454
 20
-17.8392
 30
0.0
 10
4.2646
 20
-17.8625
 30
0.0
 10
4.2646
 20
-17.8625
 30
0.0
 10
4.2646
 20
-17.8625
 30
0.0
 10
4.2646
 20
-17.8625
 30
0.0
 10
4.276
 20
-17.8763
 30
0.0
 10
4.276
 20
-17.8763
 30
0.0
 10
4.276
 20
-17.8763
 30
0.0
 10
4.276
 20
-17.8763
 30
0.0
 10
4.2798
 20
-17.8809
 30
0.0
 10
4.2798
 20
-17.8809
 30
0.0
  0
SPLINE
  5
D5
330
1F
100
AcDbEntity
  8
DEFAULT_1
 62
   250
100
AcDbSpline
210
0.0
220
0.0
230
1.0
 70
     8
 71
     3
 72
    56
 73
    52
 74
     0
 42
0.0000000001
 43
0.0000000001
 40
0.0
 40
0.0
 40
0.0
 40
0.0
 40
0.0714285714285714
 40
0.0714285714285714
 40
0.0714285714285714
 40
0.0714285714285714
 40
0.1428571428571428
 40
0.1428571428571428
 40
0.1428571428571428
 40
0.1428571428571428
 40
0.2142857142857143
 40
0.2142857142857143
 40
0.2142857142857143
 40
0.2142857142857143
 40
0.2857142857142857
 40
0.2857142857142857
 40
0.2857142857142857
 40
0.2857142857142857
 40
0.3571428571428572
 40
0.3571428571428572
 40
0.3571428571428572
 40
0.3571428571428572
 40
0.4285714285714285
 40
0.4285714285714285
 40
0.4285714285714285
 40
0.4285714285714285
 40
0.5
 40
0.5
 40
0.5
 40
0.5
 40
0.5714285714285714
 40
0.5714285714285714
 40
0.5714285714285714
 40
0.5714285714285714
 40
0.6428571428571429
 40
0.6428571428571429
 40
0.6428571428571429
 40
0.6428571428571429
 40
0.7142857142857143
 40
0.7142857142857143
 40
0.7142857142857143
 40
0.7142857142857143
 40
0.7857142857142857
 40
0.7857142857142857
 40
0.7857142857142857
 40
0.7857142857142857
 40
0.8571428571428571
 40
0.8571428571428571
 40
0.8571428571428571
 40
0.8571428571428571
 40
1.0
 40
1.0
 40
1.0
 40
1.0
 10
3.9538
 20
-9.3981
 30
0.0
 10
3.9538
 20
-9.3981
 30
0.0
 10
3.9539
 20
-9.4014
 30
0.0
 10
3.9539
 20
-9.4014
 30
0.0
 10
3.9539
 20
-9.4014
 30
0.0
 10
3.9539
 20
-9.4014
 30
0.0
 10
3.9538
 20
-9.4115
 30
0.0
 10
3.9538
 20
-9.4115
 30
0.0
 10
3.9538
 20
-9.4115
 30
0.0
 10
3.9538
 20
-9.4115
 30
0.0
 10
3.9531
 20
-9.4283
 30
0.0
 10
3.9531
 20
-9.4283
 30
0.0
 10
3.9531
 20
-9.4283
 30
0.0
 10
3.9531
 20
-9.4283
 30
0.0
 10
3.9511
 20
-9.4513
 30
0.0
 10
3.9511
 20
-9.4513
 30
0.0
 10
3.9511
 20
-9.4513
 30
0.0
 10
3.9511
 20
-9.4513
 30
0.0
 10
3.9469
 20
-9.4799
 30
0.0
 10
3.9469
 20
-9.4799
 30
0.0
 10
3.9469
 20
-9.4799
 30
0.0
 10
3.9469
 20
-9.4799
 30
0.0
 10
3.9394
 20
-9.5152
 30
0.0
 10
3.9394
 20
-9.5152
 30
0.0
 10
3.9394
 20
-9.5152
 30
0.0
 10
3.9394
 20
-9.5152
 30
0.0
 10
3.9268
 20
-9.5593
 30
0.0
 10
3.9268
 20
-9.5593
 30
0.0
 10
3.9268
 20
-9.5593
 30
0.0
 10
3.9268
 20
-9.5593
 30
0.0
 10
3.9098
 20
-9.6066
 30
0.0
 10
3.9098
 20
-9.6066
 30
0.0
 10
3.9098
 20
-9.6066
 30
0.0
 10
3.9098
 20
-9.6066
 30
0.0
 10
3.8895
 20
-9.6534
 30
0.0
 10
3.8895
 20
-9.6534
 30
0.0
 10
3.8895
 20
-9.6534
 30
0.0
 10
3.8895
 20
-9.6534
 30
0.0
 10
3.8638
 20
-9.7041
 30
0.0
 10
3.8638
 20
-9.7041
 30
0.0
 10
3.8638
 20
-9.7041
 30
0.0
 10
3.8638
 20
-9.7041
 30
0.0
 10
3.8319
 20
-9.7593
 30
0.0
 10
3.8319
 20
-9.7593
 30
0.0
 10
3.8319
 20
-9.7593
 30
0.0
 10
3.8319
 20
-9.7593
 30
0.0
 10
3.7932
 20
-9.8182
 30
0.0
 10
3.7932
 20
-9.8182
 30
0.0
 10
3.7932
 20
-9.8182
 30
0.0
 10
3.7932
 20
-9.8182
 30
0.0
 10
3.748
 20
-9.8796
 30
0.0
 10
3.748
 20
-9.8796
 30
0.0
  0
SPLINE
  5
D6
330
1F
100
AcDbEntity
  8
DEFAULT_1
 62
   250
100
AcDbSpline
210
0.0
220
0.0
230
1.0
 70
    11
 71
     3
 72
   164
 73
   160
 74
     0
 42
0.0000000001
 43
0.0000000001
 40
0.0
 40
0.0
 40
0.0
 40
0.0
 40
0.024390243902439
 40
0.024390243902439
 40
0.024390243902439
 40
0.024390243902439
 40
0.0487804878048781
 40
0.0487804878048781
 40
0.0487804878048781
 40
0.0487804878048781
 40
0.0731707317073171
 40
0.0731707317073171
 40
0.0731707317073171
 40
0.0731707317073171
 40
0.0975609756097561
 40
0.0975609756097561
 40
0.0975609756097561
 40
0.0975609756097561
 40
0.1219512195121951
 40
0.1219512195121951
 40
0.1219512195121951
 40
0.1219512195121951
 40
0.1463414634146341
 40
0.1463414634146341
 40
0.1463414634146341
 40
0.1463414634146341
 40
0.1707317073170732
 40
0.1707317073170732
 40
0.1707317073170732
 40
0.1707317073170732
 40
0.1951219512195122
 40
0.1951219512195122
 40
0.1951219512195122
 40
0.1951219512195122
 40
0.2195121951219512
 40
0.2195121951219512
 40
0.2195121951219512
 40
0.2195121951219512
 40
0.2439024390243902
 40
0.2439024390243902
 40
0.2439024390243902
 40
0.2439024390243902
 40
0.2682926829268293
 40
0.2682926829268293
 40
0.2682926829268293
 40
0.2682926829268293
 40
0.2926829268292683
 40
0.2926829268292683
 40
0.2926829268292683
 40
0.2926829268292683
 40
0.3170731707317073
 40
0.3170731707317073
 40
0.3170731707317073
 40
0.3170731707317073
 40
0.3414634146341464
 40
0.3414634146341464
 40
0.3414634146341464
 40
0.3414634146341464
 40
0.3658536585365854
 40
0.3658536585365854
 40
0.3658536585365854
 40
0.3658536585365854
 40
0.3902439024390244
 40
0.3902439024390244
 40
0.3902439024390244
 40
0.3902439024390244
 40
0.4146341463414634
 40
0.4146341463414634
 40
0.4146341463414634
 40
0.4146341463414634
 40
0.4390243902439024
 40
0.4390243902439024
 40
0.4390243902439024
 40
0.4390243902439024
 40
0.4634146341463415
 40
0.4634146341463415
 40
0.4634146341463415
 40
0.4634146341463415
 40
0.4878048780487805
 40
0.4878048780487805
 40
0.4878048780487805
 40
0.4878048780487805
 40
0.5121951219512195
 40
0.5121951219512195
 40
0.5121951219512195
 40
0.5121951219512195
 40
0.5365853658536586
 40
0.5365853658536586
 40
0.5365853658536586
 40
0.5365853658536586
 40
0.5609756097560976
 40
0.5609756097560976
 40
0.5609756097560976
 40
0.5609756097560976
 40
0.5853658536585366
 40
0.5853658536585366
 40
0.5853658536585366
 40
0.5853658536585366
 40
0.6097560975609756
 40
0.6097560975609756
 40
0.6097560975609756
 40
0.6097560975609756
 40
0.6341463414634146
 40
0.6341463414634146
 40
0.6341463414634146
 40
0.6341463414634146
 40
0.6585365853658537
 40
0.6585365853658537
 40
0.6585365853658537
 40
0.6585365853658537
 40
0.6829268292682927
 40
0.6829268292682927
 40
0.6829268292682927
 40
0.6829268292682927
 40
0.7073170731707317
 40
0.7073170731707317
 40
0.7073170731707317
 40
0.7073170731707317
 40
0.7317073170731707
 40
0.7317073170731707
 40
0.7317073170731707
 40
0.7317073170731707
 40
0.7560975609756098
 40
0.7560975609756098
 40
0.7560975609756098
 40
0.7560975609756098
 40
0.7804878048780488
 40
0.7804878048780488
 40
0.7804878048780488
 40
0.7804878048780488
 40
0.8048780487804879
 40
0.8048780487804879
 40
0.8048780487804879
 40
0.8048780487804879
 40
0.8292682926829268
 40
0.8292682926829268
 40
0.8292682926829268
 40
0.8292682926829268
 40
0.8536585365853658
 40
0.8536585365853658
 40
0.8536585365853658
 40
0.8536585365853658
 40
0.8780487804878049
 40
0.8780487804878049
 40
0.8780487804878049
 40
0.8780487804878049
 40
0.9024390243902439
 40
0.9024390243902439
 40
0.9024390243902439
 40
0.9024390243902439
 40
0.926829268292683
 40
0.926829268292683
 40
0.926829268292683
 40
0.926829268292683
 40
0.9512195121951219
 40
0.9512195121951219
 40
0.9512195121951219
 40
0.9512195121951219
 40
1.0
 40
1.0
 40
1.0
 40
1.0
 10
-1.1744
 20
-7.4587
 30
0.0
 10
-1.1744
 20
-7.4587
 30
0.0
 10
-3.6247
 20
-7.4587
 30
0.0
 10
-3.6247
 20
-7.4587
 30
0.0
 10
-3.6247
 20
-7.4587
 30
0.0
 10
-3.6247
 20
-7.4587
 30
0.0
 10
-3.6124
 20
-6.3735
 30
0.0
 10
-3.6124
 20
-6.3735
 30
0.0
 10
-3.6124
 20
-6.3735
 30
0.0
 10
-3.6124
 20
-6.3735
 30
0.0
 10
-3.6815
 20
-6.2121
 30
0.0
 10
-3.6815
 20
-6.2121
 30
0.0
 10
-3.6815
 20
-6.2121
 30
0.0
 10
-3.6815
 20
-6.2121
 30
0.0
 10
-3.811
 20
-6.0932
 30
0.0
 10
-3.811
 20
-6.0932
 30
0.0
 10
-3.811
 20
-6.0932
 30
0.0
 10
-3.811
 20
-6.0932
 30
0.0
 10
-3.906
 20
-6.1102
 30
0.0
 10
-3.906
 20
-6.1102
 30
0.0
 10
-3.906
 20
-6.1102
 30
0.0
 10
-3.906
 20
-6.1102
 30
0.0
 10
-3.9838
 20
-6.1781
 30
0.0
 10
-3.9838
 20
-6.1781
 30
0.0
 10
-3.9838
 20
-6.1781
 30
0.0
 10
-3.9838
 20
-6.1781
 30
0.0
 10
-4.027
 20
-6.2885
 30
0.0
 10
-4.027
 20
-6.2885
 30
0.0
 10
-4.027
 20
-6.2885
 30
0.0
 10
-4.027
 20
-6.2885
 30
0.0
 10
-4.0701
 20
-6.4415
 30
0.0
 10
-4.0701
 20
-6.4415
 30
0.0
 10
-4.0701
 20
-6.4415
 30
0.0
 10
-4.0701
 20
-6.4415
 30
0.0
 10
-4.0701
 20
-7.4522
 30
0.0
 10
-4.0701
 20
-7.4522
 30
0.0
 10
-4.0701
 20
-7.4522
 30
0.0
 10
-4.0701
 20
-7.4522
 30
0.0
 10
-5.0288
 20
-7.4608
 30
0.0
 10
-5.0288
 20
-7.4608
 30
0.0
 10
-5.0288
 20
-7.4608
 30
0.0
 10
-5.0288
 20
-7.4608
 30
0.0
 10
-5.0115
 20
-5.6089
 30
0.0
 10
-5.0115
 20
-5.6089
 30
0.0
 10
-5.0115
 20
-5.6089
 30
0.0
 10
-5.0115
 20
-5.6089
 30
0.0
 10
-4.9683
 20
-5.4986
 30
0.0
 10
-4.9683
 20
-5.4986
 30
0.0
 10
-4.9683
 20
-5.4986
 30
0.0
 10
-4.9683
 20
-5.4986
 30
0.0
 10
-4.8733
 20
-5.4136
 30
0.0
 10
-4.8733
 20
-5.4136
 30
0.0
 10
-4.8733
 20
-5.4136
 30
0.0
 10
-4.8733
 20
-5.4136
 30
0.0
 10
-4.7957
 20
-5.3711
 30
0.0
 10
-4.7957
 20
-5.3711
 30
0.0
 10
-4.7957
 20
-5.3711
 30
0.0
 10
-4.7957
 20
-5.3711
 30
0.0
 10
-4.6833
 20
-5.3371
 30
0.0
 10
-4.6833
 20
-5.3371
 30
0.0
 10
-4.6833
 20
-5.3371
 30
0.0
 10
-4.6833
 20
-5.3371
 30
0.0
 10
2.975
 20
-5.331
 30
0.0
 10
2.975
 20
-5.331
 30
0.0
 10
2.975
 20
-5.331
 30
0.0
 10
2.975
 20
-5.331
 30
0.0
 10
3.1326
 20
-5.3899
 30
0.0
 10
3.1326
 20
-5.3899
 30
0.0
 10
3.1326
 20
-5.3899
 30
0.0
 10
3.1326
 20
-5.3899
 30
0.0
 10
3.2392
 20
-5.4797
 30
0.0
 10
3.2392
 20
-5.4797
 30
0.0
 10
3.2392
 20
-5.4797
 30
0.0
 10
3.2392
 20
-5.4797
 30
0.0
 10
3.2696
 20
-5.6369
 30
0.0
 10
3.2696
 20
-5.6369
 30
0.0
 10
3.2696
 20
-5.6369
 30
0.0
 10
3.2696
 20
-5.6369
 30
0.0
 10
3.2696
 20
-7.4784
 30
0.0
 10
3.2696
 20
-7.4784
 30
0.0
 10
3.2696
 20
-7.4784
 30
0.0
 10
3.2696
 20
-7.4784
 30
0.0
 10
2.2954
 20
-7.4709
 30
0.0
 10
2.2954
 20
-7.4709
 30
0.0
 10
2.2954
 20
-7.4709
 30
0.0
 10
2.2954
 20
-7.4709
 30
0.0
 10
2.3182
 20
-6.4004
 30
0.0
 10
2.3182
 20
-6.4004
 30
0.0
 10
2.3182
 20
-6.4004
 30
0.0
 10
2.3182
 20
-6.4004
 30
0.0
 10
2.265
 20
-6.1983
 30
0.0
 10
2.265
 20
-6.1983
 30
0.0
 10
2.265
 20
-6.1983
 30
0.0
 10
2.265
 20
-6.1983
 30
0.0
 10
2.2041
 20
-6.1085
 30
0.0
 10
2.2041
 20
-6.1085
 30
0.0
 10
2.2041
 20
-6.1085
 30
0.0
 10
2.2041
 20
-6.1085
 30
0.0
 10
2.1356
 20
-6.1085
 30
0.0
 10
2.1356
 20
-6.1085
 30
0.0
 10
2.1356
 20
-6.1085
 30
0.0
 10
2.1356
 20
-6.1085
 30
0.0
 10
2.0595
 20
-6.1085
 30
0.0
 10
2.0595
 20
-6.1085
 30
0.0
 10
2.0595
 20
-6.1085
 30
0.0
 10
2.0595
 20
-6.1085
 30
0.0
 10
1.9529
 20
-6.1908
 30
0.0
 10
1.9529
 20
-6.1908
 30
0.0
 10
1.9529
 20
-6.1908
 30
0.0
 10
1.9529
 20
-6.1908
 30
0.0
 10
1.8844
 20
-6.3181
 30
0.0
 10
1.8844
 20
-6.3181
 30
0.0
 10
1.8844
 20
-6.3181
 30
0.0
 10
1.8844
 20
-6.3181
 30
0.0
 10
1.8844
 20
-6.393
 30
0.0
 10
1.8844
 20
-6.393
 30
0.0
 10
1.8844
 20
-6.393
 30
0.0
 10
1.8844
 20
-6.393
 30
0.0
 10
1.8844
 20
-7.4559
 30
0.0
 10
1.8844
 20
-7.4559
 30
0.0
 10
1.8844
 20
-7.4559
 30
0.0
 10
1.8844
 20
-7.4559
 30
0.0
 10
-0.5889
 20
-7.4559
 30
0.0
 10
-0.5889
 20
-7.4559
 30
0.0
 10
-0.5889
 20
-7.4559
 30
0.0
 10
-0.5889
 20
-7.4559
 30
0.0
 10
-0.5889
 20
-6.4154
 30
0.0
 10
-0.5889
 20
-6.4154
 30
0.0
 10
-0.5889
 20
-6.4154
 30
0.0
 10
-0.5889
 20
-6.4154
 30
0.0
 10
-0.6195
 20
-6.2731
 30
0.0
 10
-0.6195
 20
-6.2731
 30
0.0
 10
-0.6195
 20
-6.2731
 30
0.0
 10
-0.6195
 20
-6.2731
 30
0.0
 10
-0.6955
 20
-6.1684
 30
0.0
 10
-0.6955
 20
-6.1684
 30
0.0
 10
-0.6955
 20
-6.1684
 30
0.0
 10
-0.6955
 20
-6.1684
 30
0.0
 10
-0.8401
 20
-6.1234
 30
0.0
 10
-0.8401
 20
-6.1234
 30
0.0
 10
-0.8401
 20
-6.1234
 30
0.0
 10
-0.8401
 20
-6.1234
 30
0.0
 10
-0.9848
 20
-6.1459
 30
0.0
 10
-0.9848
 20
-6.1459
 30
0.0
 10
-0.9848
 20
-6.1459
 30
0.0
 10
-0.9848
 20
-6.1459
 30
0.0
 10
-1.0913
 20
-6.1908
 30
0.0
 10
-1.0913
 20
-6.1908
 30
0.0
 10
-1.0913
 20
-6.1908
 30
0.0
 10
-1.0913
 20
-6.1908
 30
0.0
 10
-1.1522
 20
-6.2582
 30
0.0
 10
-1.1522
 20
-6.2582
 30
0.0
 10
-1.1522
 20
-6.2582
 30
0.0
 10
-1.1522
 20
-6.2582
 30
0.0
 10
-1.1826
 20
-6.3256
 30
0.0
 10
-1.1826
 20
-6.3256
 30
0.0
 10
-1.1826
 20
-6.3256
 30
0.0
 10
-1.1826
 20
-6.3256
 30
0.0
 10
-1.1744
 20
-7.4587
 30
0.0
 10
-1.1744
 20
-7.4587
 30
0.0
  0
SPLINE
  5
D7
330
1F
100
AcDbEntity
  8
DEFAULT_1
 62
   250
100
AcDbSpline
210
0.0
220
0.0
230
1.0
 70
    11
 71
     3
 72
    28
 73
    24
 74
     0
 42
0.0000000001
 43
0.0000000001
 40
0.0
 40
0.0
 40
0.0
 40
0.0
 40
0.1428571428571428
 40
0.1428571428571428
 40
0.1428571428571428
 40
0.1428571428571428
 40
0.2857142857142857
 40
0.2857142857142857
 40
0.2857142857142857
 40
0.2857142857142857
 40
0.4285714285714285
 40
0.4285714285714285
 40
0.4285714285714285
 40
0.4285714285714285
 40
0.5714285714285714
 40
0.5714285714285714
 40
0.5714285714285714
 40
0.5714285714285714
 40
0.7142857142857143
 40
0.7142857142857143
 40
0.7142857142857143
 40
0.7142857142857143
 40
1.0
 40
1.0
 40
1.0
 40
1.0
 10
-5.0846
 20
-6.0986
 30
0.0
 10
-5.0846
 20
-6.0986
 30
0.0
 10
-5.0846
 20
-7.9122
 30
0.0
 10
-5.0846
 20
-7.9122
 30
0.0
 10
-5.0846
 20
-7.9122
 30
0.0
 10
-5.0846
 20
-7.9122
 30
0.0
 10
3.349
 20
-7.9122
 30
0.0
 10
3.349
 20
-7.9122
 30
0.0
 10
3.349
 20
-7.9122
 30
0.0
 10
3.349
 20
-7.9122
 30
0.0
 10
3.349
 20
-6.0986
 30
0.0
 10
3.349
 20
-6.0986
 30
0.0
 10
3.349
 20
-6.0986
 30
0.0
 10
3.349
 20
-6.0986
 30
0.0
 10
3.349
 20
-7.9122
 30
0.0
 10
3.349
 20
-7.9122
 30
0.0
 10
3.349
 20
-7.9122
 30
0.0
 10
3.349
 20
-7.9122
 30
0.0
 10
-5.0846
 20
-7.9122
 30
0.0
 10
-5.0846
 20
-7.9122
 30
0.0
 10
-5.0846
 20
-7.9122
 30
0.0
 10
-5.0846
 20
-7.9122
 30
0.0
 10
-5.0846
 20
-6.0986
 30
0.0
 10
-5.0846
 20
-6.0986
 30
0.0
  0
SPLINE
  5
D8
330
1F
100
AcDbEntity
  8
DEFAULT_1
 62
   250
100
AcDbSpline
210
0.0
220
0.0
230
1.0
 70
     8
 71
     3
 72
    24
 73
    20
 74
     0
 42
0.0000000001
 43
0.0000000001
 40
0.0
 40
0.0
 40
0.0
 40
0.0
 40
0.1666666666666667
 40
0.1666666666666667
 40
0.1666666666666667
 40
0.1666666666666667
 40
0.3333333333333333
 40
0.3333333333333333
 40
0.3333333333333333
 40
0.3333333333333333
 40
0.5
 40
0.5
 40
0.5
 40
0.5
 40
0.6666666666666666
 40
0.6666666666666666
 40
0.6666666666666666
 40
0.6666666666666666
 40
1.0
 40
1.0
 40
1.0
 40
1.0
 10
-4.5434
 20
-7.9251
 30
0.0
 10
-4.5434
 20
-7.9251
 30
0.0
 10
-4.5505
 20
-8.2449
 30
0.0
 10
-4.5505
 20
-8.2449
 30
0.0
 10
-4.5505
 20
-8.2449
 30
0.0
 10
-4.5505
 20
-8.2449
 30
0.0
 10
-4.33
 20
-8.2449
 30
0.0
 10
-4.33
 20
-8.2449
 30
0.0
 10
-4.33
 20
-8.2449
 30
0.0
 10
-4.33
 20
-8.2449
 30
0.0
 10
2.3932
 20
-8.2449
 30
0.0
 10
2.3932
 20
-8.2449
 30
0.0
 10
2.3932
 20
-8.2449
 30
0.0
 10
2.3932
 20
-8.2449
 30
0.0
 10
2.6138
 20
-8.2449
 30
0.0
 10
2.6138
 20
-8.2449
 30
0.0
 10
2.6138
 20
-8.2449
 30
0.0
 10
2.6138
 20
-8.2449
 30
0.0
 10
2.6135
 20
-7.9019
 30
0.0
 10
2.6135
 20
-7.9019
 30
0.0
  0
SPLINE
  5
D9
330
1F
100
AcDbEntity
  8
DEFAULT_1
 62
   250
100
AcDbSpline
210
0.0
220
0.0
230
1.0
 70
    27
 71
     3
 72
    16
 73
    12
 74
     0
 42
0.0000000001
 43
0.0000000001
 40
0.0
 40
0.0
 40
0.0
 40
0.0
 40
0.25
 40
0.25
 40
0.25
 40
0.25
 40
0.5
 40
0.5
 40
0.5
 40
0.5
 40
1.0
 40
1.0
 40
1.0
 40
1.0
 10
2.3932
 20
-8.2448
 30
0.0
 10
2.3932
 20
-8.2448
 30
0.0
 10
2.3932
 20
-8.2449
 30
0.0
 10
2.3932
 20
-8.2449
 30
0.0
 10
2.3932
 20
-8.2449
 30
0.0
 10
2.3932
 20
-8.2449
 30
0.0
 10
2.3932
 20
-9.1434
 30
0.0
 10
2.3932
 20
-9.1434
 30
0.0
 10
2.3932
 20
-9.1434
 30
0.0
 10
2.3932
 20
-9.1434
 30
0.0
 10
2.3932
 20
-8.2448
 30
0.0
 10
2.3932
 20
-8.2448
 30
0.0
  0
SPLINE
  5
DA
330
1F
100
AcDbEntity
  8
DEFAULT_1
 62
   250
100
AcDbSpline
210
0.0
220
0.0
230
1.0
 70
    27
 71
     3
 72
    20
 73
    16
 74
     0
 42
0.0000000001
 43
0.0000000001
 40
0.0
 40
0.0
 40
0.0
 40
0.0
 40
0.2
 40
0.2
 40
0.2
 40
0.2
 40
0.4
 40
0.4
 40
0.4
 40
0.4
 40
0.6
 40
0.6
 40
0.6
 40
0.6
 40
1.0
 40
1.0
 40
1.0
 40
1.0
 10
-4.33
 20
-8.2448
 30
0.0
 10
-4.33
 20
-8.2448
 30
0.0
 10
-4.33
 20
-8.2449
 30
0.0
 10
-4.33
 20
-8.2449
 30
0.0
 10
-4.33
 20
-8.2449
 30
0.0
 10
-4.33
 20
-8.2449
 30
0.0
 10
-4.33
 20
-9.1434
 30
0.0
 10
-4.33
 20
-9.1434
 30
0.0
 10
-4.33
 20
-9.1434
 30
0.0
 10
-4.33
 20
-9.1434
 30
0.0
 10
-4.33
 20
-8.2449
 30
0.0
 10
-4.33
 20
-8.2449
 30
0.0
 10
-4.33
 20
-8.2449
 30
0.0
 10
-4.33
 20
-8.2449
 30
0.0
 10
-4.33
 20
-8.2448
 30
0.0
 10
-4.33
 20
-8.2448
 30
0.0
  0
SPLINE
  5
DB
330
1F
100
AcDbEntity
  8
DEFAULT_1
 62
   250
100
AcDbSpline
210
0.0
220
0.0
230
1.0
 70
     8
 71
     3
 72
    16
 73
    12
 74
     0
 42
0.0000000001
 43
0.0000000001
 40
0.0
 40
0.0
 40
0.0
 40
0.0
 40
0.25
 40
0.25
 40
0.25
 40
0.25
 40
0.5
 40
0.5
 40
0.5
 40
0.5
 40
1.0
 40
1.0
 40
1.0
 40
1.0
 10
6.1031
 20
-8.6883
 30
0.0
 10
6.1031
 20
-8.6883
 30
0.0
 10
5.626
 20
-8.6937
 30
0.0
 10
5.626
 20
-8.6937
 30
0.0
 10
5.626
 20
-8.6937
 30
0.0
 10
5.626
 20
-8.6937
 30
0.0
 10
5.626
 20
-18.5853
 30
0.0
 10
5.626
 20
-18.5853
 30
0.0
 10
5.626
 20
-18.5853
 30
0.0
 10
5.626
 20
-18.5853
 30
0.0
 10
6.1902
 20
-18.5935
 30
0.0
 10
6.1902
 20
-18.5935
 30
0.0
  0
SPLINE
  5
DC
330
1F
100
AcDbEntity
  8
DEFAULT_1
 62
   250
100
AcDbSpline
210
0.0
220
0.0
230
1.0
 70
     8
 71
     3
 72
    28
 73
    24
 74
     0
 42
0.0000000001
 43
0.0000000001
 40
0.0
 40
0.0
 40
0.0
 40
0.0
 40
0.1428571428571428
 40
0.1428571428571428
 40
0.1428571428571428
 40
0.1428571428571428
 40
0.2857142857142857
 40
0.2857142857142857
 40
0.2857142857142857
 40
0.2857142857142857
 40
0.4285714285714285
 40
0.4285714285714285
 40
0.4285714285714285
 40
0.4285714285714285
 40
0.5714285714285714
 40
0.5714285714285714
 40
0.5714285714285714
 40
0.5714285714285714
 40
0.7142857142857143
 40
0.7142857142857143
 40
0.7142857142857143
 40
0.7142857142857143
 40
1.0
 40
1.0
 40
1.0
 40
1.0
 10
5.7893
 20
-8.7757
 30
0.0
 10
5.7893
 20
-8.7757
 30
0.0
 10
7.8741
 20
-8.7686
 30
0.0
 10
7.8741
 20
-8.7686
 30
0.0
 10
7.8741
 20
-8.7686
 30
0.0
 10
8.0397
 20
-8.7686
 30
0.0
 10
8.1738
 20
-8.9029
 30
0.0
 10
8.1738
 20
-9.0684
 30
0.0
 10
8.1738
 20
-9.0684
 30
0.0
 10
8.1738
 20
-9.0684
 30
0.0
 10
8.1777
 20
-18.2442
 30
0.0
 10
8.1777
 20
-18.2442
 30
0.0
 10
8.1777
 20
-18.2442
 30
0.0
 10
8.1777
 20
-18.2442
 30
0.0
 10
8.0905
 20
-18.4188
 30
0.0
 10
8.0905
 20
-18.4188
 30
0.0
 10
8.0905
 20
-18.4188
 30
0.0
 10
8.0905
 20
-18.4188
 30
0.0
 10
7.9336
 20
-18.5586
 30
0.0
 10
7.9336
 20
-18.5586
 30
0.0
 10
7.9336
 20
-18.5586
 30
0.0
 10
7.9336
 20
-18.5586
 30
0.0
 10
5.8415
 20
-18.5411
 30
0.0
 10
5.8415
 20
-18.5411
 30
0.0
  0
SPLINE
  5
DD
330
1F
100
AcDbEntity
  8
DEFAULT_1
 62
   250
100
AcDbSpline
210
0.0
220
0.0
230
1.0
 70
     8
 71
     3
 72
   160
 73
   156
 74
     0
 42
0.0000000001
 43
0.0000000001
 40
0.0
 40
0.0
 40
0.0
 40
0.0
 40
0.025
 40
0.025
 40
0.025
 40
0.025
 40
0.05
 40
0.05
 40
0.05
 40
0.05
 40
0.075
 40
0.075
 40
0.075
 40
0.075
 40
0.1
 40
0.1
 40
0.1
 40
0.1
 40
0.125
 40
0.125
 40
0.125
 40
0.125
 40
0.15
 40
0.15
 40
0.15
 40
0.15
 40
0.175
 40
0.175
 40
0.175
 40
0.175
 40
0.2
 40
0.2
 40
0.2
 40
0.2
 40
0.225
 40
0.225
 40
0.225
 40
0.225
 40
0.25
 40
0.25
 40
0.25
 40
0.25
 40
0.275
 40
0.275
 40
0.275
 40
0.275
 40
0.3
 40
0.3
 40
0.3
 40
0.3
 40
0.325
 40
0.325
 40
0.325
 40
0.325
 40
0.35
 40
0.35
 40
0.35
 40
0.35
 40
0.375
 40
0.375
 40
0.375
 40
0.375
 40
0.4
 40
0.4
 40
0.4
 40
0.4
 40
0.425
 40
0.425
 40
0.425
 40
0.425
 40
0.45
 40
0.45
 40
0.45
 40
0.45
 40
0.475
 40
0.475
 40
0.475
 40
0.475
 40
0.5
 40
0.5
 40
0.5
 40
0.5
 40
0.525
 40
0.525
 40
0.525
 40
0.525
 40
0.55
 40
0.55
 40
0.55
 40
0.55
 40
0.575
 40
0.575
 40
0.575
 40
0.575
 40
0.6
 40
0.6
 40
0.6
 40
0.6
 40
0.625
 40
0.625
 40
0.625
 40
0.625
 40
0.65
 40
0.65
 40
0.65
 40
0.65
 40
0.675
 40
0.675
 40
0.675
 40
0.675
 40
0.7
 40
0.7
 40
0.7
 40
0.7
 40
0.725
 40
0.725
 40
0.725
 40
0.725
 40
0.75
 40
0.75
 40
0.75
 40
0.75
 40
0.775
 40
0.775
 40
0.775
 40
0.775
 40
0.8
 40
0.8
 40
0.8
 40
0.8
 40
0.825
 40
0.825
 40
0.825
 40
0.825
 40
0.85
 40
0.85
 40
0.85
 40
0.85
 40
0.875
 40
0.875
 40
0.875
 40
0.875
 40
0.9
 40
0.9
 40
0.9
 40
0.9
 40
0.925
 40
0.925
 40
0.925
 40
0.925
 40
0.95
 40
0.95
 40
0.95
 40
0.95
 40
1.0
 40
1.0
 40
1.0
 40
1.0
 10
7.4244
 20
-8.8622
 30
0.0
 10
7.4244
 20
-8.8622
 30
0.0
 10
7.4143
 20
-8.8829
 30
0.0
 10
7.4143
 20
-8.8829
 30
0.0
 10
7.4143
 20
-8.8829
 30
0.0
 10
7.4143
 20
-8.8829
 30
0.0
 10
7.3843
 20
-8.9032
 30
0.0
 10
7.3843
 20
-8.9032
 30
0.0
 10
7.3843
 20
-8.9032
 30
0.0
 10
7.3843
 20
-8.9032
 30
0.0
 10
7.3367
 20
-8.9215
 30
0.0
 10
7.3367
 20
-8.9215
 30
0.0
 10
7.3367
 20
-8.9215
 30
0.0
 10
7.3367
 20
-8.9215
 30
0.0
 10
7.2746
 20
-8.936
 30
0.0
 10
7.2746
 20
-8.936
 30
0.0
 10
7.2746
 20
-8.936
 30
0.0
 10
7.2746
 20
-8.936
 30
0.0
 10
7.2022
 20
-8.9455
 30
0.0
 10
7.2022
 20
-8.9455
 30
0.0
 10
7.2022
 20
-8.9455
 30
0.0
 10
7.2022
 20
-8.9455
 30
0.0
 10
7.1247
 20
-8.9487
 30
0.0
 10
7.1247
 20
-8.9487
 30
0.0
 10
7.1247
 20
-8.9487
 30
0.0
 10
7.1247
 20
-8.9487
 30
0.0
 10
6.0252
 20
-8.9434
 30
0.0
 10
6.0252
 20
-8.9434
 30
0.0
 10
6.0252
 20
-8.9434
 30
0.0
 10
6.0252
 20
-8.9434
 30
0.0
 10
6.0252
 20
-9.9565
 30
0.0
 10
6.0252
 20
-9.9565
 30
0.0
 10
6.0252
 20
-9.9565
 30
0.0
 10
6.0252
 20
-9.9565
 30
0.0
 10
7.332
 20
-9.9418
 30
0.0
 10
7.332
 20
-9.9418
 30
0.0
 10
7.332
 20
-9.9418
 30
0.0
 10
7.332
 20
-9.9418
 30
0.0
 10
7.376
 20
-10.074
 30
0.0
 10
7.376
 20
-10.074
 30
0.0
 10
7.376
 20
-10.074
 30
0.0
 10
7.376
 20
-10.074
 30
0.0
 10
7.376
 20
-10.2355
 30
0.0
 10
7.376
 20
-10.2355
 30
0.0
 10
7.376
 20
-10.2355
 30
0.0
 10
7.376
 20
-10.2355
 30
0.0
 10
7.3173
 20
-10.2942
 30
0.0
 10
7.3173
 20
-10.2942
 30
0.0
 10
7.3173
 20
-10.2942
 30
0.0
 10
7.3173
 20
-10.2942
 30
0.0
 10
7.1851
 20
-10.3529
 30
0.0
 10
7.1851
 20
-10.3529
 30
0.0
 10
7.1851
 20
-10.3529
 30
0.0
 10
7.1851
 20
-10.3529
 30
0.0
 10
6.0693
 20
-10.3529
 30
0.0
 10
6.0693
 20
-10.3529
 30
0.0
 10
6.0693
 20
-10.3529
 30
0.0
 10
6.0693
 20
-10.3529
 30
0.0
 10
6.0693
 20
-12.1001
 30
0.0
 10
6.0693
 20
-12.1001
 30
0.0
 10
6.0693
 20
-12.1001
 30
0.0
 10
6.0693
 20
-12.1001
 30
0.0
 10
7.1998
 20
-12.1001
 30
0.0
 10
7.1998
 20
-12.1001
 30
0.0
 10
7.1998
 20
-12.1001
 30
0.0
 10
7.1998
 20
-12.1001
 30
0.0
 10
7.3026
 20
-12.2029
 30
0.0
 10
7.3026
 20
-12.2029
 30
0.0
 10
7.3026
 20
-12.2029
 30
0.0
 10
7.3026
 20
-12.2029
 30
0.0
 10
7.4054
 20
-12.4232
 30
0.0
 10
7.4054
 20
-12.4232
 30
0.0
 10
7.4054
 20
-12.4232
 30
0.0
 10
7.4054
 20
-12.4232
 30
0.0
 10
7.376
 20
-12.5553
 30
0.0
 10
7.376
 20
-12.5553
 30
0.0
 10
7.376
 20
-12.5553
 30
0.0
 10
7.376
 20
-12.5553
 30
0.0
 10
7.2585
 20
-12.6728
 30
0.0
 10
7.2585
 20
-12.6728
 30
0.0
 10
7.2585
 20
-12.6728
 30
0.0
 10
7.2585
 20
-12.6728
 30
0.0
 10
7.1264
 20
-12.6874
 30
0.0
 10
7.1264
 20
-12.6874
 30
0.0
 10
7.1264
 20
-12.6874
 30
0.0
 10
7.1264
 20
-12.6874
 30
0.0
 10
6.0839
 20
-12.7021
 30
0.0
 10
6.0839
 20
-12.7021
 30
0.0
 10
6.0839
 20
-12.7021
 30
0.0
 10
6.0839
 20
-12.7021
 30
0.0
 10
6.0693
 20
-14.6842
 30
0.0
 10
6.0693
 20
-14.6842
 30
0.0
 10
6.0693
 20
-14.6842
 30
0.0
 10
6.0693
 20
-14.6842
 30
0.0
 10
7.1998
 20
-14.6842
 30
0.0
 10
7.1998
 20
-14.6842
 30
0.0
 10
7.1998
 20
-14.6842
 30
0.0
 10
7.1998
 20
-14.6842
 30
0.0
 10
7.3907
 20
-14.8164
 30
0.0
 10
7.3907
 20
-14.8164
 30
0.0
 10
7.3907
 20
-14.8164
 30
0.0
 10
7.3907
 20
-14.8164
 30
0.0
 10
7.3907
 20
-15.0073
 30
0.0
 10
7.3907
 20
-15.0073
 30
0.0
 10
7.3907
 20
-15.0073
 30
0.0
 10
7.3907
 20
-15.0073
 30
0.0
 10
7.2292
 20
-15.1981
 30
0.0
 10
7.2292
 20
-15.1981
 30
0.0
 10
7.2292
 20
-15.1981
 30
0.0
 10
7.2292
 20
-15.1981
 30
0.0
 10
6.0839
 20
-15.1835
 30
0.0
 10
6.0839
 20
-15.1835
 30
0.0
 10
6.0839
 20
-15.1835
 30
0.0
 10
6.0839
 20
-15.1835
 30
0.0
 10
6.0839
 20
-16.9453
 30
0.0
 10
6.0839
 20
-16.9453
 30
0.0
 10
6.0839
 20
-16.9453
 30
0.0
 10
6.0839
 20
-16.9453
 30
0.0
 10
7.1411
 20
-16.9453
 30
0.0
 10
7.1411
 20
-16.9453
 30
0.0
 10
7.1411
 20
-16.9453
 30
0.0
 10
7.1411
 20
-16.9453
 30
0.0
 10
7.2732
 20
-16.9894
 30
0.0
 10
7.2732
 20
-16.9894
 30
0.0
 10
7.2732
 20
-16.9894
 30
0.0
 10
7.2732
 20
-16.9894
 30
0.0
 10
7.376
 20
-17.1215
 30
0.0
 10
7.376
 20
-17.1215
 30
0.0
 10
7.376
 20
-17.1215
 30
0.0
 10
7.376
 20
-17.1215
 30
0.0
 10
7.3613
 20
-17.239
 30
0.0
 10
7.3613
 20
-17.239
 30
0.0
 10
7.3613
 20
-17.239
 30
0.0
 10
7.3613
 20
-17.239
 30
0.0
 10
7.1998
 20
-17.3271
 30
0.0
 10
7.1998
 20
-17.3271
 30
0.0
 10
7.1998
 20
-17.3271
 30
0.0
 10
7.1998
 20
-17.3271
 30
0.0
 10
6.0399
 20
-17.3418
 30
0.0
 10
6.0399
 20
-17.3418
 30
0.0
 10
6.0399
 20
-17.3418
 30
0.0
 10
6.0399
 20
-17.3418
 30
0.0
 10
6.0399
 20
-18.3255
 30
0.0
 10
6.0399
 20
-18.3255
 30
0.0
 10
6.0399
 20
-18.3255
 30
0.0
 10
6.0399
 20
-18.3255
 30
0.0
 10
7.1264
 20
-18.3108
 30
0.0
 10
7.1264
 20
-18.3108
 30
0.0
 10
7.1264
 20
-18.3108
 30
0.0
 10
7.1264
 20
-18.3108
 30
0.0
 10
7.3026
 20
-18.3255
 30
0.0
 10
7.3026
 20
-18.3255
 30
0.0
 10
7.3026
 20
-18.3255
 30
0.0
 10
7.3026
 20
-18.3255
 30
0.0
 10
7.4201
 20
-18.443
 30
0.0
 10
7.4201
 20
-18.443
 30
0.0
  0
SPLINE
  5
DE
330
1F
100
AcDbEntity
  8
DEFAULT_1
 62
   250
100
AcDbSpline
210
0.0
220
0.0
230
1.0
 70
    24
 71
     3
 72
     8
 73
     4
 74
     0
 42
0.0000000001
 43
0.0000000001
 40
0.0
 40
0.0
 40
0.0
 40
0.0
 40
1.0
 40
1.0
 40
1.0
 40
1.0
 10
2.2013
 20
1.0535
 30
0.0
 10
2.2013
 20
1.0535
 30
0.0
 10
5.4956
 20
1.9362
 30
0.0
 10
5.4956
 20
1.9362
 30
0.0
  0
SPLINE
  5
DF
330
1F
100
AcDbEntity
  8
DEFAULT_1
 62
   250
100
AcDbSpline
210
0.0
220
0.0
230
1.0
 70
     8
 71
     3
 72
    16
 73
    12
 74
     0
 42
0.0000000001
 43
0.0000000001
 40
0.0
 40
0.0
 40
0.0
 40
0.0
 40
0.25
 40
0.25
 40
0.25
 40
0.25
 40
0.5
 40
0.5
 40
0.5
 40
0.5
 40
1.0
 40
1.0
 40
1.0
 40
1.0
 10
4.5419
 20
6.3345
 30
0.0
 10
4.5419
 20
6.3345
 30
0.0
 10
4.3307
 20
6.2837
 30
0.0
 10
4.3307
 20
6.2837
 30
0.0
 10
4.3307
 20
6.2837
 30
0.0
 10
4.3307
 20
6.2837
 30
0.0
 10
5.572
 20
1.6512
 30
0.0
 10
5.572
 20
1.6512
 30
0.0
 10
5.572
 20
1.6512
 30
0.0
 10
5.572
 20
1.6512
 30
0.0
 10
5.8213
 20
1.7429
 30
0.0
 10
5.8213
 20
1.7429
 30
0.0
  0
SPLINE
  5
E0
330
1F
100
AcDbEntity
  8
DEFAULT_1
 62
   250
100
AcDbSpline
210
0.0
220
0.0
230
1.0
 70
    24
 71
     3
 72
     8
 73
     4
 74
     0
 42
0.0000000001
 43
0.0000000001
 40
0.0
 40
0.0
 40
0.0
 40
0.0
 40
1.0
 40
1.0
 40
1.0
 40
1.0
 10
2.2013
 20
5.4075
 30
0.0
 10
2.2013
 20
5.4075
 30
0.0
 10
4.4071
 20
5.9986
 30
0.0
 10
4.4071
 20
5.9986
 30
0.0
  0
SPLINE
  5
E1
330
1F
100
AcDbEntity
  8
DEFAULT_1
 62
   250
100
AcDbSpline
210
0.0
220
0.0
230
1.0
 70
     8
 71
     3
 72
    28
 73
    24
 74
     0
 42
0.0000000001
 43
0.0000000001
 40
0.0
 40
0.0
 40
0.0
 40
0.0
 40
0.1428571428571428
 40
0.1428571428571428
 40
0.1428571428571428
 40
0.1428571428571428
 40
0.2857142857142857
 40
0.2857142857142857
 40
0.2857142857142857
 40
0.2857142857142857
 40
0.4285714285714285
 40
0.4285714285714285
 40
0.4285714285714285
 40
0.4285714285714285
 40
0.5714285714285714
 40
0.5714285714285714
 40
0.5714285714285714
 40
0.5714285714285714
 40
0.7142857142857143
 40
0.7142857142857143
 40
0.7142857142857143
 40
0.7142857142857143
 40
1.0
 40
1.0
 40
1.0
 40
1.0
 10
2.2013
 20
1.0535
 30
0.0
 10
2.2013
 20
1.0535
 30
0.0
 10
2.193
 20
1.0633
 30
0.0
 10
2.193
 20
1.0633
 30
0.0
 10
2.193
 20
1.0633
 30
0.0
 10
2.193
 20
1.0633
 30
0.0
 10
2.1683
 20
1.0929
 30
0.0
 10
2.1683
 20
1.0929
 30
0.0
 10
2.1683
 20
1.0929
 30
0.0
 10
2.1683
 20
1.0929
 30
0.0
 10
2.128
 20
1.1416
 30
0.0
 10
2.128
 20
1.1416
 30
0.0
 10
2.128
 20
1.1416
 30
0.0
 10
2.128
 20
1.1416
 30
0.0
 10
2.0744
 20
1.2081
 30
0.0
 10
2.0744
 20
1.2081
 30
0.0
 10
2.0744
 20
1.2081
 30
0.0
 10
2.0744
 20
1.2081
 30
0.0
 10
2.0081
 20
1.2927
 30
0.0
 10
2.0081
 20
1.2927
 30
0.0
 10
2.0081
 20
1.2927
 30
0.0
 10
2.0081
 20
1.2927
 30
0.0
 10
2.0013
 20
1.3015
 30
0.0
 10
2.0013
 20
1.3015
 30
0.0
  0
SPLINE
  5
E2
330
1F
100
AcDbEntity
  8
DEFAULT_1
 62
   250
100
AcDbSpline
210
0.0
220
0.0
230
1.0
 70
     8
 71
     3
 72
    72
 73
    68
 74
     0
 42
0.0000000001
 43
0.0000000001
 40
0.0
 40
0.0
 40
0.0
 40
0.0
 40
0.0555555555555556
 40
0.0555555555555556
 40
0.0555555555555556
 40
0.0555555555555556
 40
0.1111111111111111
 40
0.1111111111111111
 40
0.1111111111111111
 40
0.1111111111111111
 40
0.1666666666666667
 40
0.1666666666666667
 40
0.1666666666666667
 40
0.1666666666666667
 40
0.2222222222222222
 40
0.2222222222222222
 40
0.2222222222222222
 40
0.2222222222222222
 40
0.2777777777777778
 40
0.2777777777777778
 40
0.2777777777777778
 40
0.2777777777777778
 40
0.3333333333333333
 40
0.3333333333333333
 40
0.3333333333333333
 40
0.3333333333333333
 40
0.3888888888888889
 40
0.3888888888888889
 40
0.3888888888888889
 40
0.3888888888888889
 40
0.4444444444444444
 40
0.4444444444444444
 40
0.4444444444444444
 40
0.4444444444444444
 40
0.5
 40
0.5
 40
0.5
 40
0.5
 40
0.5555555555555556
 40
0.5555555555555556
 40
0.5555555555555556
 40
0.5555555555555556
 40
0.6111111111111112
 40
0.6111111111111112
 40
0.6111111111111112
 40
0.6111111111111112
 40
0.6666666666666666
 40
0.6666666666666666
 40
0.6666666666666666
 40
0.6666666666666666
 40
0.7222222222222222
 40
0.7222222222222222
 40
0.7222222222222222
 40
0.7222222222222222
 40
0.7777777777777778
 40
0.7777777777777778
 40
0.7777777777777778
 40
0.7777777777777778
 40
0.8333333333333334
 40
0.8333333333333334
 40
0.8333333333333334
 40
0.8333333333333334
 40
0.8888888888888888
 40
0.8888888888888888
 40
0.8888888888888888
 40
0.8888888888888888
 40
1.0
 40
1.0
 40
1.0
 40
1.0
 10
2.0284
 20
1.2427
 30
0.0
 10
2.0284
 20
1.2427
 30
0.0
 10
1.8286
 20
1.5399
 30
0.0
 10
1.8286
 20
1.5399
 30
0.0
 10
1.8286
 20
1.5399
 30
0.0
 10
1.8286
 20
1.5399
 30
0.0
 10
1.7118
 20
1.7211
 30
0.0
 10
1.7118
 20
1.7211
 30
0.0
 10
1.7118
 20
1.7211
 30
0.0
 10
1.7118
 20
1.7211
 30
0.0
 10
1.5876
 20
1.9434
 30
0.0
 10
1.5876
 20
1.9434
 30
0.0
 10
1.5876
 20
1.9434
 30
0.0
 10
1.5876
 20
1.9434
 30
0.0
 10
1.4728
 20
2.1989
 30
0.0
 10
1.4728
 20
2.1989
 30
0.0
 10
1.4728
 20
2.1989
 30
0.0
 10
1.4728
 20
2.1989
 30
0.0
 10
1.384
 20
2.4779
 30
0.0
 10
1.384
 20
2.4779
 30
0.0
 10
1.384
 20
2.4779
 30
0.0
 10
1.384
 20
2.4779
 30
0.0
 10
1.3316
 20
2.7785
 30
0.0
 10
1.3316
 20
2.7785
 30
0.0
 10
1.3316
 20
2.7785
 30
0.0
 10
1.3316
 20
2.7785
 30
0.0
 10
1.3232
 20
3.0989
 30
0.0
 10
1.3232
 20
3.0989
 30
0.0
 10
1.3232
 20
3.0989
 30
0.0
 10
1.3232
 20
3.0989
 30
0.0
 10
1.3622
 20
3.4361
 30
0.0
 10
1.3622
 20
3.4361
 30
0.0
 10
1.3622
 20
3.4361
 30
0.0
 10
1.3622
 20
3.4361
 30
0.0
 10
1.4425
 20
3.7727
 30
0.0
 10
1.4425
 20
3.7727
 30
0.0
 10
1.4425
 20
3.7727
 30
0.0
 10
1.4425
 20
3.7727
 30
0.0
 10
1.5518
 20
4.0968
 30
0.0
 10
1.5518
 20
4.0968
 30
0.0
 10
1.5518
 20
4.0968
 30
0.0
 10
1.5518
 20
4.0968
 30
0.0
 10
1.6761
 20
4.3984
 30
0.0
 10
1.6761
 20
4.3984
 30
0.0
 10
1.6761
 20
4.3984
 30
0.0
 10
1.6761
 20
4.3984
 30
0.0
 10
1.8053
 20
4.6743
 30
0.0
 10
1.8053
 20
4.6743
 30
0.0
 10
1.8053
 20
4.6743
 30
0.0
 10
1.8053
 20
4.6743
 30
0.0
 10
1.9339
 20
4.9266
 30
0.0
 10
1.9339
 20
4.9266
 30
0.0
 10
1.9339
 20
4.9266
 30
0.0
 10
1.9339
 20
4.9266
 30
0.0
 10
2.0487
 20
5.1388
 30
0.0
 10
2.0487
 20
5.1388
 30
0.0
 10
2.0487
 20
5.1388
 30
0.0
 10
2.0487
 20
5.1388
 30
0.0
 10
2.1356
 20
5.2935
 30
0.0
 10
2.1356
 20
5.2935
 30
0.0
 10
2.1356
 20
5.2935
 30
0.0
 10
2.1356
 20
5.2935
 30
0.0
 10
2.1866
 20
5.3822
 30
0.0
 10
2.1866
 20
5.3822
 30
0.0
 10
2.1866
 20
5.3822
 30
0.0
 10
2.1866
 20
5.3822
 30
0.0
 10
2.2013
 20
5.4075
 30
0.0
 10
2.2013
 20
5.4075
 30
0.0
  0
SPLINE
  5
E3
330
1F
100
AcDbEntity
  8
DEFAULT_1
 62
   250
100
AcDbSpline
210
0.0
220
0.0
230
1.0
 70
    11
 71
     3
 72
    24
 73
    20
 74
     0
 42
0.0000000001
 43
0.0000000001
 40
0.0
 40
0.0
 40
0.0
 40
0.0
 40
0.1666666666666667
 40
0.1666666666666667
 40
0.1666666666666667
 40
0.1666666666666667
 40
0.3333333333333333
 40
0.3333333333333333
 40
0.3333333333333333
 40
0.3333333333333333
 40
0.5
 40
0.5
 40
0.5
 40
0.5
 40
0.6666666666666666
 40
0.6666666666666666
 40
0.6666666666666666
 40
0.6666666666666666
 40
1.0
 40
1.0
 40
1.0
 40
1.0
 10
10.8655
 20
-2.8576
 30
0.0
 10
10.8655
 20
-2.8576
 30
0.0
 10
10.8064
 20
-2.6421
 30
0.0
 10
10.8064
 20
-2.6421
 30
0.0
 10
10.8064
 20
-2.6421
 30
0.0
 10
10.8064
 20
-2.6421
 30
0.0
 10
13.4355
 20
-1.9282
 30
0.0
 10
13.4355
 20
-1.9282
 30
0.0
 10
13.4355
 20
-1.9282
 30
0.0
 10
13.4355
 20
-1.9282
 30
0.0
 10
13.5472
 20
-1.8979
 30
0.0
 10
13.5472
 20
-1.8979
 30
0.0
 10
13.5472
 20
-1.8979
 30
0.0
 10
13.5472
 20
-1.8979
 30
0.0
 10
13.6102
 20
-2.1221
 30
0.0
 10
13.6102
 20
-2.1221
 30
0.0
 10
13.6102
 20
-2.1221
 30
0.0
 10
13.6102
 20
-2.1221
 30
0.0
 10
10.8655
 20
-2.8576
 30
0.0
 10
10.8655
 20
-2.8576
 30
0.0
  0
SPLINE
  5
E4
330
1F
100
AcDbEntity
  8
DEFAULT_1
 62
   250
100
AcDbSpline
210
0.0
220
0.0
230
1.0
 70
    11
 71
     3
 72
   140
 73
   136
 74
     0
 42
0.0000000001
 43
0.0000000001
 40
0.0
 40
0.0
 40
0.0
 40
0.0
 40
0.0285714285714286
 40
0.0285714285714286
 40
0.0285714285714286
 40
0.0285714285714286
 40
0.0571428571428571
 40
0.0571428571428571
 40
0.0571428571428571
 40
0.0571428571428571
 40
0.0857142857142857
 40
0.0857142857142857
 40
0.0857142857142857
 40
0.0857142857142857
 40
0.1142857142857143
 40
0.1142857142857143
 40
0.1142857142857143
 40
0.1142857142857143
 40
0.1428571428571428
 40
0.1428571428571428
 40
0.1428571428571428
 40
0.1428571428571428
 40
0.1714285714285714
 40
0.1714285714285714
 40
0.1714285714285714
 40
0.1714285714285714
 40
0.2
 40
0.2
 40
0.2
 40
0.2
 40
0.2285714285714286
 40
0.2285714285714286
 40
0.2285714285714286
 40
0.2285714285714286
 40
0.2571428571428571
 40
0.2571428571428571
 40
0.2571428571428571
 40
0.2571428571428571
 40
0.2857142857142857
 40
0.2857142857142857
 40
0.2857142857142857
 40
0.2857142857142857
 40
0.3142857142857143
 40
0.3142857142857143
 40
0.3142857142857143
 40
0.3142857142857143
 40
0.3428571428571429
 40
0.3428571428571429
 40
0.3428571428571429
 40
0.3428571428571429
 40
0.3714285714285714
 40
0.3714285714285714
 40
0.3714285714285714
 40
0.3714285714285714
 40
0.4
 40
0.4
 40
0.4
 40
0.4
 40
0.4285714285714285
 40
0.4285714285714285
 40
0.4285714285714285
 40
0.4285714285714285
 40
0.4571428571428571
 40
0.4571428571428571
 40
0.4571428571428571
 40
0.4571428571428571
 40
0.4857142857142857
 40
0.4857142857142857
 40
0.4857142857142857
 40
0.4857142857142857
 40
0.5142857142857142
 40
0.5142857142857142
 40
0.5142857142857142
 40
0.5142857142857142
 40
0.5428571428571428
 40
0.5428571428571428
 40
0.5428571428571428
 40
0.5428571428571428
 40
0.5714285714285714
 40
0.5714285714285714
 40
0.5714285714285714
 40
0.5714285714285714
 40
0.6
 40
0.6
 40
0.6
 40
0.6
 40
0.6285714285714286
 40
0.6285714285714286
 40
0.6285714285714286
 40
0.6285714285714286
 40
0.6571428571428571
 40
0.6571428571428571
 40
0.6571428571428571
 40
0.6571428571428571
 40
0.6857142857142857
 40
0.6857142857142857
 40
0.6857142857142857
 40
0.6857142857142857
 40
0.7142857142857143
 40
0.7142857142857143
 40
0.7142857142857143
 40
0.7142857142857143
 40
0.7428571428571429
 40
0.7428571428571429
 40
0.7428571428571429
 40
0.7428571428571429
 40
0.7714285714285715
 40
0.7714285714285715
 40
0.7714285714285715
 40
0.7714285714285715
 40
0.8
 40
0.8
 40
0.8
 40
0.8
 40
0.8285714285714286
 40
0.8285714285714286
 40
0.8285714285714286
 40
0.8285714285714286
 40
0.8571428571428571
 40
0.8571428571428571
 40
0.8571428571428571
 40
0.8571428571428571
 40
0.8857142857142857
 40
0.8857142857142857
 40
0.8857142857142857
 40
0.8857142857142857
 40
0.9142857142857143
 40
0.9142857142857143
 40
0.9142857142857143
 40
0.9142857142857143
 40
0.9428571428571428
 40
0.9428571428571428
 40
0.9428571428571428
 40
0.9428571428571428
 40
1.0
 40
1.0
 40
1.0
 40
1.0
 10
9.1399
 20
3.1743
 30
0.0
 10
9.1399
 20
3.1743
 30
0.0
 10
9.1502
 20
3.1897
 30
0.0
 10
9.1502
 20
3.1897
 30
0.0
 10
9.1502
 20
3.1897
 30
0.0
 10
9.1502
 20
3.1897
 30
0.0
 10
9.1816
 20
3.2366
 30
0.0
 10
9.1816
 20
3.2366
 30
0.0
 10
9.1816
 20
3.2366
 30
0.0
 10
9.1816
 20
3.2366
 30
0.0
 10
9.2316
 20
3.3104
 30
0.0
 10
9.2316
 20
3.3104
 30
0.0
 10
9.2316
 20
3.3104
 30
0.0
 10
9.2316
 20
3.3104
 30
0.0
 10
9.296
 20
3.404
 30
0.0
 10
9.296
 20
3.404
 30
0.0
 10
9.296
 20
3.404
 30
0.0
 10
9.296
 20
3.404
 30
0.0
 10
9.368
 20
3.5064
 30
0.0
 10
9.368
 20
3.5064
 30
0.0
 10
9.368
 20
3.5064
 30
0.0
 10
9.368
 20
3.5064
 30
0.0
 10
9.4418
 20
3.6088
 30
0.0
 10
9.4418
 20
3.6088
 30
0.0
 10
9.4418
 20
3.6088
 30
0.0
 10
9.4418
 20
3.6088
 30
0.0
 10
9.5137
 20
3.7054
 30
0.0
 10
9.5137
 20
3.7054
 30
0.0
 10
9.5137
 20
3.7054
 30
0.0
 10
9.5137
 20
3.7054
 30
0.0
 10
9.5825
 20
3.7945
 30
0.0
 10
9.5825
 20
3.7945
 30
0.0
 10
9.5825
 20
3.7945
 30
0.0
 10
9.5825
 20
3.7945
 30
0.0
 10
9.6472
 20
3.8753
 30
0.0
 10
9.6472
 20
3.8753
 30
0.0
 10
9.6472
 20
3.8753
 30
0.0
 10
9.6472
 20
3.8753
 30
0.0
 10
9.7082
 20
3.9479
 30
0.0
 10
9.7082
 20
3.9479
 30
0.0
 10
9.7082
 20
3.9479
 30
0.0
 10
9.7082
 20
3.9479
 30
0.0
 10
9.7663
 20
4.0139
 30
0.0
 10
9.7663
 20
4.0139
 30
0.0
 10
9.7663
 20
4.0139
 30
0.0
 10
9.7663
 20
4.0139
 30
0.0
 10
9.822
 20
4.074
 30
0.0
 10
9.822
 20
4.074
 30
0.0
 10
9.822
 20
4.074
 30
0.0
 10
9.822
 20
4.074
 30
0.0
 10
9.877
 20
4.1295
 30
0.0
 10
9.877
 20
4.1295
 30
0.0
 10
9.877
 20
4.1295
 30
0.0
 10
9.877
 20
4.1295
 30
0.0
 10
9.9322
 20
4.1818
 30
0.0
 10
9.9322
 20
4.1818
 30
0.0
 10
9.9322
 20
4.1818
 30
0.0
 10
9.9322
 20
4.1818
 30
0.0
 10
9.9898
 20
4.2319
 30
0.0
 10
9.9898
 20
4.2319
 30
0.0
 10
9.9898
 20
4.2319
 30
0.0
 10
9.9898
 20
4.2319
 30
0.0
 10
10.0506
 20
4.2799
 30
0.0
 10
10.0506
 20
4.2799
 30
0.0
 10
10.0506
 20
4.2799
 30
0.0
 10
10.0506
 20
4.2799
 30
0.0
 10
10.1147
 20
4.3247
 30
0.0
 10
10.1147
 20
4.3247
 30
0.0
 10
10.1147
 20
4.3247
 30
0.0
 10
10.1147
 20
4.3247
 30
0.0
 10
10.1821
 20
4.3651
 30
0.0
 10
10.1821
 20
4.3651
 30
0.0
 10
10.1821
 20
4.3651
 30
0.0
 10
10.1821
 20
4.3651
 30
0.0
 10
10.6118
 20
4.59
 30
0.0
 10
10.6118
 20
4.59
 30
0.0
 10
10.6118
 20
4.59
 30
0.0
 10
10.6118
 20
4.59
 30
0.0
 10
11.1236
 20
4.9383
 30
0.0
 10
11.1236
 20
4.9383
 30
0.0
 10
11.1236
 20
4.9383
 30
0.0
 10
11.1236
 20
4.9383
 30
0.0
 10
11.423
 20
5.1997
 30
0.0
 10
11.423
 20
5.1997
 30
0.0
 10
11.423
 20
5.1997
 30
0.0
 10
11.423
 20
5.1997
 30
0.0
 10
11.6162
 20
5.4222
 30
0.0
 10
11.6162
 20
5.4222
 30
0.0
 10
11.6162
 20
5.4222
 30
0.0
 10
11.6162
 20
5.4222
 30
0.0
 10
11.6696
 20
5.5294
 30
0.0
 10
11.6696
 20
5.5294
 30
0.0
 10
11.6696
 20
5.5294
 30
0.0
 10
11.6696
 20
5.5294
 30
0.0
 10
11.6838
 20
5.5577
 30
0.0
 10
11.6838
 20
5.5577
 30
0.0
 10
11.6838
 20
5.5577
 30
0.0
 10
11.6838
 20
5.5577
 30
0.0
 10
11.5099
 20
5.9933
 30
0.0
 10
11.5099
 20
5.9933
 30
0.0
 10
11.5099
 20
5.9933
 30
0.0
 10
11.5099
 20
5.9933
 30
0.0
 10
11.2298
 20
6.3804
 30
0.0
 10
11.2298
 20
6.3804
 30
0.0
 10
11.2298
 20
6.3804
 30
0.0
 10
11.2298
 20
6.3804
 30
0.0
 10
10.8822
 20
6.6611
 30
0.0
 10
10.8822
 20
6.6611
 30
0.0
 10
10.8822
 20
6.6611
 30
0.0
 10
10.8822
 20
6.6611
 30
0.0
 10
10.5346
 20
6.845
 30
0.0
 10
10.5346
 20
6.845
 30
0.0
 10
10.5346
 20
6.845
 30
0.0
 10
10.5346
 20
6.845
 30
0.0
 10
10.0903
 20
6.9417
 30
0.0
 10
10.0903
 20
6.9417
 30
0.0
 10
10.0903
 20
6.9417
 30
0.0
 10
10.0903
 20
6.9417
 30
0.0
 10
9.8199
 20
6.932
 30
0.0
 10
9.8199
 20
6.932
 30
0.0
 10
9.8199
 20
6.932
 30
0.0
 10
9.8199
 20
6.932
 30
0.0
 10
7.4538
 20
6.3029
 30
0.0
 10
7.4538
 20
6.3029
 30
0.0
 10
7.4538
 20
6.3029
 30
0.0
 10
7.4538
 20
6.3029
 30
0.0
 10
7.469
 20
6.2475
 30
0.0
 10
7.469
 20
6.2475
 30
0.0
 10
7.469
 20
6.2475
 30
0.0
 10
7.469
 20
6.2475
 30
0.0
 10
8.3808
 20
2.9447
 30
0.0
 10
8.3808
 20
2.9447
 30
0.0
 10
8.3808
 20
2.9447
 30
0.0
 10
8.3808
 20
2.9447
 30
0.0
 10
9.1399
 20
3.1743
 30
0.0
 10
9.1399
 20
3.1743
 30
0.0
  0
SPLINE
  5
E5
330
1F
100
AcDbEntity
  8
DEFAULT_1
 62
   250
100
AcDbSpline
210
0.0
220
0.0
230
1.0
 70
    11
 71
     3
 72
    44
 73
    40
 74
     0
 42
0.0000000001
 43
0.0000000001
 40
0.0
 40
0.0
 40
0.0
 40
0.0
 40
0.0909090909090909
 40
0.0909090909090909
 40
0.0909090909090909
 40
0.0909090909090909
 40
0.1818181818181818
 40
0.1818181818181818
 40
0.1818181818181818
 40
0.1818181818181818
 40
0.2727272727272727
 40
0.2727272727272727
 40
0.2727272727272727
 40
0.2727272727272727
 40
0.3636363636363636
 40
0.3636363636363636
 40
0.3636363636363636
 40
0.3636363636363636
 40
0.4545454545454545
 40
0.4545454545454545
 40
0.4545454545454545
 40
0.4545454545454545
 40
0.5454545454545454
 40
0.5454545454545454
 40
0.5454545454545454
 40
0.5454545454545454
 40
0.6363636363636364
 40
0.6363636363636364
 40
0.6363636363636364
 40
0.6363636363636364
 40
0.7272727272727273
 40
0.7272727272727273
 40
0.7272727272727273
 40
0.7272727272727273
 40
0.8181818181818182
 40
0.8181818181818182
 40
0.8181818181818182
 40
0.8181818181818182
 40
1.0
 40
1.0
 40
1.0
 40
1.0
 10
9.4314
 20
1.531
 30
0.0
 10
9.4314
 20
1.531
 30
0.0
 10
9.5833
 20
1.5717
 30
0.0
 10
9.5833
 20
1.5717
 30
0.0
 10
9.5833
 20
1.5717
 30
0.0
 10
9.5833
 20
1.5717
 30
0.0
 10
9.1089
 20
2.5022
 30
0.0
 10
9.1089
 20
2.5022
 30
0.0
 10
9.1089
 20
2.5022
 30
0.0
 10
9.1089
 20
2.5022
 30
0.0
 10
9.5833
 20
1.5717
 30
0.0
 10
9.5833
 20
1.5717
 30
0.0
 10
9.5833
 20
1.5717
 30
0.0
 10
9.5833
 20
1.5717
 30
0.0
 10
12.5062
 20
2.3549
 30
0.0
 10
12.5062
 20
2.3549
 30
0.0
 10
12.5062
 20
2.3549
 30
0.0
 10
12.5062
 20
2.3549
 30
0.0
 10
12.4517
 20
3.398
 30
0.0
 10
12.4517
 20
3.398
 30
0.0
 10
12.4517
 20
3.398
 30
0.0
 10
12.4517
 20
3.398
 30
0.0
 10
12.5062
 20
2.3549
 30
0.0
 10
12.5062
 20
2.3549
 30
0.0
 10
12.5062
 20
2.3549
 30
0.0
 10
12.5062
 20
2.3549
 30
0.0
 10
12.6581
 20
2.3957
 30
0.0
 10
12.6581
 20
2.3957
 30
0.0
 10
12.6581
 20
2.3957
 30
0.0
 10
12.6581
 20
2.3957
 30
0.0
 10
12.5062
 20
2.3549
 30
0.0
 10
12.5062
 20
2.3549
 30
0.0
 10
12.5062
 20
2.3549
 30
0.0
 10
12.5062
 20
2.3549
 30
0.0
 10
9.5833
 20
1.5717
 30
0.0
 10
9.5833
 20
1.5717
 30
0.0
 10
9.5833
 20
1.5717
 30
0.0
 10
9.5833
 20
1.5717
 30
0.0
 10
9.4314
 20
1.531
 30
0.0
 10
9.4314
 20
1.531
 30
0.0
  0
SPLINE
  5
E6
330
1F
100
AcDbEntity
  8
DEFAULT_1
 62
   250
100
AcDbSpline
210
0.0
220
0.0
230
1.0
 70
    11
 71
     3
 72
    16
 73
    12
 74
     0
 42
0.0000000001
 43
0.0000000001
 40
0.0
 40
0.0
 40
0.0
 40
0.0
 40
0.25
 40
0.25
 40
0.25
 40
0.25
 40
0.5
 40
0.5
 40
0.5
 40
0.5
 40
1.0
 40
1.0
 40
1.0
 40
1.0
 10
7.4859
 20
6.2521
 30
0.0
 10
7.4859
 20
6.2521
 30
0.0
 10
7.469
 20
6.2475
 30
0.0
 10
7.469
 20
6.2475
 30
0.0
 10
7.469
 20
6.2475
 30
0.0
 10
7.469
 20
6.2475
 30
0.0
 10
7.1939
 20
6.1738
 30
0.0
 10
7.1939
 20
6.1738
 30
0.0
 10
7.1939
 20
6.1738
 30
0.0
 10
7.1939
 20
6.1738
 30
0.0
 10
7.4859
 20
6.2521
 30
0.0
 10
7.4859
 20
6.2521
 30
0.0
  0
SPLINE
  5
E7
330
1F
100
AcDbEntity
  8
DEFAULT_1
 62
   250
100
AcDbSpline
210
0.0
220
0.0
230
1.0
 70
    11
 71
     3
 72
    28
 73
    24
 74
     0
 42
0.0000000001
 43
0.0000000001
 40
0.0
 40
0.0
 40
0.0
 40
0.0
 40
0.1428571428571428
 40
0.1428571428571428
 40
0.1428571428571428
 40
0.1428571428571428
 40
0.2857142857142857
 40
0.2857142857142857
 40
0.2857142857142857
 40
0.2857142857142857
 40
0.4285714285714285
 40
0.4285714285714285
 40
0.4285714285714285
 40
0.4285714285714285
 40
0.5714285714285714
 40
0.5714285714285714
 40
0.5714285714285714
 40
0.5714285714285714
 40
0.7142857142857143
 40
0.7142857142857143
 40
0.7142857142857143
 40
0.7142857142857143
 40
1.0
 40
1.0
 40
1.0
 40
1.0
 10
12.2455
 20
3.3806
 30
0.0
 10
12.2455
 20
3.3806
 30
0.0
 10
11.6696
 20
5.5294
 30
0.0
 10
11.6696
 20
5.5294
 30
0.0
 10
11.6696
 20
5.5294
 30
0.0
 10
11.6696
 20
5.5294
 30
0.0
 10
11.6391
 20
5.6436
 30
0.0
 10
11.6391
 20
5.6436
 30
0.0
 10
11.6391
 20
5.6436
 30
0.0
 10
11.6391
 20
5.6436
 30
0.0
 10
11.6696
 20
5.5294
 30
0.0
 10
11.6696
 20
5.5294
 30
0.0
 10
11.6696
 20
5.5294
 30
0.0
 10
11.6696
 20
5.5294
 30
0.0
 10
12.2455
 20
3.3806
 30
0.0
 10
12.2455
 20
3.3806
 30
0.0
 10
12.2455
 20
3.3806
 30
0.0
 10
12.2455
 20
3.3806
 30
0.0
 10
12.4137
 20
3.4257
 30
0.0
 10
12.4137
 20
3.4257
 30
0.0
 10
12.4137
 20
3.4257
 30
0.0
 10
12.4137
 20
3.4257
 30
0.0
 10
12.2455
 20
3.3806
 30
0.0
 10
12.2455
 20
3.3806
 30
0.0
  0
SPLINE
  5
E8
330
1F
100
AcDbEntity
  8
DEFAULT_1
 62
   250
100
AcDbSpline
210
0.0
220
0.0
230
1.0
 70
    27
 71
     3
 72
    12
 73
     8
 74
     0
 42
0.0000000001
 43
0.0000000001
 40
0.0
 40
0.0
 40
0.0
 40
0.0
 40
0.3333333333333333
 40
0.3333333333333333
 40
0.3333333333333333
 40
0.3333333333333333
 40
1.0
 40
1.0
 40
1.0
 40
1.0
 10
9.2963
 20
2.5903
 30
0.0
 10
9.2963
 20
2.5903
 30
0.0
 10
9.1399
 20
3.1743
 30
0.0
 10
9.1399
 20
3.1743
 30
0.0
 10
9.1399
 20
3.1743
 30
0.0
 10
9.1399
 20
3.1743
 30
0.0
 10
9.2963
 20
2.5903
 30
0.0
 10
9.2963
 20
2.5903
 30
0.0
  0
SPLINE
  5
E9
330
1F
100
AcDbEntity
  8
DEFAULT_1
 62
   250
100
AcDbSpline
210
0.0
220
0.0
230
1.0
 70
    27
 71
     3
 72
    12
 73
     8
 74
     0
 42
0.0000000001
 43
0.0000000001
 40
0.0
 40
0.0
 40
0.0
 40
0.0
 40
0.3333333333333333
 40
0.3333333333333333
 40
0.3333333333333333
 40
0.3333333333333333
 40
1.0
 40
1.0
 40
1.0
 40
1.0
 10
8.3465
 20
3.0399
 30
0.0
 10
8.3465
 20
3.0399
 30
0.0
 10
8.0545
 20
2.9617
 30
0.0
 10
8.0545
 20
2.9617
 30
0.0
 10
8.0545
 20
2.9617
 30
0.0
 10
8.0545
 20
2.9617
 30
0.0
 10
8.3465
 20
3.0399
 30
0.0
 10
8.3465
 20
3.0399
 30
0.0
  0
SPLINE
  5
EA
330
1F
100
AcDbEntity
  8
DEFAULT_1
 62
   250
100
AcDbSpline
210
0.0
220
0.0
230
1.0
 70
    11
 71
     3
 72
    68
 73
    64
 74
     0
 42
0.0000000001
 43
0.0000000001
 40
0.0
 40
0.0
 40
0.0
 40
0.0
 40
0.0588235294117647
 40
0.0588235294117647
 40
0.0588235294117647
 40
0.0588235294117647
 40
0.1176470588235294
 40
0.1176470588235294
 40
0.1176470588235294
 40
0.1176470588235294
 40
0.1764705882352941
 40
0.1764705882352941
 40
0.1764705882352941
 40
0.1764705882352941
 40
0.2352941176470588
 40
0.2352941176470588
 40
0.2352941176470588
 40
0.2352941176470588
 40
0.2941176470588235
 40
0.2941176470588235
 40
0.2941176470588235
 40
0.2941176470588235
 40
0.3529411764705883
 40
0.3529411764705883
 40
0.3529411764705883
 40
0.3529411764705883
 40
0.4117647058823529
 40
0.4117647058823529
 40
0.4117647058823529
 40
0.4117647058823529
 40
0.4705882352941176
 40
0.4705882352941176
 40
0.4705882352941176
 40
0.4705882352941176
 40
0.5294117647058824
 40
0.5294117647058824
 40
0.5294117647058824
 40
0.5294117647058824
 40
0.5882352941176471
 40
0.5882352941176471
 40
0.5882352941176471
 40
0.5882352941176471
 40
0.6470588235294118
 40
0.6470588235294118
 40
0.6470588235294118
 40
0.6470588235294118
 40
0.7058823529411765
 40
0.7058823529411765
 40
0.7058823529411765
 40
0.7058823529411765
 40
0.7647058823529411
 40
0.7647058823529411
 40
0.7647058823529411
 40
0.7647058823529411
 40
0.8235294117647058
 40
0.8235294117647058
 40
0.8235294117647058
 40
0.8235294117647058
 40
0.8823529411764706
 40
0.8823529411764706
 40
0.8823529411764706
 40
0.8823529411764706
 40
1.0
 40
1.0
 40
1.0
 40
1.0
 10
13.4375
 20
-1.9372
 30
0.0
 10
13.4375
 20
-1.9372
 30
0.0
 10
13.4355
 20
-1.9282
 30
0.0
 10
13.4355
 20
-1.9282
 30
0.0
 10
13.4355
 20
-1.9282
 30
0.0
 10
13.4355
 20
-1.9282
 30
0.0
 10
13.1656
 20
-0.7545
 30
0.0
 10
13.1656
 20
-0.7545
 30
0.0
 10
13.1656
 20
-0.7545
 30
0.0
 10
13.1656
 20
-0.7545
 30
0.0
 10
13.1452
 20
-0.7601
 30
0.0
 10
13.1452
 20
-0.7601
 30
0.0
 10
13.1452
 20
-0.7601
 30
0.0
 10
13.1452
 20
-0.7601
 30
0.0
 10
12.9793
 20
0.2909
 30
0.0
 10
12.9793
 20
0.2909
 30
0.0
 10
12.9793
 20
0.2909
 30
0.0
 10
12.9793
 20
0.2909
 30
0.0
 10
12.9077
 20
0.2717
 30
0.0
 10
12.9077
 20
0.2717
 30
0.0
 10
12.9077
 20
0.2717
 30
0.0
 10
12.9077
 20
0.2717
 30
0.0
 10
12.8149
 20
1.3423
 30
0.0
 10
12.8149
 20
1.3423
 30
0.0
 10
12.8149
 20
1.3423
 30
0.0
 10
12.8149
 20
1.3423
 30
0.0
 10
12.742
 20
1.3227
 30
0.0
 10
12.742
 20
1.3227
 30
0.0
 10
12.742
 20
1.3227
 30
0.0
 10
12.742
 20
1.3227
 30
0.0
 10
12.6961
 20
2.3678
 30
0.0
 10
12.6961
 20
2.3678
 30
0.0
 10
12.6961
 20
2.3678
 30
0.0
 10
12.6961
 20
2.3678
 30
0.0
 10
12.742
 20
1.3227
 30
0.0
 10
12.742
 20
1.3227
 30
0.0
 10
12.742
 20
1.3227
 30
0.0
 10
12.742
 20
1.3227
 30
0.0
 10
12.8149
 20
1.3423
 30
0.0
 10
12.8149
 20
1.3423
 30
0.0
 10
12.8149
 20
1.3423
 30
0.0
 10
12.8149
 20
1.3423
 30
0.0
 10
12.9077
 20
0.2717
 30
0.0
 10
12.9077
 20
0.2717
 30
0.0
 10
12.9077
 20
0.2717
 30
0.0
 10
12.9077
 20
0.2717
 30
0.0
 10
12.9793
 20
0.2909
 30
0.0
 10
12.9793
 20
0.2909
 30
0.0
 10
12.9793
 20
0.2909
 30
0.0
 10
12.9793
 20
0.2909
 30
0.0
 10
13.1452
 20
-0.7601
 30
0.0
 10
13.1452
 20
-0.7601
 30
0.0
 10
13.1452
 20
-0.7601
 30
0.0
 10
13.1452
 20
-0.7601
 30
0.0
 10
13.1656
 20
-0.7545
 30
0.0
 10
13.1656
 20
-0.7545
 30
0.0
 10
13.1656
 20
-0.7545
 30
0.0
 10
13.1656
 20
-0.7545
 30
0.0
 10
13.4355
 20
-1.9282
 30
0.0
 10
13.4355
 20
-1.9282
 30
0.0
 10
13.4355
 20
-1.9282
 30
0.0
 10
13.4355
 20
-1.9282
 30
0.0
 10
13.4375
 20
-1.9372
 30
0.0
 10
13.4375
 20
-1.9372
 30
0.0
  0
SPLINE
  5
EB
330
1F
100
AcDbEntity
  8
DEFAULT_1
 62
   250
100
AcDbSpline
210
0.0
220
0.0
230
1.0
 70
    27
 71
     3
 72
    12
 73
     8
 74
     0
 42
0.0000000001
 43
0.0000000001
 40
0.0
 40
0.0
 40
0.0
 40
0.0
 40
0.3333333333333333
 40
0.3333333333333333
 40
0.3333333333333333
 40
0.3333333333333333
 40
1.0
 40
1.0
 40
1.0
 40
1.0
 10
9.128
 20
2.5451
 30
0.0
 10
9.128
 20
2.5451
 30
0.0
 10
12.2455
 20
3.3806
 30
0.0
 10
12.2455
 20
3.3806
 30
0.0
 10
12.2455
 20
3.3806
 30
0.0
 10
12.2455
 20
3.3806
 30
0.0
 10
9.128
 20
2.5451
 30
0.0
 10
9.128
 20
2.5451
 30
0.0
  0
SPLINE
  5
EC
330
1F
100
AcDbEntity
  8
DEFAULT_1
 62
   250
100
AcDbSpline
210
0.0
220
0.0
230
1.0
 70
    11
 71
     3
 72
    20
 73
    16
 74
     0
 42
0.0000000001
 43
0.0000000001
 40
0.0
 40
0.0
 40
0.0
 40
0.0
 40
0.2
 40
0.2
 40
0.2
 40
0.2
 40
0.4
 40
0.4
 40
0.4
 40
0.4
 40
0.6
 40
0.6
 40
0.6
 40
0.6
 40
1.0
 40
1.0
 40
1.0
 40
1.0
 10
9.8951
 20
0.5598
 30
0.0
 10
9.8951
 20
0.5598
 30
0.0
 10
9.4123
 20
1.4879
 30
0.0
 10
9.4123
 20
1.4879
 30
0.0
 10
9.4123
 20
1.4879
 30
0.0
 10
9.4123
 20
1.4879
 30
0.0
 10
9.8951
 20
0.5598
 30
0.0
 10
9.8951
 20
0.5598
 30
0.0
 10
9.8951
 20
0.5598
 30
0.0
 10
9.8951
 20
0.5598
 30
0.0
 10
12.742
 20
1.3227
 30
0.0
 10
12.742
 20
1.3227
 30
0.0
 10
12.742
 20
1.3227
 30
0.0
 10
12.742
 20
1.3227
 30
0.0
 10
9.8951
 20
0.5598
 30
0.0
 10
9.8951
 20
0.5598
 30
0.0
  0
SPLINE
  5
ED
330
1F
100
AcDbEntity
  8
DEFAULT_1
 62
   250
100
AcDbSpline
210
0.0
220
0.0
230
1.0
 70
    11
 71
     3
 72
    20
 73
    16
 74
     0
 42
0.0000000001
 43
0.0000000001
 40
0.0
 40
0.0
 40
0.0
 40
0.0
 40
0.2
 40
0.2
 40
0.2
 40
0.2
 40
0.4
 40
0.4
 40
0.4
 40
0.4
 40
0.6
 40
0.6
 40
0.6
 40
0.6
 40
1.0
 40
1.0
 40
1.0
 40
1.0
 10
10.277
 20
-0.4331
 30
0.0
 10
10.277
 20
-0.4331
 30
0.0
 10
9.822
 20
0.5403
 30
0.0
 10
9.822
 20
0.5403
 30
0.0
 10
9.822
 20
0.5403
 30
0.0
 10
9.822
 20
0.5403
 30
0.0
 10
9.8951
 20
0.5598
 30
0.0
 10
9.8951
 20
0.5598
 30
0.0
 10
9.8951
 20
0.5598
 30
0.0
 10
9.8951
 20
0.5598
 30
0.0
 10
9.822
 20
0.5403
 30
0.0
 10
9.822
 20
0.5403
 30
0.0
 10
9.822
 20
0.5403
 30
0.0
 10
9.822
 20
0.5403
 30
0.0
 10
10.277
 20
-0.4331
 30
0.0
 10
10.277
 20
-0.4331
 30
0.0
  0
SPLINE
  5
EE
330
1F
100
AcDbEntity
  8
DEFAULT_1
 62
   250
100
AcDbSpline
210
0.0
220
0.0
230
1.0
 70
    11
 71
     3
 72
    20
 73
    16
 74
     0
 42
0.0000000001
 43
0.0000000001
 40
0.0
 40
0.0
 40
0.0
 40
0.0
 40
0.2
 40
0.2
 40
0.2
 40
0.2
 40
0.4
 40
0.4
 40
0.4
 40
0.4
 40
0.6
 40
0.6
 40
0.6
 40
0.6
 40
1.0
 40
1.0
 40
1.0
 40
1.0
 10
10.5873
 20
-1.4454
 30
0.0
 10
10.5873
 20
-1.4454
 30
0.0
 10
10.2054
 20
-0.4523
 30
0.0
 10
10.2054
 20
-0.4523
 30
0.0
 10
10.2054
 20
-0.4523
 30
0.0
 10
10.2054
 20
-0.4523
 30
0.0
 10
12.9077
 20
0.2717
 30
0.0
 10
12.9077
 20
0.2717
 30
0.0
 10
12.9077
 20
0.2717
 30
0.0
 10
12.9077
 20
0.2717
 30
0.0
 10
10.2054
 20
-0.4523
 30
0.0
 10
10.2054
 20
-0.4523
 30
0.0
 10
10.2054
 20
-0.4523
 30
0.0
 10
10.2054
 20
-0.4523
 30
0.0
 10
10.5873
 20
-1.4454
 30
0.0
 10
10.5873
 20
-1.4454
 30
0.0
  0
SPLINE
  5
EF
330
1F
100
AcDbEntity
  8
DEFAULT_1
 62
   250
100
AcDbSpline
210
0.0
220
0.0
230
1.0
 70
    11
 71
     3
 72
    20
 73
    16
 74
     0
 42
0.0000000001
 43
0.0000000001
 40
0.0
 40
0.0
 40
0.0
 40
0.0
 40
0.2
 40
0.2
 40
0.2
 40
0.2
 40
0.4
 40
0.4
 40
0.4
 40
0.4
 40
0.6
 40
0.6
 40
0.6
 40
0.6
 40
1.0
 40
1.0
 40
1.0
 40
1.0
 10
10.9134
 20
-2.5812
 30
0.0
 10
10.9134
 20
-2.5812
 30
0.0
 10
10.5668
 20
-1.4509
 30
0.0
 10
10.5668
 20
-1.4509
 30
0.0
 10
10.5668
 20
-1.4509
 30
0.0
 10
10.5668
 20
-1.4509
 30
0.0
 10
13.1452
 20
-0.7601
 30
0.0
 10
13.1452
 20
-0.7601
 30
0.0
 10
13.1452
 20
-0.7601
 30
0.0
 10
13.1452
 20
-0.7601
 30
0.0
 10
10.5668
 20
-1.4509
 30
0.0
 10
10.5668
 20
-1.4509
 30
0.0
 10
10.5668
 20
-1.4509
 30
0.0
 10
10.5668
 20
-1.4509
 30
0.0
 10
10.9134
 20
-2.5812
 30
0.0
 10
10.9134
 20
-2.5812
 30
0.0
  0
SPLINE
  5
F0
330
1F
100
AcDbEntity
  8
DEFAULT_1
 62
   250
100
AcDbSpline
210
0.0
220
0.0
230
1.0
 70
     8
 71
     3
 72
    48
 73
    44
 74
     0
 42
0.0000000001
 43
0.0000000001
 40
0.0
 40
0.0
 40
0.0
 40
0.0
 40
0.0833333333333333
 40
0.0833333333333333
 40
0.0833333333333333
 40
0.0833333333333333
 40
0.1666666666666667
 40
0.1666666666666667
 40
0.1666666666666667
 40
0.1666666666666667
 40
0.25
 40
0.25
 40
0.25
 40
0.25
 40
0.3333333333333333
 40
0.3333333333333333
 40
0.3333333333333333
 40
0.3333333333333333
 40
0.4166666666666667
 40
0.4166666666666667
 40
0.4166666666666667
 40
0.4166666666666667
 40
0.5
 40
0.5
 40
0.5
 40
0.5
 40
0.5833333333333334
 40
0.5833333333333334
 40
0.5833333333333334
 40
0.5833333333333334
 40
0.6666666666666666
 40
0.6666666666666666
 40
0.6666666666666666
 40
0.6666666666666666
 40
0.75
 40
0.75
 40
0.75
 40
0.75
 40
0.8333333333333334
 40
0.8333333333333334
 40
0.8333333333333334
 40
0.8333333333333334
 40
1.0
 40
1.0
 40
1.0
 40
1.0
 10
6.589
 20
7.2636
 30
0.0
 10
6.7502
 20
7.3068
 30
0.0
 10
6.916
 20
7.2111
 30
0.0
 10
6.9591
 20
7.0498
 30
0.0
 10
6.9591
 20
7.0498
 30
0.0
 10
6.9591
 20
7.0498
 30
0.0
 10
8.2764
 20
2.054
 30
0.0
 10
8.2764
 20
2.054
 30
0.0
 10
8.2764
 20
2.054
 30
0.0
 10
8.2764
 20
2.054
 30
0.0
 10
8.2764
 20
1.9527
 30
0.0
 10
8.2764
 20
1.9527
 30
0.0
 10
8.2764
 20
1.9527
 30
0.0
 10
8.2764
 20
1.9527
 30
0.0
 10
8.2396
 20
1.8698
 30
0.0
 10
8.2396
 20
1.8698
 30
0.0
 10
8.2396
 20
1.8698
 30
0.0
 10
8.2396
 20
1.8698
 30
0.0
 10
8.1568
 20
1.7685
 30
0.0
 10
8.1568
 20
1.7685
 30
0.0
 10
8.1568
 20
1.7685
 30
0.0
 10
8.1568
 20
1.7685
 30
0.0
 10
8.1017
 20
1.7592
 30
0.0
 10
8.1017
 20
1.7592
 30
0.0
 10
8.1017
 20
1.7592
 30
0.0
 10
8.1017
 20
1.7592
 30
0.0
 10
8.1568
 20
1.6487
 30
0.0
 10
8.1568
 20
1.6487
 30
0.0
 10
8.1568
 20
1.6487
 30
0.0
 10
8.1568
 20
1.6487
 30
0.0
 10
5.9412
 20
1.0314
 30
0.0
 10
5.9412
 20
1.0314
 30
0.0
 10
5.9412
 20
1.0314
 30
0.0
 10
5.9412
 20
1.0314
 30
0.0
 10
4.3784
 20
6.7526
 30
0.0
 10
4.3784
 20
6.7526
 30
0.0
 10
4.3784
 20
6.7526
 30
0.0
 10
4.3784
 20
6.7526
 30
0.0
 10
6.6492
 20
7.3423
 30
0.0
 10
6.6492
 20
7.3423
 30
0.0
 10
6.6492
 20
7.3423
 30
0.0
 10
6.6492
 20
7.3423
 30
0.0
 10
6.6767
 20
7.2317
 30
0.0
 10
6.6767
 20
7.2317
 30
0.0
  0
SPLINE
  5
F1
330
1F
100
AcDbEntity
  8
DEFAULT_1
 62
   250
100
AcDbSpline
210
0.0
220
0.0
230
1.0
 70
     8
 71
     3
 72
   132
 73
   128
 74
     0
 42
0.0000000001
 43
0.0000000001
 40
0.0
 40
0.0
 40
0.0
 40
0.0
 40
0.0303030303030303
 40
0.0303030303030303
 40
0.0303030303030303
 40
0.0303030303030303
 40
0.0606060606060606
 40
0.0606060606060606
 40
0.0606060606060606
 40
0.0606060606060606
 40
0.0909090909090909
 40
0.0909090909090909
 40
0.0909090909090909
 40
0.0909090909090909
 40
0.1212121212121212
 40
0.1212121212121212
 40
0.1212121212121212
 40
0.1212121212121212
 40
0.1515151515151515
 40
0.1515151515151515
 40
0.1515151515151515
 40
0.1515151515151515
 40
0.1818181818181818
 40
0.1818181818181818
 40
0.1818181818181818
 40
0.1818181818181818
 40
0.2121212121212121
 40
0.2121212121212121
 40
0.2121212121212121
 40
0.2121212121212121
 40
0.2424242424242424
 40
0.2424242424242424
 40
0.2424242424242424
 40
0.2424242424242424
 40
0.2727272727272727
 40
0.2727272727272727
 40
0.2727272727272727
 40
0.2727272727272727
 40
0.303030303030303
 40
0.303030303030303
 40
0.303030303030303
 40
0.303030303030303
 40
0.3333333333333333
 40
0.3333333333333333
 40
0.3333333333333333
 40
0.3333333333333333
 40
0.3636363636363636
 40
0.3636363636363636
 40
0.3636363636363636
 40
0.3636363636363636
 40
0.3939393939393939
 40
0.3939393939393939
 40
0.3939393939393939
 40
0.3939393939393939
 40
0.4242424242424243
 40
0.4242424242424243
 40
0.4242424242424243
 40
0.4242424242424243
 40
0.4545454545454545
 40
0.4545454545454545
 40
0.4545454545454545
 40
0.4545454545454545
 40
0.4848484848484849
 40
0.4848484848484849
 40
0.4848484848484849
 40
0.4848484848484849
 40
0.5151515151515151
 40
0.5151515151515151
 40
0.5151515151515151
 40
0.5151515151515151
 40
0.5454545454545454
 40
0.5454545454545454
 40
0.5454545454545454
 40
0.5454545454545454
 40
0.5757575757575758
 40
0.5757575757575758
 40
0.5757575757575758
 40
0.5757575757575758
 40
0.6060606060606061
 40
0.6060606060606061
 40
0.6060606060606061
 40
0.6060606060606061
 40
0.6363636363636364
 40
0.6363636363636364
 40
0.6363636363636364
 40
0.6363636363636364
 40
0.6666666666666666
 40
0.6666666666666666
 40
0.6666666666666666
 40
0.6666666666666666
 40
0.696969696969697
 40
0.696969696969697
 40
0.696969696969697
 40
0.696969696969697
 40
0.7272727272727273
 40
0.7272727272727273
 40
0.7272727272727273
 40
0.7272727272727273
 40
0.7575757575757576
 40
0.7575757575757576
 40
0.7575757575757576
 40
0.7575757575757576
 40
0.7878787878787878
 40
0.7878787878787878
 40
0.7878787878787878
 40
0.7878787878787878
 40
0.8181818181818182
 40
0.8181818181818182
 40
0.8181818181818182
 40
0.8181818181818182
 40
0.8484848484848485
 40
0.8484848484848485
 40
0.8484848484848485
 40
0.8484848484848485
 40
0.8787878787878788
 40
0.8787878787878788
 40
0.8787878787878788
 40
0.8787878787878788
 40
0.9090909090909091
 40
0.9090909090909091
 40
0.9090909090909091
 40
0.9090909090909091
 40
0.9393939393939394
 40
0.9393939393939394
 40
0.9393939393939394
 40
0.9393939393939394
 40
1.0
 40
1.0
 40
1.0
 40
1.0
 10
4.8163
 20
6.8747
 30
0.0
 10
4.8163
 20
6.8747
 30
0.0
 10
4.9876
 20
6.2138
 30
0.0
 10
4.9876
 20
6.2138
 30
0.0
 10
4.9876
 20
6.2138
 30
0.0
 10
4.9876
 20
6.2138
 30
0.0
 10
6.4483
 20
6.6204
 30
0.0
 10
6.4483
 20
6.6204
 30
0.0
 10
6.4483
 20
6.6204
 30
0.0
 10
6.4483
 20
6.6204
 30
0.0
 10
6.5195
 20
6.6337
 30
0.0
 10
6.5195
 20
6.6337
 30
0.0
 10
6.5195
 20
6.6337
 30
0.0
 10
6.5195
 20
6.6337
 30
0.0
 10
6.5896
 20
6.6353
 30
0.0
 10
6.5896
 20
6.6353
 30
0.0
 10
6.5896
 20
6.6353
 30
0.0
 10
6.5896
 20
6.6353
 30
0.0
 10
6.6545
 20
6.625
 30
0.0
 10
6.6545
 20
6.625
 30
0.0
 10
6.6545
 20
6.625
 30
0.0
 10
6.6545
 20
6.625
 30
0.0
 10
6.7107
 20
6.6027
 30
0.0
 10
6.7107
 20
6.6027
 30
0.0
 10
6.7107
 20
6.6027
 30
0.0
 10
6.7107
 20
6.6027
 30
0.0
 10
6.7547
 20
6.5694
 30
0.0
 10
6.7547
 20
6.5694
 30
0.0
 10
6.7547
 20
6.5694
 30
0.0
 10
6.7547
 20
6.5694
 30
0.0
 10
6.7841
 20
6.5268
 30
0.0
 10
6.7841
 20
6.5268
 30
0.0
 10
6.7841
 20
6.5268
 30
0.0
 10
6.7841
 20
6.5268
 30
0.0
 10
6.7928
 20
6.5027
 30
0.0
 10
6.7928
 20
6.5027
 30
0.0
 10
6.7928
 20
6.5027
 30
0.0
 10
6.7928
 20
6.5027
 30
0.0
 10
6.7865
 20
6.3769
 30
0.0
 10
6.7865
 20
6.3769
 30
0.0
 10
6.7865
 20
6.3769
 30
0.0
 10
6.7865
 20
6.3769
 30
0.0
 10
6.7093
 20
6.2996
 30
0.0
 10
6.7093
 20
6.2996
 30
0.0
 10
6.7093
 20
6.2996
 30
0.0
 10
6.7093
 20
6.2996
 30
0.0
 10
6.5981
 20
6.2223
 30
0.0
 10
6.5981
 20
6.2223
 30
0.0
 10
6.5981
 20
6.2223
 30
0.0
 10
6.5981
 20
6.2223
 30
0.0
 10
5.099
 20
5.8189
 30
0.0
 10
5.099
 20
5.8189
 30
0.0
 10
5.099
 20
5.8189
 30
0.0
 10
5.099
 20
5.8189
 30
0.0
 10
5.5016
 20
4.2909
 30
0.0
 10
5.5016
 20
4.2909
 30
0.0
 10
5.5016
 20
4.2909
 30
0.0
 10
5.5016
 20
4.2909
 30
0.0
 10
7.0521
 20
4.7116
 30
0.0
 10
7.0521
 20
4.7116
 30
0.0
 10
7.0521
 20
4.7116
 30
0.0
 10
7.0521
 20
4.7116
 30
0.0
 10
7.2404
 20
4.6429
 30
0.0
 10
7.2404
 20
4.6429
 30
0.0
 10
7.2404
 20
4.6429
 30
0.0
 10
7.2404
 20
4.6429
 30
0.0
 10
7.3175
 20
4.5399
 30
0.0
 10
7.3175
 20
4.5399
 30
0.0
 10
7.3175
 20
4.5399
 30
0.0
 10
7.3175
 20
4.5399
 30
0.0
 10
7.3433
 20
4.4197
 30
0.0
 10
7.3433
 20
4.4197
 30
0.0
 10
7.3433
 20
4.4197
 30
0.0
 10
7.3433
 20
4.4197
 30
0.0
 10
7.3175
 20
4.308
 30
0.0
 10
7.3175
 20
4.308
 30
0.0
 10
7.3175
 20
4.308
 30
0.0
 10
7.3175
 20
4.308
 30
0.0
 10
7.309
 20
4.205
 30
0.0
 10
7.309
 20
4.205
 30
0.0
 10
7.309
 20
4.205
 30
0.0
 10
7.309
 20
4.205
 30
0.0
 10
7.2404
 20
4.145
 30
0.0
 10
7.2404
 20
4.145
 30
0.0
 10
7.2404
 20
4.145
 30
0.0
 10
7.2404
 20
4.145
 30
0.0
 10
5.6643
 20
3.7158
 30
0.0
 10
5.6643
 20
3.7158
 30
0.0
 10
5.6643
 20
3.7158
 30
0.0
 10
5.6643
 20
3.7158
 30
0.0
 10
6.067
 20
2.2049
 30
0.0
 10
6.067
 20
2.2049
 30
0.0
 10
6.067
 20
2.2049
 30
0.0
 10
6.067
 20
2.2049
 30
0.0
 10
7.566
 20
2.6342
 30
0.0
 10
7.566
 20
2.6342
 30
0.0
 10
7.566
 20
2.6342
 30
0.0
 10
7.566
 20
2.6342
 30
0.0
 10
7.7031
 20
2.6256
 30
0.0
 10
7.7031
 20
2.6256
 30
0.0
 10
7.7031
 20
2.6256
 30
0.0
 10
7.7031
 20
2.6256
 30
0.0
 10
7.8145
 20
2.5913
 30
0.0
 10
7.8145
 20
2.5913
 30
0.0
 10
7.8145
 20
2.5913
 30
0.0
 10
7.8145
 20
2.5913
 30
0.0
 10
7.8916
 20
2.5225
 30
0.0
 10
7.8916
 20
2.5225
 30
0.0
 10
7.8916
 20
2.5225
 30
0.0
 10
7.8916
 20
2.5225
 30
0.0
 10
7.8916
 20
2.4109
 30
0.0
 10
7.8916
 20
2.4109
 30
0.0
 10
7.8916
 20
2.4109
 30
0.0
 10
7.8916
 20
2.4109
 30
0.0
 10
7.8401
 20
2.2907
 30
0.0
 10
7.8401
 20
2.2907
 30
0.0
 10
7.8401
 20
2.2907
 30
0.0
 10
7.8401
 20
2.2907
 30
0.0
 10
7.626
 20
2.1964
 30
0.0
 10
7.626
 20
2.1964
 30
0.0
 10
7.626
 20
2.1964
 30
0.0
 10
7.626
 20
2.1964
 30
0.0
 10
6.1612
 20
1.7928
 30
0.0
 10
6.1612
 20
1.7928
 30
0.0
 10
6.1612
 20
1.7928
 30
0.0
 10
6.1612
 20
1.7928
 30
0.0
 10
6.3273
 20
1.1788
 30
0.0
 10
6.3273
 20
1.1788
 30
0.0
  0
SPLINE
  5
F2
330
1F
100
AcDbEntity
  8
DEFAULT_1
 62
   250
100
AcDbSpline
210
0.0
220
0.0
230
1.0
 70
    24
 71
     3
 72
     8
 73
     4
 74
     0
 42
0.0000000001
 43
0.0000000001
 40
0.0
 40
0.0
 40
0.0
 40
0.0
 40
1.0
 40
1.0
 40
1.0
 40
1.0
 10
2.1306
 20
6.9603
 30
0.0
 10
2.1306
 20
6.9603
 30
0.0
 10
2.1306
 20
5.2683
 30
0.0
 10
2.1306
 20
5.2683
 30
0.0
  0
SPLINE
  5
F3
330
1F
100
AcDbEntity
  8
DEFAULT_1
 62
   250
100
AcDbSpline
210
0.0
220
0.0
230
1.0
 70
     8
 71
     3
 72
    60
 73
    56
 74
     0
 42
0.0000000001
 43
0.0000000001
 40
0.0
 40
0.0
 40
0.0
 40
0.0
 40
0.0666666666666667
 40
0.0666666666666667
 40
0.0666666666666667
 40
0.0666666666666667
 40
0.1333333333333333
 40
0.1333333333333333
 40
0.1333333333333333
 40
0.1333333333333333
 40
0.2
 40
0.2
 40
0.2
 40
0.2
 40
0.2666666666666667
 40
0.2666666666666667
 40
0.2666666666666667
 40
0.2666666666666667
 40
0.3333333333333333
 40
0.3333333333333333
 40
0.3333333333333333
 40
0.3333333333333333
 40
0.4
 40
0.4
 40
0.4
 40
0.4
 40
0.4666666666666667
 40
0.4666666666666667
 40
0.4666666666666667
 40
0.4666666666666667
 40
0.5333333333333333
 40
0.5333333333333333
 40
0.5333333333333333
 40
0.5333333333333333
 40
0.6
 40
0.6
 40
0.6
 40
0.6
 40
0.6666666666666666
 40
0.6666666666666666
 40
0.6666666666666666
 40
0.6666666666666666
 40
0.7333333333333333
 40
0.7333333333333333
 40
0.7333333333333333
 40
0.7333333333333333
 40
0.8
 40
0.8
 40
0.8
 40
0.8
 40
0.8666666666666667
 40
0.8666666666666667
 40
0.8666666666666667
 40
0.8666666666666667
 40
1.0
 40
1.0
 40
1.0
 40
1.0
 10
-1.438
 20
23.9433
 30
0.0
 10
-1.438
 20
23.9433
 30
0.0
 10
-1.4351
 20
24.0007
 30
0.0
 10
-1.4351
 20
24.0007
 30
0.0
 10
-1.4351
 20
24.0007
 30
0.0
 10
-1.4351
 20
24.0007
 30
0.0
 10
-1.4251
 20
24.0628
 30
0.0
 10
-1.4251
 20
24.0628
 30
0.0
 10
-1.4251
 20
24.0628
 30
0.0
 10
-1.4251
 20
24.0628
 30
0.0
 10
-1.4081
 20
24.1236
 30
0.0
 10
-1.4081
 20
24.1236
 30
0.0
 10
-1.4081
 20
24.1236
 30
0.0
 10
-1.4081
 20
24.1236
 30
0.0
 10
-1.3844
 20
24.1823
 30
0.0
 10
-1.3844
 20
24.1823
 30
0.0
 10
-1.3844
 20
24.1823
 30
0.0
 10
-1.3844
 20
24.1823
 30
0.0
 10
-1.354
 20
24.238
 30
0.0
 10
-1.354
 20
24.238
 30
0.0
 10
-1.354
 20
24.238
 30
0.0
 10
-1.354
 20
24.238
 30
0.0
 10
-1.3176
 20
24.2899
 30
0.0
 10
-1.3176
 20
24.2899
 30
0.0
 10
-1.3176
 20
24.2899
 30
0.0
 10
-1.3176
 20
24.2899
 30
0.0
 10
-1.2754
 20
24.3373
 30
0.0
 10
-1.2754
 20
24.3373
 30
0.0
 10
-1.2754
 20
24.3373
 30
0.0
 10
-1.2754
 20
24.3373
 30
0.0
 10
-1.2282
 20
24.3797
 30
0.0
 10
-1.2282
 20
24.3797
 30
0.0
 10
-1.2282
 20
24.3797
 30
0.0
 10
-1.2282
 20
24.3797
 30
0.0
 10
-1.1764
 20
24.4164
 30
0.0
 10
-1.1764
 20
24.4164
 30
0.0
 10
-1.1764
 20
24.4164
 30
0.0
 10
-1.1764
 20
24.4164
 30
0.0
 10
-1.1208
 20
24.4471
 30
0.0
 10
-1.1208
 20
24.4471
 30
0.0
 10
-1.1208
 20
24.4471
 30
0.0
 10
-1.1208
 20
24.4471
 30
0.0
 10
-1.062
 20
24.4712
 30
0.0
 10
-1.062
 20
24.4712
 30
0.0
 10
-1.062
 20
24.4712
 30
0.0
 10
-1.062
 20
24.4712
 30
0.0
 10
-1.0008
 20
24.4886
 30
0.0
 10
-1.0008
 20
24.4886
 30
0.0
 10
-1.0008
 20
24.4886
 30
0.0
 10
-1.0008
 20
24.4886
 30
0.0
 10
-0.938
 20
24.499
 30
0.0
 10
-0.938
 20
24.499
 30
0.0
 10
-0.938
 20
24.499
 30
0.0
 10
-0.938
 20
24.499
 30
0.0
 10
-0.8776
 20
24.5023
 30
0.0
 10
-0.8776
 20
24.5023
 30
0.0
  0
SPLINE
  5
F4
330
1F
100
AcDbEntity
  8
DEFAULT_1
 62
   250
100
AcDbSpline
210
0.0
220
0.0
230
1.0
 70
    24
 71
     3
 72
     8
 73
     4
 74
     0
 42
0.0000000001
 43
0.0000000001
 40
0.0
 40
0.0
 40
0.0
 40
0.0
 40
1.0
 40
1.0
 40
1.0
 40
1.0
 10
0.4529
 20
23.7417
 30
0.0
 10
0.4529
 20
23.7417
 30
0.0
 10
0.4529
 20
23.8258
 30
0.0
 10
0.4529
 20
23.8258
 30
0.0
  0
SPLINE
  5
F5
330
1F
100
AcDbEntity
  8
DEFAULT_1
 62
   250
100
AcDbSpline
210
0.0
220
0.0
230
1.0
 70
    24
 71
     3
 72
     8
 73
     4
 74
     0
 42
0.0000000001
 43
0.0000000001
 40
0.0
 40
0.0
 40
0.0
 40
0.0
 40
1.0
 40
1.0
 40
1.0
 40
1.0
 10
0.075
 20
24.4514
 30
0.0
 10
0.075
 20
24.4514
 30
0.0
 10
0.075
 20
23.3798
 30
0.0
 10
0.075
 20
23.3798
 30
0.0
  0
SPLINE
  5
F6
330
1F
100
AcDbEntity
  8
DEFAULT_1
 62
   250
100
AcDbSpline
210
0.0
220
0.0
230
1.0
 70
    24
 71
     3
 72
     8
 73
     4
 74
     0
 42
0.0000000001
 43
0.0000000001
 40
0.0
 40
0.0
 40
0.0
 40
0.0
 40
1.0
 40
1.0
 40
1.0
 40
1.0
 10
-0.3299
 20
23.0349
 30
0.0
 10
-0.3299
 20
23.0349
 30
0.0
 10
-0.3299
 20
24.6451
 30
0.0
 10
-0.3299
 20
24.6451
 30
0.0
  0
SPLINE
  5
F7
330
1F
100
AcDbEntity
  8
DEFAULT_1
 62
   250
100
AcDbSpline
210
0.0
220
0.0
230
1.0
 70
    24
 71
     3
 72
     8
 73
     4
 74
     0
 42
0.0000000001
 43
0.0000000001
 40
0.0
 40
0.0
 40
0.0
 40
0.0
 40
1.0
 40
1.0
 40
1.0
 40
1.0
 10
-1.4367
 20
24.6451
 30
0.0
 10
-1.4367
 20
24.6451
 30
0.0
 10
-1.4367
 20
23.0375
 30
0.0
 10
-1.4367
 20
23.0375
 30
0.0
  0
SPLINE
  5
F8
330
1F
100
AcDbEntity
  8
DEFAULT_1
 62
   250
100
AcDbSpline
210
0.0
220
0.0
230
1.0
 70
    24
 71
     3
 72
     8
 73
     4
 74
     0
 42
0.0000000001
 43
0.0000000001
 40
0.0
 40
0.0
 40
0.0
 40
0.0
 40
1.0
 40
1.0
 40
1.0
 40
1.0
 10
-1.8417
 20
23.3798
 30
0.0
 10
-1.8417
 20
23.3798
 30
0.0
 10
-1.8417
 20
24.4514
 30
0.0
 10
-1.8417
 20
24.4514
 30
0.0
  0
SPLINE
  5
F9
330
1F
100
AcDbEntity
  8
DEFAULT_1
 62
   250
100
AcDbSpline
210
0.0
220
0.0
230
1.0
 70
    24
 71
     3
 72
     8
 73
     4
 74
     0
 42
0.0000000001
 43
0.0000000001
 40
0.0
 40
0.0
 40
0.0
 40
0.0
 40
1.0
 40
1.0
 40
1.0
 40
1.0
 10
-2.2466
 20
23.5144
 30
0.0
 10
-2.2466
 20
23.5144
 30
0.0
 10
-2.2466
 20
24.0531
 30
0.0
 10
-2.2466
 20
24.0531
 30
0.0
  0
SPLINE
  5
FA
330
1F
100
AcDbEntity
  8
DEFAULT_1
 62
   250
100
AcDbSpline
210
0.0
220
0.0
230
1.0
 70
    24
 71
     3
 72
     8
 73
     4
 74
     0
 42
0.0000000001
 43
0.0000000001
 40
0.0
 40
0.0
 40
0.0
 40
0.0
 40
1.0
 40
1.0
 40
1.0
 40
1.0
 10
-3.6743
 20
21.5887
 30
0.0
 10
-3.6743
 20
21.5887
 30
0.0
 10
-3.9406
 20
22.7871
 30
0.0
 10
-3.9406
 20
22.7871
 30
0.0
  0
SPLINE
  5
FB
330
1F
100
AcDbEntity
  8
DEFAULT_1
 62
   250
100
AcDbSpline
210
0.0
220
0.0
230
1.0
 70
    24
 71
     3
 72
     8
 73
     4
 74
     0
 42
0.0000000001
 43
0.0000000001
 40
0.0
 40
0.0
 40
0.0
 40
0.0
 40
1.0
 40
1.0
 40
1.0
 40
1.0
 10
1.9346
 20
21.5887
 30
0.0
 10
1.9346
 20
21.5887
 30
0.0
 10
2.2009
 20
22.7871
 30
0.0
 10
2.2009
 20
22.7871
 30
0.0
  0
SPLINE
  5
FC
330
1F
100
AcDbEntity
  8
DEFAULT_1
 62
   250
100
AcDbSpline
210
0.0
220
0.0
230
1.0
 70
    24
 71
     3
 72
     8
 73
     4
 74
     0
 42
0.0000000001
 43
0.0000000001
 40
0.0
 40
0.0
 40
0.0
 40
0.0
 40
1.0
 40
1.0
 40
1.0
 40
1.0
 10
0.075
 20
23.589
 30
0.0
 10
0.075
 20
23.589
 30
0.0
 10
0.4029
 20
23.6766
 30
0.0
 10
0.4029
 20
23.6766
 30
0.0
  0
SPLINE
  5
FD
330
1F
100
AcDbEntity
  8
DEFAULT_1
 62
   250
100
AcDbSpline
210
0.0
220
0.0
230
1.0
 70
    24
 71
     3
 72
     8
 73
     4
 74
     0
 42
0.0000000001
 43
0.0000000001
 40
0.0
 40
0.0
 40
0.0
 40
0.0
 40
1.0
 40
1.0
 40
1.0
 40
1.0
 10
1.9346
 20
21.5887
 30
0.0
 10
1.9346
 20
21.5887
 30
0.0
 10
-3.6743
 20
21.5887
 30
0.0
 10
-3.6743
 20
21.5887
 30
0.0
  0
SPLINE
  5
FE
330
1F
100
AcDbEntity
  8
DEFAULT_1
 62
   250
100
AcDbSpline
210
0.0
220
0.0
230
1.0
 70
    24
 71
     3
 72
     8
 73
     4
 74
     0
 42
0.0000000001
 43
0.0000000001
 40
0.0
 40
0.0
 40
0.0
 40
0.0
 40
1.0
 40
1.0
 40
1.0
 40
1.0
 10
0.075
 20
23.3798
 30
0.0
 10
0.075
 20
23.3798
 30
0.0
 10
-0.3299
 20
23.3798
 30
0.0
 10
-0.3299
 20
23.3798
 30
0.0
  0
SPLINE
  5
FF
330
1F
100
AcDbEntity
  8
DEFAULT_1
 62
   250
100
AcDbSpline
210
0.0
220
0.0
230
1.0
 70
    24
 71
     3
 72
     8
 73
     4
 74
     0
 42
0.0000000001
 43
0.0000000001
 40
0.0
 40
0.0
 40
0.0
 40
0.0
 40
1.0
 40
1.0
 40
1.0
 40
1.0
 10
-1.4367
 20
23.3798
 30
0.0
 10
-1.4367
 20
23.3798
 30
0.0
 10
-1.8417
 20
23.3798
 30
0.0
 10
-1.8417
 20
23.3798
 30
0.0
  0
SPLINE
  5
100
330
1F
100
AcDbEntity
  8
DEFAULT_1
 62
   250
100
AcDbSpline
210
0.0
220
0.0
230
1.0
 70
    24
 71
     3
 72
     8
 73
     4
 74
     0
 42
0.0000000001
 43
0.0000000001
 40
0.0
 40
0.0
 40
0.0
 40
0.0
 40
1.0
 40
1.0
 40
1.0
 40
1.0
 10
-2.2466
 20
23.5144
 30
0.0
 10
-2.2466
 20
23.5144
 30
0.0
 10
-1.8417
 20
23.5144
 30
0.0
 10
-1.8417
 20
23.5144
 30
0.0
  0
SPLINE
  5
101
330
1F
100
AcDbEntity
  8
DEFAULT_1
 62
   250
100
AcDbSpline
210
0.0
220
0.0
230
1.0
 70
    24
 71
     3
 72
     8
 73
     4
 74
     0
 42
0.0000000001
 43
0.0000000001
 40
0.0
 40
0.0
 40
0.0
 40
0.0
 40
1.0
 40
1.0
 40
1.0
 40
1.0
 10
-2.2466
 20
24.0531
 30
0.0
 10
-2.2466
 20
24.0531
 30
0.0
 10
-1.8417
 20
24.0531
 30
0.0
 10
-1.8417
 20
24.0531
 30
0.0
  0
SPLINE
  5
102
330
1F
100
AcDbEntity
  8
DEFAULT_1
 62
   250
100
AcDbSpline
210
0.0
220
0.0
230
1.0
 70
    24
 71
     3
 72
     8
 73
     4
 74
     0
 42
0.0000000001
 43
0.0000000001
 40
0.0
 40
0.0
 40
0.0
 40
0.0
 40
1.0
 40
1.0
 40
1.0
 40
1.0
 10
-0.8685
 20
24.5023
 30
0.0
 10
-0.8685
 20
24.5023
 30
0.0
 10
-0.8776
 20
24.5023
 30
0.0
 10
-0.8776
 20
24.5023
 30
0.0
  0
SPLINE
  5
103
330
1F
100
AcDbEntity
  8
DEFAULT_1
 62
   250
100
AcDbSpline
210
0.0
220
0.0
230
1.0
 70
    24
 71
     3
 72
     8
 73
     4
 74
     0
 42
0.0000000001
 43
0.0000000001
 40
0.0
 40
0.0
 40
0.0
 40
0.0
 40
1.0
 40
1.0
 40
1.0
 40
1.0
 10
0.075
 20
23.9785
 30
0.0
 10
0.075
 20
23.9785
 30
0.0
 10
0.4029
 20
23.8908
 30
0.0
 10
0.4029
 20
23.8908
 30
0.0
  0
SPLINE
  5
104
330
1F
100
AcDbEntity
  8
DEFAULT_1
 62
   250
100
AcDbSpline
210
0.0
220
0.0
230
1.0
 70
     8
 71
     3
 72
     8
 73
     4
 74
     0
 42
0.0000000001
 43
0.0000000001
 40
0.0
 40
0.0
 40
0.0
 40
0.0
 40
1.0
 40
1.0
 40
1.0
 40
1.0
 10
0.4029
 20
23.8908
 30
0.0
 10
0.4324
 20
23.883
 30
0.0
 10
0.4529
 20
23.8563
 30
0.0
 10
0.4529
 20
23.8258
 30
0.0
  0
SPLINE
  5
105
330
1F
100
AcDbEntity
  8
DEFAULT_1
 62
   250
100
AcDbSpline
210
0.0
220
0.0
230
1.0
 70
     8
 71
     3
 72
     8
 73
     4
 74
     0
 42
0.0000000001
 43
0.0000000001
 40
0.0
 40
0.0
 40
0.0
 40
0.0
 40
1.0
 40
1.0
 40
1.0
 40
1.0
 10
0.4529
 20
23.7417
 30
0.0
 10
0.4529
 20
23.7112
 30
0.0
 10
0.4324
 20
23.6845
 30
0.0
 10
0.4029
 20
23.6766
 30
0.0
  0
SPLINE
  5
106
330
1F
100
AcDbEntity
  8
DEFAULT_1
 62
   250
100
AcDbSpline
210
0.0
220
0.0
230
1.0
 70
     8
 71
     3
 72
     8
 73
     4
 74
     0
 42
0.0000000001
 43
0.0000000001
 40
0.0
 40
0.0
 40
0.0
 40
0.0
 40
1.0
 40
1.0
 40
1.0
 40
1.0
 10
-1.4614
 20
24.6971
 30
0.0
 10
-1.4458
 20
24.6843
 30
0.0
 10
-1.4367
 20
24.6652
 30
0.0
 10
-1.4367
 20
24.6451
 30
0.0
  0
SPLINE
  5
107
330
1F
100
AcDbEntity
  8
DEFAULT_1
 62
   250
100
AcDbSpline
210
0.0
220
0.0
230
1.0
 70
     8
 71
     3
 72
     8
 73
     4
 74
     0
 42
0.0000000001
 43
0.0000000001
 40
0.0
 40
0.0
 40
0.0
 40
0.0
 40
1.0
 40
1.0
 40
1.0
 40
1.0
 10
-0.3299
 20
24.6451
 30
0.0
 10
-0.3299
 20
24.6652
 30
0.0
 10
-0.3209
 20
24.6843
 30
0.0
 10
-0.3053
 20
24.6971
 30
0.0
  0
SPLINE
  5
108
330
1F
100
AcDbEntity
  8
DEFAULT_1
 62
   250
100
AcDbSpline
210
0.0
220
0.0
230
1.0
 70
     8
 71
     3
 72
    20
 73
    16
 74
     0
 42
0.0000000001
 43
0.0000000001
 40
0.0
 40
0.0
 40
0.0
 40
0.0
 40
0.2
 40
0.2
 40
0.2
 40
0.2
 40
0.4
 40
0.4
 40
0.4
 40
0.4
 40
0.6
 40
0.6
 40
0.6
 40
0.6
 40
1.0
 40
1.0
 40
1.0
 40
1.0
 10
-1.4614
 20
24.6971
 30
0.0
 10
-1.7589
 20
24.9407
 30
0.0
 10
-1.8708
 20
25.3445
 30
0.0
 10
-1.7411
 20
25.706
 30
0.0
 10
-1.7411
 20
25.706
 30
0.0
 10
-1.6115
 20
26.0674
 30
0.0
 10
-1.2681
 20
26.3087
 30
0.0
 10
-0.8833
 20
26.3087
 30
0.0
 10
-0.8833
 20
26.3087
 30
0.0
 10
-0.4985
 20
26.3087
 30
0.0
 10
-0.1552
 20
26.0674
 30
0.0
 10
-0.0255
 20
25.706
 30
0.0
 10
-0.0255
 20
25.706
 30
0.0
 10
0.1041
 20
25.3445
 30
0.0
 10
-0.0078
 20
24.9407
 30
0.0
 10
-0.3053
 20
24.6971
 30
0.0
  0
SPLINE
  5
109
330
1F
100
AcDbEntity
  8
DEFAULT_1
 62
   250
100
AcDbSpline
210
0.0
220
0.0
230
1.0
 70
     8
 71
     3
 72
    16
 73
    12
 74
     0
 42
0.0000000001
 43
0.0000000001
 40
0.0
 40
0.0
 40
0.0
 40
0.0
 40
0.25
 40
0.25
 40
0.25
 40
0.25
 40
0.5
 40
0.5
 40
0.5
 40
0.5
 40
1.0
 40
1.0
 40
1.0
 40
1.0
 10
-1.8417
 20
24.4514
 30
0.0
 10
-2.3656
 20
24.9784
 30
0.0
 10
-2.3633
 20
25.8291
 30
0.0
 10
-1.8364
 20
26.3532
 30
0.0
 10
-1.8364
 20
26.3532
 30
0.0
 10
-1.3097
 20
26.8774
 30
0.0
 10
-0.457
 20
26.8774
 30
0.0
 10
0.0698
 20
26.3532
 30
0.0
 10
0.0698
 20
26.3532
 30
0.0
 10
0.5966
 20
25.8291
 30
0.0
 10
0.599
 20
24.9784
 30
0.0
 10
0.075
 20
24.4514
 30
0.0
  0
SPLINE
  5
10A
330
1F
100
AcDbEntity
  8
DEFAULT_1
 62
   250
100
AcDbSpline
210
0.0
220
0.0
230
1.0
 70
     8
 71
     3
 72
     8
 73
     4
 74
     0
 42
0.0000000001
 43
0.0000000001
 40
0.0
 40
0.0
 40
0.0
 40
0.0
 40
1.0
 40
1.0
 40
1.0
 40
1.0
 10
-0.8685
 20
24.5023
 30
0.0
 10
-0.574
 20
24.5023
 30
0.0
 10
-0.3341
 20
24.2663
 30
0.0
 10
-0.33
 20
23.9725
 30
0.0
  0
SPLINE
  5
10B
330
1F
100
AcDbEntity
  8
DEFAULT_1
 62
   250
100
AcDbSpline
210
0.0
220
0.0
230
1.0
 70
     8
 71
     3
 72
     8
 73
     4
 74
     0
 42
0.0000000001
 43
0.0000000001
 40
0.0
 40
0.0
 40
0.0
 40
0.0
 40
1.0
 40
1.0
 40
1.0
 40
1.0
 10
-0.3293
 20
23.192
 30
0.0
 10
0.5266
 20
23.1517
 30
0.0
 10
1.3753
 20
23.0159
 30
0.0
 10
2.2009
 20
22.7871
 30
0.0
  0
SPLINE
  5
10C
330
1F
100
AcDbEntity
  8
DEFAULT_1
 62
   250
100
AcDbSpline
210
0.0
220
0.0
230
1.0
 70
     8
 71
     3
 72
     8
 73
     4
 74
     0
 42
0.0000000001
 43
0.0000000001
 40
0.0
 40
0.0
 40
0.0
 40
0.0
 40
1.0
 40
1.0
 40
1.0
 40
1.0
 10
-3.9406
 20
22.7871
 30
0.0
 10
-3.1195
 20
23.0146
 30
0.0
 10
-2.2755
 20
23.1497
 30
0.0
 10
-1.4243
 20
23.1897
 30
0.0
  0
SPLINE
  5
10D
330
1F
100
AcDbEntity
  8
DEFAULT_1
 62
   250
100
AcDbSpline
210
0.0
220
0.0
230
1.0
 70
     8
 71
     3
 72
    32
 73
    28
 74
     0
 42
0.0000000001
 43
0.0000000001
 40
0.0
 40
0.0
 40
0.0
 40
0.0
 40
0.125
 40
0.125
 40
0.125
 40
0.125
 40
0.25
 40
0.25
 40
0.25
 40
0.25
 40
0.375
 40
0.375
 40
0.375
 40
0.375
 40
0.5
 40
0.5
 40
0.5
 40
0.5
 40
0.625
 40
0.625
 40
0.625
 40
0.625
 40
0.75
 40
0.75
 40
0.75
 40
0.75
 40
1.0
 40
1.0
 40
1.0
 40
1.0
 10
-0.33
 20
23.9688
 30
0.0
 10
-0.33
 20
23.9688
 30
0.0
 10
-0.3304
 20
23.9569
 30
0.0
 10
-0.3304
 20
23.9569
 30
0.0
 10
-0.3304
 20
23.9569
 30
0.0
 10
-0.3304
 20
23.9569
 30
0.0
 10
-0.331
 20
23.9423
 30
0.0
 10
-0.331
 20
23.9423
 30
0.0
 10
-0.331
 20
23.9423
 30
0.0
 10
-0.331
 20
23.9423
 30
0.0
 10
-0.3316
 20
23.925
 30
0.0
 10
-0.3316
 20
23.925
 30
0.0
 10
-0.3316
 20
23.925
 30
0.0
 10
-0.3316
 20
23.925
 30
0.0
 10
-0.3319
 20
23.9054
 30
0.0
 10
-0.3319
 20
23.9054
 30
0.0
 10
-0.3319
 20
23.9054
 30
0.0
 10
-0.3319
 20
23.9054
 30
0.0
 10
-0.3321
 20
23.8839
 30
0.0
 10
-0.3321
 20
23.8839
 30
0.0
 10
-0.3321
 20
23.8839
 30
0.0
 10
-0.3321
 20
23.8839
 30
0.0
 10
-0.3319
 20
23.8607
 30
0.0
 10
-0.3319
 20
23.8607
 30
0.0
 10
-0.3319
 20
23.8607
 30
0.0
 10
-0.3319
 20
23.8607
 30
0.0
 10
-0.3318
 20
23.851
 30
0.0
 10
-0.3318
 20
23.851
 30
0.0
  0
SPLINE
  5
10E
330
1F
100
AcDbEntity
  8
DEFAULT_1
 62
   250
100
AcDbSpline
210
0.0
220
0.0
230
1.0
 70
     8
 71
     3
 72
    16
 73
    12
 74
     0
 42
0.0000000001
 43
0.0000000001
 40
0.0
 40
0.0
 40
0.0
 40
0.0
 40
0.25
 40
0.25
 40
0.25
 40
0.25
 40
0.5
 40
0.5
 40
0.5
 40
0.5
 40
1.0
 40
1.0
 40
1.0
 40
1.0
 10
-0.3318
 20
23.851
 30
0.0
 10
-0.3318
 20
23.851
 30
0.0
 10
-0.3315
 20
23.8362
 30
0.0
 10
-0.3315
 20
23.8362
 30
0.0
 10
-0.3315
 20
23.8362
 30
0.0
 10
-0.3315
 20
23.8362
 30
0.0
 10
-0.3309
 20
23.8104
 30
0.0
 10
-0.3309
 20
23.8104
 30
0.0
 10
-0.3309
 20
23.8104
 30
0.0
 10
-0.3309
 20
23.8104
 30
0.0
 10
-0.3303
 20
23.7837
 30
0.0
 10
-0.3303
 20
23.7837
 30
0.0
  0
SPLINE
  5
10F
330
1F
100
AcDbEntity
  8
DEFAULT_1
 62
   250
100
AcDbSpline
210
0.0
220
0.0
230
1.0
 70
    24
 71
     3
 72
    12
 73
     8
 74
     0
 42
0.0000000001
 43
0.0000000001
 40
0.0
 40
0.0
 40
0.0
 40
0.0
 40
0.3333333333333333
 40
0.3333333333333333
 40
0.3333333333333333
 40
0.3333333333333333
 40
1.0
 40
1.0
 40
1.0
 40
1.0
 10
-0.8698
 20
22.9097
 30
0.0
 10
-0.8698
 20
22.9097
 30
0.0
 10
-0.8691
 20
22.9097
 30
0.0
 10
-0.8691
 20
22.9097
 30
0.0
 10
-0.8691
 20
22.9097
 30
0.0
 10
-0.8691
 20
22.9097
 30
0.0
 10
-0.8685
 20
22.9097
 30
0.0
 10
-0.8685
 20
22.9097
 30
0.0
  0
SPLINE
  5
110
330
1F
100
AcDbEntity
  8
DEFAULT_1
 62
   250
100
AcDbSpline
210
0.0
220
0.0
230
1.0
 70
     8
 71
     3
 72
    60
 73
    56
 74
     0
 42
0.0000000001
 43
0.0000000001
 40
0.0
 40
0.0
 40
0.0
 40
0.0
 40
0.0666666666666667
 40
0.0666666666666667
 40
0.0666666666666667
 40
0.0666666666666667
 40
0.1333333333333333
 40
0.1333333333333333
 40
0.1333333333333333
 40
0.1333333333333333
 40
0.2
 40
0.2
 40
0.2
 40
0.2
 40
0.2666666666666667
 40
0.2666666666666667
 40
0.2666666666666667
 40
0.2666666666666667
 40
0.3333333333333333
 40
0.3333333333333333
 40
0.3333333333333333
 40
0.3333333333333333
 40
0.4
 40
0.4
 40
0.4
 40
0.4
 40
0.4666666666666667
 40
0.4666666666666667
 40
0.4666666666666667
 40
0.4666666666666667
 40
0.5333333333333333
 40
0.5333333333333333
 40
0.5333333333333333
 40
0.5333333333333333
 40
0.6
 40
0.6
 40
0.6
 40
0.6
 40
0.6666666666666666
 40
0.6666666666666666
 40
0.6666666666666666
 40
0.6666666666666666
 40
0.7333333333333333
 40
0.7333333333333333
 40
0.7333333333333333
 40
0.7333333333333333
 40
0.8
 40
0.8
 40
0.8
 40
0.8
 40
0.8666666666666667
 40
0.8666666666666667
 40
0.8666666666666667
 40
0.8666666666666667
 40
1.0
 40
1.0
 40
1.0
 40
1.0
 10
-0.8685
 20
22.9097
 30
0.0
 10
-0.8685
 20
22.9097
 30
0.0
 10
-0.8177
 20
22.9103
 30
0.0
 10
-0.8177
 20
22.9103
 30
0.0
 10
-0.8177
 20
22.9103
 30
0.0
 10
-0.8177
 20
22.9103
 30
0.0
 10
-0.7666
 20
22.9121
 30
0.0
 10
-0.7666
 20
22.9121
 30
0.0
 10
-0.7666
 20
22.9121
 30
0.0
 10
-0.7666
 20
22.9121
 30
0.0
 10
-0.7159
 20
22.9152
 30
0.0
 10
-0.7159
 20
22.9152
 30
0.0
 10
-0.7159
 20
22.9152
 30
0.0
 10
-0.7159
 20
22.9152
 30
0.0
 10
-0.6658
 20
22.9196
 30
0.0
 10
-0.6658
 20
22.9196
 30
0.0
 10
-0.6658
 20
22.9196
 30
0.0
 10
-0.6658
 20
22.9196
 30
0.0
 10
-0.6161
 20
22.9253
 30
0.0
 10
-0.6161
 20
22.9253
 30
0.0
 10
-0.6161
 20
22.9253
 30
0.0
 10
-0.6161
 20
22.9253
 30
0.0
 10
-0.5672
 20
22.9326
 30
0.0
 10
-0.5672
 20
22.9326
 30
0.0
 10
-0.5672
 20
22.9326
 30
0.0
 10
-0.5672
 20
22.9326
 30
0.0
 10
-0.5202
 20
22.9412
 30
0.0
 10
-0.5202
 20
22.9412
 30
0.0
 10
-0.5202
 20
22.9412
 30
0.0
 10
-0.5202
 20
22.9412
 30
0.0
 10
-0.4761
 20
22.9514
 30
0.0
 10
-0.4761
 20
22.9514
 30
0.0
 10
-0.4761
 20
22.9514
 30
0.0
 10
-0.4761
 20
22.9514
 30
0.0
 10
-0.4357
 20
22.9628
 30
0.0
 10
-0.4357
 20
22.9628
 30
0.0
 10
-0.4357
 20
22.9628
 30
0.0
 10
-0.4357
 20
22.9628
 30
0.0
 10
-0.4
 20
22.9757
 30
0.0
 10
-0.4
 20
22.9757
 30
0.0
 10
-0.4
 20
22.9757
 30
0.0
 10
-0.4
 20
22.9757
 30
0.0
 10
-0.3704
 20
22.9897
 30
0.0
 10
-0.3704
 20
22.9897
 30
0.0
 10
-0.3704
 20
22.9897
 30
0.0
 10
-0.3704
 20
22.9897
 30
0.0
 10
-0.3482
 20
23.0044
 30
0.0
 10
-0.3482
 20
23.0044
 30
0.0
 10
-0.3482
 20
23.0044
 30
0.0
 10
-0.3482
 20
23.0044
 30
0.0
 10
-0.3345
 20
23.0196
 30
0.0
 10
-0.3345
 20
23.0196
 30
0.0
 10
-0.3345
 20
23.0196
 30
0.0
 10
-0.3345
 20
23.0196
 30
0.0
 10
-0.3299
 20
23.0349
 30
0.0
 10
-0.3299
 20
23.0349
 30
0.0
  0
SPLINE
  5
111
330
1F
100
AcDbEntity
  8
DEFAULT_1
 62
   250
100
AcDbSpline
210
0.0
220
0.0
230
1.0
 70
     8
 71
     3
 72
    60
 73
    56
 74
     0
 42
0.0000000001
 43
0.0000000001
 40
0.0
 40
0.0
 40
0.0
 40
0.0
 40
0.0666666666666667
 40
0.0666666666666667
 40
0.0666666666666667
 40
0.0666666666666667
 40
0.1333333333333333
 40
0.1333333333333333
 40
0.1333333333333333
 40
0.1333333333333333
 40
0.2
 40
0.2
 40
0.2
 40
0.2
 40
0.2666666666666667
 40
0.2666666666666667
 40
0.2666666666666667
 40
0.2666666666666667
 40
0.3333333333333333
 40
0.3333333333333333
 40
0.3333333333333333
 40
0.3333333333333333
 40
0.4
 40
0.4
 40
0.4
 40
0.4
 40
0.4666666666666667
 40
0.4666666666666667
 40
0.4666666666666667
 40
0.4666666666666667
 40
0.5333333333333333
 40
0.5333333333333333
 40
0.5333333333333333
 40
0.5333333333333333
 40
0.6
 40
0.6
 40
0.6
 40
0.6
 40
0.6666666666666666
 40
0.6666666666666666
 40
0.6666666666666666
 40
0.6666666666666666
 40
0.7333333333333333
 40
0.7333333333333333
 40
0.7333333333333333
 40
0.7333333333333333
 40
0.8
 40
0.8
 40
0.8
 40
0.8
 40
0.8666666666666667
 40
0.8666666666666667
 40
0.8666666666666667
 40
0.8666666666666667
 40
1.0
 40
1.0
 40
1.0
 40
1.0
 10
-1.4356
 20
23.0382
 30
0.0
 10
-1.4356
 20
23.0382
 30
0.0
 10
-1.4309
 20
23.0225
 30
0.0
 10
-1.4309
 20
23.0225
 30
0.0
 10
-1.4309
 20
23.0225
 30
0.0
 10
-1.4309
 20
23.0225
 30
0.0
 10
-1.4168
 20
23.0068
 30
0.0
 10
-1.4168
 20
23.0068
 30
0.0
 10
-1.4168
 20
23.0068
 30
0.0
 10
-1.4168
 20
23.0068
 30
0.0
 10
-1.394
 20
22.9915
 30
0.0
 10
-1.394
 20
22.9915
 30
0.0
 10
-1.394
 20
22.9915
 30
0.0
 10
-1.394
 20
22.9915
 30
0.0
 10
-1.3636
 20
22.9771
 30
0.0
 10
-1.3636
 20
22.9771
 30
0.0
 10
-1.3636
 20
22.9771
 30
0.0
 10
-1.3636
 20
22.9771
 30
0.0
 10
-1.327
 20
22.9639
 30
0.0
 10
-1.327
 20
22.9639
 30
0.0
 10
-1.327
 20
22.9639
 30
0.0
 10
-1.327
 20
22.9639
 30
0.0
 10
-1.2856
 20
22.9521
 30
0.0
 10
-1.2856
 20
22.9521
 30
0.0
 10
-1.2856
 20
22.9521
 30
0.0
 10
-1.2856
 20
22.9521
 30
0.0
 10
-1.2404
 20
22.9418
 30
0.0
 10
-1.2404
 20
22.9418
 30
0.0
 10
-1.2404
 20
22.9418
 30
0.0
 10
-1.2404
 20
22.9418
 30
0.0
 10
-1.1922
 20
22.9328
 30
0.0
 10
-1.1922
 20
22.9328
 30
0.0
 10
-1.1922
 20
22.9328
 30
0.0
 10
-1.1922
 20
22.9328
 30
0.0
 10
-1.142
 20
22.9255
 30
0.0
 10
-1.142
 20
22.9255
 30
0.0
 10
-1.142
 20
22.9255
 30
0.0
 10
-1.142
 20
22.9255
 30
0.0
 10
-1.091
 20
22.9196
 30
0.0
 10
-1.091
 20
22.9196
 30
0.0
 10
-1.091
 20
22.9196
 30
0.0
 10
-1.091
 20
22.9196
 30
0.0
 10
-1.0396
 20
22.9151
 30
0.0
 10
-1.0396
 20
22.9151
 30
0.0
 10
-1.0396
 20
22.9151
 30
0.0
 10
-1.0396
 20
22.9151
 30
0.0
 10
-0.9877
 20
22.912
 30
0.0
 10
-0.9877
 20
22.912
 30
0.0
 10
-0.9877
 20
22.912
 30
0.0
 10
-0.9877
 20
22.912
 30
0.0
 10
-0.9354
 20
22.9102
 30
0.0
 10
-0.9354
 20
22.9102
 30
0.0
 10
-0.9354
 20
22.9102
 30
0.0
 10
-0.9354
 20
22.9102
 30
0.0
 10
-0.8833
 20
22.9097
 30
0.0
 10
-0.8833
 20
22.9097
 30
0.0
  0
SPLINE
  5
112
330
1F
100
AcDbEntity
  8
DEFAULT_1
 62
   250
100
AcDbSpline
210
0.0
220
0.0
230
1.0
 70
    24
 71
     3
 72
    12
 73
     8
 74
     0
 42
0.0000000001
 43
0.0000000001
 40
0.0
 40
0.0
 40
0.0
 40
0.0
 40
0.3333333333333333
 40
0.3333333333333333
 40
0.3333333333333333
 40
0.3333333333333333
 40
1.0
 40
1.0
 40
1.0
 40
1.0
 10
-0.8833
 20
22.9097
 30
0.0
 10
-0.8833
 20
22.9097
 30
0.0
 10
-0.8766
 20
22.9097
 30
0.0
 10
-0.8766
 20
22.9097
 30
0.0
 10
-0.8766
 20
22.9097
 30
0.0
 10
-0.8766
 20
22.9097
 30
0.0
 10
-0.8698
 20
22.9097
 30
0.0
 10
-0.8698
 20
22.9097
 30
0.0
  0
SPLINE
  5
113
330
1F
100
AcDbEntity
  8
DEFAULT_1
 62
   250
100
AcDbSpline
210
0.0
220
0.0
230
1.0
 70
    24
 71
     3
 72
     8
 73
     4
 74
     0
 42
0.0000000001
 43
0.0000000001
 40
0.0
 40
0.0
 40
0.0
 40
0.0
 40
1.0
 40
1.0
 40
1.0
 40
1.0
 10
-6.0617
 20
15.9096
 30
0.0
 10
-6.0617
 20
15.9096
 30
0.0
 10
-6.1154
 20
16.6785
 30
0.0
 10
-6.1154
 20
16.6785
 30
0.0
  0
SPLINE
  5
114
330
1F
100
AcDbEntity
  8
DEFAULT_1
 62
   250
100
AcDbSpline
210
0.0
220
0.0
230
1.0
 70
    24
 71
     3
 72
     8
 73
     4
 74
     0
 42
0.0000000001
 43
0.0000000001
 40
0.0
 40
0.0
 40
0.0
 40
0.0
 40
1.0
 40
1.0
 40
1.0
 40
1.0
 10
-5.8376
 20
16.6785
 30
0.0
 10
-5.8376
 20
16.6785
 30
0.0
 10
-5.8376
 20
16.9563
 30
0.0
 10
-5.8376
 20
16.9563
 30
0.0
  0
SPLINE
  5
115
330
1F
100
AcDbEntity
  8
DEFAULT_1
 62
   250
100
AcDbSpline
210
0.0
220
0.0
230
1.0
 70
    24
 71
     3
 72
     8
 73
     4
 74
     0
 42
0.0000000001
 43
0.0000000001
 40
0.0
 40
0.0
 40
0.0
 40
0.0
 40
1.0
 40
1.0
 40
1.0
 40
1.0
 10
-4.124
 20
11.1223
 30
0.0
 10
-4.124
 20
11.1223
 30
0.0
 10
-4.6089
 20
15.7828
 30
0.0
 10
-4.6089
 20
15.7828
 30
0.0
  0
SPLINE
  5
116
330
1F
100
AcDbEntity
  8
DEFAULT_1
 62
   250
100
AcDbSpline
210
0.0
220
0.0
230
1.0
 70
    24
 71
     3
 72
     8
 73
     4
 74
     0
 42
0.0000000001
 43
0.0000000001
 40
0.0
 40
0.0
 40
0.0
 40
0.0
 40
1.0
 40
1.0
 40
1.0
 40
1.0
 10
-4.2749
 20
9.8721
 30
0.0
 10
-4.2749
 20
9.8721
 30
0.0
 10
-4.2749
 20
10.7056
 30
0.0
 10
-4.2749
 20
10.7056
 30
0.0
  0
SPLINE
  5
117
330
1F
100
AcDbEntity
  8
DEFAULT_1
 62
   250
100
AcDbSpline
210
0.0
220
0.0
230
1.0
 70
    24
 71
     3
 72
     8
 73
     4
 74
     0
 42
0.0000000001
 43
0.0000000001
 40
0.0
 40
0.0
 40
0.0
 40
0.0
 40
1.0
 40
1.0
 40
1.0
 40
1.0
 10
-4.124
 20
10.7056
 30
0.0
 10
-4.124
 20
10.7056
 30
0.0
 10
-4.124
 20
11.1223
 30
0.0
 10
-4.124
 20
11.1223
 30
0.0
  0
SPLINE
  5
118
330
1F
100
AcDbEntity
  8
DEFAULT_1
 62
   250
100
AcDbSpline
210
0.0
220
0.0
230
1.0
 70
    24
 71
     3
 72
     8
 73
     4
 74
     0
 42
0.0000000001
 43
0.0000000001
 40
0.0
 40
0.0
 40
0.0
 40
0.0
 40
1.0
 40
1.0
 40
1.0
 40
1.0
 10
-1.3927
 20
16.9563
 30
0.0
 10
-1.3927
 20
16.9563
 30
0.0
 10
-1.3927
 20
17.373
 30
0.0
 10
-1.3927
 20
17.373
 30
0.0
  0
SPLINE
  5
119
330
1F
100
AcDbEntity
  8
DEFAULT_1
 62
   250
100
AcDbSpline
210
0.0
220
0.0
230
1.0
 70
    24
 71
     3
 72
     8
 73
     4
 74
     0
 42
0.0000000001
 43
0.0000000001
 40
0.0
 40
0.0
 40
0.0
 40
0.0
 40
1.0
 40
1.0
 40
1.0
 40
1.0
 10
-0.5592
 20
16.9563
 30
0.0
 10
-0.5592
 20
16.9563
 30
0.0
 10
-0.5592
 20
17.373
 30
0.0
 10
-0.5592
 20
17.373
 30
0.0
  0
SPLINE
  5
11A
330
1F
100
AcDbEntity
  8
DEFAULT_1
 62
   250
100
AcDbSpline
210
0.0
220
0.0
230
1.0
 70
    24
 71
     3
 72
     8
 73
     4
 74
     0
 42
0.0000000001
 43
0.0000000001
 40
0.0
 40
0.0
 40
0.0
 40
0.0
 40
1.0
 40
1.0
 40
1.0
 40
1.0
 10
2.2199
 20
19.0399
 30
0.0
 10
2.2199
 20
19.0399
 30
0.0
 10
1.9897
 20
17.373
 30
0.0
 10
1.9897
 20
17.373
 30
0.0
  0
SPLINE
  5
11B
330
1F
100
AcDbEntity
  8
DEFAULT_1
 62
   250
100
AcDbSpline
210
0.0
220
0.0
230
1.0
 70
    24
 71
     3
 72
     8
 73
     4
 74
     0
 42
0.0000000001
 43
0.0000000001
 40
0.0
 40
0.0
 40
0.0
 40
0.0
 40
1.0
 40
1.0
 40
1.0
 40
1.0
 10
-4.1718
 20
19.0399
 30
0.0
 10
-4.1718
 20
19.0399
 30
0.0
 10
-3.9416
 20
17.373
 30
0.0
 10
-3.9416
 20
17.373
 30
0.0
  0
SPLINE
  5
11C
330
1F
100
AcDbEntity
  8
DEFAULT_1
 62
   250
100
AcDbSpline
210
0.0
220
0.0
230
1.0
 70
    24
 71
     3
 72
     8
 73
     4
 74
     0
 42
0.0000000001
 43
0.0000000001
 40
0.0
 40
0.0
 40
0.0
 40
0.0
 40
1.0
 40
1.0
 40
1.0
 40
1.0
 10
2.1721
 20
10.7056
 30
0.0
 10
2.1721
 20
10.7056
 30
0.0
 10
2.1721
 20
11.1223
 30
0.0
 10
2.1721
 20
11.1223
 30
0.0
  0
SPLINE
  5
11D
330
1F
100
AcDbEntity
  8
DEFAULT_1
 62
   250
100
AcDbSpline
210
0.0
220
0.0
230
1.0
 70
    24
 71
     3
 72
     8
 73
     4
 74
     0
 42
0.0000000001
 43
0.0000000001
 40
0.0
 40
0.0
 40
0.0
 40
0.0
 40
1.0
 40
1.0
 40
1.0
 40
1.0
 10
2.1721
 20
11.1223
 30
0.0
 10
2.1721
 20
11.1223
 30
0.0
 10
2.6571
 20
15.7828
 30
0.0
 10
2.6571
 20
15.7828
 30
0.0
  0
SPLINE
  5
11E
330
1F
100
AcDbEntity
  8
DEFAULT_1
 62
   250
100
AcDbSpline
210
0.0
220
0.0
230
1.0
 70
    24
 71
     3
 72
     8
 73
     4
 74
     0
 42
0.0000000001
 43
0.0000000001
 40
0.0
 40
0.0
 40
0.0
 40
0.0
 40
1.0
 40
1.0
 40
1.0
 40
1.0
 10
2.3231
 20
9.8721
 30
0.0
 10
2.3231
 20
9.8721
 30
0.0
 10
2.3231
 20
10.7056
 30
0.0
 10
2.3231
 20
10.7056
 30
0.0
  0
SPLINE
  5
11F
330
1F
100
AcDbEntity
  8
DEFAULT_1
 62
   250
100
AcDbSpline
210
0.0
220
0.0
230
1.0
 70
    24
 71
     3
 72
     8
 73
     4
 74
     0
 42
0.0000000001
 43
0.0000000001
 40
0.0
 40
0.0
 40
0.0
 40
0.0
 40
1.0
 40
1.0
 40
1.0
 40
1.0
 10
3.8857
 20
16.6785
 30
0.0
 10
3.8857
 20
16.6785
 30
0.0
 10
3.8857
 20
16.9563
 30
0.0
 10
3.8857
 20
16.9563
 30
0.0
  0
SPLINE
  5
120
330
1F
100
AcDbEntity
  8
DEFAULT_1
 62
   250
100
AcDbSpline
210
0.0
220
0.0
230
1.0
 70
    24
 71
     3
 72
     8
 73
     4
 74
     0
 42
0.0000000001
 43
0.0000000001
 40
0.0
 40
0.0
 40
0.0
 40
0.0
 40
1.0
 40
1.0
 40
1.0
 40
1.0
 10
4.1098
 20
15.9096
 30
0.0
 10
4.1098
 20
15.9096
 30
0.0
 10
4.1635
 20
16.6785
 30
0.0
 10
4.1635
 20
16.6785
 30
0.0
  0
SPLINE
  5
121
330
1F
100
AcDbEntity
  8
DEFAULT_1
 62
   250
100
AcDbSpline
210
0.0
220
0.0
230
1.0
 70
    24
 71
     3
 72
     8
 73
     4
 74
     0
 42
0.0000000001
 43
0.0000000001
 40
0.0
 40
0.0
 40
0.0
 40
0.0
 40
1.0
 40
1.0
 40
1.0
 40
1.0
 10
2.3231
 20
10.7056
 30
0.0
 10
2.3231
 20
10.7056
 30
0.0
 10
-4.2749
 20
10.7056
 30
0.0
 10
-4.2749
 20
10.7056
 30
0.0
  0
SPLINE
  5
122
330
1F
100
AcDbEntity
  8
DEFAULT_1
 62
   250
100
AcDbSpline
210
0.0
220
0.0
230
1.0
 70
    24
 71
     3
 72
     8
 73
     4
 74
     0
 42
0.0000000001
 43
0.0000000001
 40
0.0
 40
0.0
 40
0.0
 40
0.0
 40
1.0
 40
1.0
 40
1.0
 40
1.0
 10
2.1721
 20
11.1223
 30
0.0
 10
2.1721
 20
11.1223
 30
0.0
 10
-4.124
 20
11.1223
 30
0.0
 10
-4.124
 20
11.1223
 30
0.0
  0
SPLINE
  5
123
330
1F
100
AcDbEntity
  8
DEFAULT_1
 62
   250
100
AcDbSpline
210
0.0
220
0.0
230
1.0
 70
    24
 71
     3
 72
     8
 73
     4
 74
     0
 42
0.0000000001
 43
0.0000000001
 40
0.0
 40
0.0
 40
0.0
 40
0.0
 40
1.0
 40
1.0
 40
1.0
 40
1.0
 10
-5.9924
 20
15.8451
 30
0.0
 10
-5.9924
 20
15.8451
 30
0.0
 10
4.0405
 20
15.8451
 30
0.0
 10
4.0405
 20
15.8451
 30
0.0
  0
SPLINE
  5
124
330
1F
100
AcDbEntity
  8
DEFAULT_1
 62
   250
100
AcDbSpline
210
0.0
220
0.0
230
1.0
 70
    24
 71
     3
 72
     8
 73
     4
 74
     0
 42
0.0000000001
 43
0.0000000001
 40
0.0
 40
0.0
 40
0.0
 40
0.0
 40
1.0
 40
1.0
 40
1.0
 40
1.0
 10
4.1635
 20
16.6785
 30
0.0
 10
4.1635
 20
16.6785
 30
0.0
 10
-6.1154
 20
16.6785
 30
0.0
 10
-6.1154
 20
16.6785
 30
0.0
  0
SPLINE
  5
125
330
1F
100
AcDbEntity
  8
DEFAULT_1
 62
   250
100
AcDbSpline
210
0.0
220
0.0
230
1.0
 70
    24
 71
     3
 72
     8
 73
     4
 74
     0
 42
0.0000000001
 43
0.0000000001
 40
0.0
 40
0.0
 40
0.0
 40
0.0
 40
1.0
 40
1.0
 40
1.0
 40
1.0
 10
-5.8376
 20
16.9563
 30
0.0
 10
-5.8376
 20
16.9563
 30
0.0
 10
3.8857
 20
16.9563
 30
0.0
 10
3.8857
 20
16.9563
 30
0.0
  0
SPLINE
  5
126
330
1F
100
AcDbEntity
  8
DEFAULT_1
 62
   250
100
AcDbSpline
210
0.0
220
0.0
230
1.0
 70
    24
 71
     3
 72
     8
 73
     4
 74
     0
 42
0.0000000001
 43
0.0000000001
 40
0.0
 40
0.0
 40
0.0
 40
0.0
 40
1.0
 40
1.0
 40
1.0
 40
1.0
 10
1.9897
 20
17.373
 30
0.0
 10
1.9897
 20
17.373
 30
0.0
 10
-3.9416
 20
17.373
 30
0.0
 10
-3.9416
 20
17.373
 30
0.0
  0
SPLINE
  5
127
330
1F
100
AcDbEntity
  8
DEFAULT_1
 62
   250
100
AcDbSpline
210
0.0
220
0.0
230
1.0
 70
     8
 71
     3
 72
     8
 73
     4
 74
     0
 42
0.0000000001
 43
0.0000000001
 40
0.0
 40
0.0
 40
0.0
 40
0.0
 40
1.0
 40
1.0
 40
1.0
 40
1.0
 10
-6.0617
 20
15.9096
 30
0.0
 10
-6.0591
 20
15.8733
 30
0.0
 10
-6.0289
 20
15.8451
 30
0.0
 10
-5.9924
 20
15.8451
 30
0.0
  0
SPLINE
  5
128
330
1F
100
AcDbEntity
  8
DEFAULT_1
 62
   250
100
AcDbSpline
210
0.0
220
0.0
230
1.0
 70
     8
 71
     3
 72
     8
 73
     4
 74
     0
 42
0.0000000001
 43
0.0000000001
 40
0.0
 40
0.0
 40
0.0
 40
0.0
 40
1.0
 40
1.0
 40
1.0
 40
1.0
 10
4.0405
 20
15.8451
 30
0.0
 10
4.077
 20
15.8451
 30
0.0
 10
4.1072
 20
15.8733
 30
0.0
 10
4.1098
 20
15.9096
 30
0.0
  0
SPLINE
  5
129
330
1F
100
AcDbEntity
  8
DEFAULT_1
 62
   250
100
AcDbSpline
210
0.0
220
0.0
230
1.0
 70
     8
 71
     3
 72
     8
 73
     4
 74
     0
 42
0.0000000001
 43
0.0000000001
 40
0.0
 40
0.0
 40
0.0
 40
0.0
 40
1.0
 40
1.0
 40
1.0
 40
1.0
 10
-4.6089
 20
15.7828
 30
0.0
 10
-4.6126
 20
15.8182
 30
0.0
 10
-4.6425
 20
15.8451
 30
0.0
 10
-4.678
 20
15.8451
 30
0.0
  0
SPLINE
  5
12A
330
1F
100
AcDbEntity
  8
DEFAULT_1
 62
   250
100
AcDbSpline
210
0.0
220
0.0
230
1.0
 70
     8
 71
     3
 72
     8
 73
     4
 74
     0
 42
0.0000000001
 43
0.0000000001
 40
0.0
 40
0.0
 40
0.0
 40
0.0
 40
1.0
 40
1.0
 40
1.0
 40
1.0
 10
2.7262
 20
15.8451
 30
0.0
 10
2.6906
 20
15.8451
 30
0.0
 10
2.6608
 20
15.8182
 30
0.0
 10
2.6571
 20
15.7828
 30
0.0
  0
SPLINE
  5
12B
330
1F
100
AcDbEntity
  8
DEFAULT_1
 62
   250
100
AcDbSpline
210
0.0
220
0.0
230
1.0
 70
    24
 71
     3
 72
     8
 73
     4
 74
     0
 42
0.0000000001
 43
0.0000000001
 40
0.0
 40
0.0
 40
0.0
 40
0.0
 40
1.0
 40
1.0
 40
1.0
 40
1.0
 10
-4.2813
 20
9.8143
 30
0.0
 10
-4.2813
 20
9.8143
 30
0.0
 10
2.3225
 20
9.9907
 30
0.0
 10
2.3225
 20
9.9907
 30
0.0
  0
SPLINE
  5
12C
330
1F
100
AcDbEntity
  8
DEFAULT_1
 62
   250
100
AcDbSpline
210
0.0
220
0.0
230
1.0
 70
    24
 71
     3
 72
     8
 73
     4
 74
     0
 42
0.0000000001
 43
0.0000000001
 40
0.0
 40
0.0
 40
0.0
 40
0.0
 40
1.0
 40
1.0
 40
1.0
 40
1.0
 10
-4.3033
 20
10.1233
 30
0.0
 10
-4.3033
 20
10.1233
 30
0.0
 10
2.3005
 20
10.2997
 30
0.0
 10
2.3005
 20
10.2997
 30
0.0
  0
SPLINE
  5
12D
330
1F
100
AcDbEntity
  8
DEFAULT_1
 62
   250
100
AcDbSpline
210
0.0
220
0.0
230
1.0
 70
    24
 71
     3
 72
     8
 73
     4
 74
     0
 42
0.0000000001
 43
0.0000000001
 40
0.0
 40
0.0
 40
0.0
 40
0.0
 40
1.0
 40
1.0
 40
1.0
 40
1.0
 10
-4.2923
 20
10.4758
 30
0.0
 10
-4.2923
 20
10.4758
 30
0.0
 10
2.3115
 20
10.6522
 30
0.0
 10
2.3115
 20
10.6522
 30
0.0
  0
SPLINE
  5
12E
330
1F
100
AcDbEntity
  8
DEFAULT_1
 62
   250
100
AcDbSpline
210
0.0
220
0.0
230
1.0
 70
    11
 71
     3
 72
    20
 73
    16
 74
     0
 42
0.0000000001
 43
0.0000000001
 40
0.0
 40
0.0
 40
0.0
 40
0.0
 40
0.2
 40
0.2
 40
0.2
 40
0.2
 40
0.4
 40
0.4
 40
0.4
 40
0.4
 40
0.6
 40
0.6
 40
0.6
 40
0.6
 40
1.0
 40
1.0
 40
1.0
 40
1.0
 10
-5.7975
 20
19.303
 30
0.0
 10
-5.7975
 20
19.303
 30
0.0
 10
4.2032
 20
19.303
 30
0.0
 10
4.2032
 20
19.303
 30
0.0
 10
4.2032
 20
19.303
 30
0.0
 10
4.2032
 20
19.303
 30
0.0
 10
4.2032
 20
19.0418
 30
0.0
 10
4.2032
 20
19.0418
 30
0.0
 10
4.2032
 20
19.0418
 30
0.0
 10
4.2032
 20
19.0418
 30
0.0
 10
-5.7975
 20
19.0418
 30
0.0
 10
-5.7975
 20
19.0418
 30
0.0
 10
-5.7975
 20
19.0418
 30
0.0
 10
-5.7975
 20
19.0418
 30
0.0
 10
-5.7975
 20
19.303
 30
0.0
 10
-5.7975
 20
19.303
 30
0.0
  0
SPLINE
  5
12F
330
1F
100
AcDbEntity
  8
DEFAULT_1
 62
   250
100
AcDbSpline
210
0.0
220
0.0
230
1.0
 70
     8
 71
     3
 72
    44
 73
    40
 74
     0
 42
0.0000000001
 43
0.0000000001
 40
0.0
 40
0.0
 40
0.0
 40
0.0
 40
0.0909090909090909
 40
0.0909090909090909
 40
0.0909090909090909
 40
0.0909090909090909
 40
0.1818181818181818
 40
0.1818181818181818
 40
0.1818181818181818
 40
0.1818181818181818
 40
0.2727272727272727
 40
0.2727272727272727
 40
0.2727272727272727
 40
0.2727272727272727
 40
0.3636363636363636
 40
0.3636363636363636
 40
0.3636363636363636
 40
0.3636363636363636
 40
0.4545454545454545
 40
0.4545454545454545
 40
0.4545454545454545
 40
0.4545454545454545
 40
0.5454545454545454
 40
0.5454545454545454
 40
0.5454545454545454
 40
0.5454545454545454
 40
0.6363636363636364
 40
0.6363636363636364
 40
0.6363636363636364
 40
0.6363636363636364
 40
0.7272727272727273
 40
0.7272727272727273
 40
0.7272727272727273
 40
0.7272727272727273
 40
0.8181818181818182
 40
0.8181818181818182
 40
0.8181818181818182
 40
0.8181818181818182
 40
1.0
 40
1.0
 40
1.0
 40
1.0
 10
-4.2286
 20
19.2958
 30
0.0
 10
-4.2286
 20
19.2958
 30
0.0
 10
-4.3697
 20
20.3079
 30
0.0
 10
-4.3697
 20
20.3079
 30
0.0
 10
-4.3697
 20
20.3079
 30
0.0
 10
-4.3697
 20
20.3079
 30
0.0
 10
-5.2169
 20
20.482
 30
0.0
 10
-5.2169
 20
20.482
 30
0.0
 10
-5.2169
 20
20.482
 30
0.0
 10
-5.2169
 20
20.482
 30
0.0
 10
-5.8251
 20
20.852
 30
0.0
 10
-5.8251
 20
20.852
 30
0.0
 10
-5.8251
 20
20.852
 30
0.0
 10
-5.8251
 20
20.852
 30
0.0
 10
-5.8376
 20
20.9846
 30
0.0
 10
-5.8376
 20
20.9846
 30
0.0
 10
-5.8376
 20
20.9846
 30
0.0
 10
-5.8376
 20
20.9846
 30
0.0
 10
3.8857
 20
20.9846
 30
0.0
 10
3.8857
 20
20.9846
 30
0.0
 10
3.8857
 20
20.9846
 30
0.0
 10
3.8857
 20
20.9846
 30
0.0
 10
3.8919
 20
20.8553
 30
0.0
 10
3.8919
 20
20.8553
 30
0.0
 10
3.8919
 20
20.8553
 30
0.0
 10
3.8919
 20
20.8553
 30
0.0
 10
3.262
 20
20.4934
 30
0.0
 10
3.262
 20
20.4934
 30
0.0
 10
3.262
 20
20.4934
 30
0.0
 10
3.262
 20
20.4934
 30
0.0
 10
2.3909
 20
20.2924
 30
0.0
 10
2.3909
 20
20.2924
 30
0.0
 10
2.3909
 20
20.2924
 30
0.0
 10
2.3909
 20
20.2924
 30
0.0
 10
2.3782
 20
20.1957
 30
0.0
 10
2.3782
 20
20.1957
 30
0.0
 10
2.3782
 20
20.1957
 30
0.0
 10
2.3782
 20
20.1957
 30
0.0
 10
2.2702
 20
19.3676
 30
0.0
 10
2.2702
 20
19.3676
 30
0.0
  0
SPLINE
  5
130
330
1F
100
AcDbEntity
  8
DEFAULT_1
 62
   250
100
AcDbSpline
210
0.0
220
0.0
230
1.0
 70
    27
 71
     3
 72
    20
 73
    16
 74
     0
 42
0.0000000001
 43
0.0000000001
 40
0.0
 40
0.0
 40
0.0
 40
0.0
 40
0.2
 40
0.2
 40
0.2
 40
0.2
 40
0.4
 40
0.4
 40
0.4
 40
0.4
 40
0.6
 40
0.6
 40
0.6
 40
0.6
 40
1.0
 40
1.0
 40
1.0
 40
1.0
 10
2.3794
 20
20.1957
 30
0.0
 10
2.3794
 20
20.1957
 30
0.0
 10
2.3782
 20
20.1957
 30
0.0
 10
2.3782
 20
20.1957
 30
0.0
 10
2.3782
 20
20.1957
 30
0.0
 10
2.3782
 20
20.1957
 30
0.0
 10
-4.3313
 20
20.1957
 30
0.0
 10
-4.3313
 20
20.1957
 30
0.0
 10
-4.3313
 20
20.1957
 30
0.0
 10
-4.3313
 20
20.1957
 30
0.0
 10
2.3782
 20
20.1957
 30
0.0
 10
2.3782
 20
20.1957
 30
0.0
 10
2.3782
 20
20.1957
 30
0.0
 10
2.3782
 20
20.1957
 30
0.0
 10
2.3794
 20
20.1957
 30
0.0
 10
2.3794
 20
20.1957
 30
0.0
  0
ENDSEC
  0
SECTION
  2
OBJECTS
  0
DICTIONARY
  5
C
330
0
100
AcDbDictionary
  3
ACAD_GROUP
350
D
  3
ACAD_LAYOUT
350
1A
  3
ACAD_MATERIAL
350
3B
  3
ACAD_MLEADERSTYLE
350
153
  3
ACAD_MLINESTYLE
350
17
  3
ACAD_PLOTSETTINGS
350
19
  3
ACAD_VISUALSTYLE
350
2A
  3
ACDBHEADERROUNDTRIPXREC
350
131
  3
ACDBVARIABLEDICTIONARY
350
151
  0
DICTIONARY
  5
D
102
{ACAD_REACTORS
330
C
102
}
330
C
100
AcDbDictionary
  0
DICTIONARY
  5
1A
102
{ACAD_REACTORS
330
C
102
}
330
C
100
AcDbDictionary
  0
DICTIONARY
  5
3B
102
{ACAD_REACTORS
330
C
102
}
330
C
100
AcDbDictionary
  3
BYBLOCK
350
3D
  3
BYLAYER
350
3C
  3
GLOBAL
350
3E
  0
DICTIONARY
  5
153
102
{ACAD_REACTORS
330
C
102
}
330
C
100
AcDbDictionary
  0
DICTIONARY
  5
17
102
{ACAD_REACTORS
330
C
102
}
330
C
100
AcDbDictionary
  3
STANDARD
350
18
  0
DICTIONARY
  5
19
102
{ACAD_REACTORS
330
C
102
}
330
C
100
AcDbDictionary
  0
DICTIONARY
  5
2A
102
{ACAD_REACTORS
330
C
102
}
330
C
100
AcDbDictionary
  3
2DWIREFRAME
350
2F
  3
3D_HIDDEN
350
31
  3
3DWIREFRAME
350
30
  3
BASIC
350
32
  3
BRIGHTEN
350
36
  3
COLORCHANGE
350
3A
  3
CONCEPTUAL
350
34
  3
DIM
350
35
  3
FACEPATTERN
350
39
  3
FLAT
350
2B
  3
FLATWITHEDGES
350
2C
  3
GOURAUD
350
2D
  3
GOURAUDWITHEDGES
350
2E
  3
LINEPATTERN
350
38
  3
REALISTIC
350
33
  3
THICKEN
350
37
  0
DICTIONARY
  5
131
102
{ACAD_REACTORS
330
C
102
}
330
C
100
AcDbDictionary
  3
CEPSNTYPE
350
13A
  3
DIMSTYLEDATA
350
150
  3
FINGERPRINTGUID
350
13B
  3
HYPERLINKBASE
350
134
  3
INSUNITS
350
139
  3
LAYOUTDICT
350
136
  3
LWETCUNION
350
138
  3
PLOTSETDICT
350
137
  3
PSVPSCALE
350
13D
  3
PUCSBASE
350
140
  3
PUCSORGBACK
350
146
  3
PUCSORGBOTTOM
350
142
  3
PUCSORGFRONT
350
145
  3
PUCSORGLEFT
350
143
  3
PUCSORGRIGHT
350
144
  3
PUCSORGTOP
350
141
  3
PUCSORTHOREF
350
13E
  3
PUCSORTHOVIEW
350
13F
  3
STYLESHEET
350
135
  3
TSTACKALIGN
350
132
  3
TSTACKSIZE
350
133
  3
UCSBASE
350
149
  3
UCSORGBACK
350
14F
  3
UCSORGBOTTOM
350
14B
  3
UCSORGFRONT
350
14E
  3
UCSORGLEFT
350
14C
  3
UCSORGRIGHT
350
14D
  3
UCSORGTOP
350
14A
  3
UCSORTHOREF
350
147
  3
UCSORTHOVIEW
350
148
  3
VERSIONGUID
350
13C
  0
DICTIONARY
  5
151
102
{ACAD_REACTORS
330
C
102
}
330
C
100
AcDbDictionary
  3
DIMASSOC
350
154
  3
HIDETEXT
350
155
  0
MATERIAL
  5
3D
102
{ACAD_REACTORS
330
3B
102
}
102
{ACAD_XDICTIONARY
360
158
102
}
330
3B
100
AcDbMaterial
  1
ByBlock
  0
MATERIAL
  5
3C
102
{ACAD_REACTORS
330
3B
102
}
102
{ACAD_XDICTIONARY
360
156
102
}
330
3B
100
AcDbMaterial
  1
ByLayer
  0
MATERIAL
  5
3E
102
{ACAD_REACTORS
330
3B
102
}
102
{ACAD_XDICTIONARY
360
15A
102
}
330
3B
100
AcDbMaterial
  1
Global
  0
MLINESTYLE
  5
18
102
{ACAD_REACTORS
330
17
102
}
330
17
100
AcDbMlineStyle
  2
Standard
 70
     0
  3

 62
   256
 51
90.0
 52
90.0
 71
     2
 49
0.5
 62
   256
  6
BYLAYER
 49
-0.5
 62
   256
  6
BYLAYER
  0
ACAD_PROXY_OBJECT
  5
2F
102
{ACAD_REACTORS
330
2A
102
}
330
2A
100
AcDbProxyObject
 90
      499
 91
      501
 93
      436
310
42CC9915DA5C99599C985B595049028333333333333E3BF0000000000000FB0107901411070040501600405405064090741402480A0340
1001
ACAD
1000
AcDbSavedByObjectVersion
1070
     0
  0
ACAD_PROXY_OBJECT
  5
31
102
{ACAD_REACTORS
330
2A
102
}
330
2A
100
AcDbProxyObject
 90
      499
 91
      501
 93
      500
310
424CD108121A5919195B90640502408333333333333E3BF0000000000000FB01079024090700405020000000000001110200405405064090740C02480A0340
1001
ACAD
1000
AcDbSavedByObjectVersion
1070
     0
  0
ACAD_PROXY_OBJECT
  5
30
102
{ACAD_REACTORS
330
2A
102
}
330
2A
100
AcDbProxyObject
 90
      499
 91
      501
 93
      436
310
42CCD915DA5C99599C985B595059028333333333333E3BF0000000000000FB0107901411070040501600405405064090741402480A0340
1001
ACAD
1000
AcDbSavedByObjectVersion
1070
     0
  0
ACAD_PROXY_OBJECT
  5
32
102
{ACAD_REACTORS
330
2A
102
}
330
2A
100
AcDbProxyObject
 90
      499
 91
      501
 93
      388
310
4150985CDA58D07406404333333333333E3BF0000000000000FB0107A41107004050150841D405064090741402480A0350
1001
ACAD
1000
AcDbSavedByObjectVersion
1070
     0
  0
ACAD_PROXY_OBJECT
  5
36
102
{ACAD_REACTORS
330
2A
102
}
330
2A
100
AcDbProxyObject
 90
      499
 91
      501
 93
      428
310
42109C9A59DA1D195B90C409028333333333333E3BF0000000000000FB010790141107004050150841D405064090741402480A029950
1001
ACAD
1000
AcDbSavedByObjectVersion
1070
     0
  0
ACAD_PROXY_OBJECT
  5
3A
102
{ACAD_REACTORS
330
2A
102
}
330
2A
100
AcDbProxyObject
 90
      499
 91
      501
 93
      452
310
42D0DBDB1BDC90DA185B99D95104090240C333333333333E3BF0000000000000FB0108901411070040501508421405064090741402480A0350
1001
ACAD
1000
AcDbSavedByObjectVersion
1070
     0
  0
ACAD_PROXY_OBJECT
  5
34
102
{ACAD_REACTORS
330
2A
102
}
330
2A
100
AcDbProxyObject
 90
      499
 91
      501
 93
      500
310
4290DBDB98D95C1D1D585B10940D028333333333333E3BF0000000000000FB0107902409070040501000000000000111010841D405064090740C02480A0340
1001
ACAD
1000
AcDbSavedByObjectVersion
1070
     0
  0
ACAD_PROXY_OBJECT
  5
35
102
{ACAD_REACTORS
330
2A
102
}
330
2A
100
AcDbProxyObject
 90
      499
 91
      501
 93
      412
310
40D11A5B50B409028333333333333E3BF0000000000000FB010790141107004050150841D405064090741402480A02677FFFFFD0
1001
ACAD
1000
AcDbSavedByObjectVersion
1070
     0
  0
ACAD_PROXY_OBJECT
  5
39
102
{ACAD_REACTORS
330
2A
102
}
330
2A
100
AcDbProxyObject
 90
      499
 91
      501
 93
      444
310
42D19858D95C185D1D195C9B90F409028333333333333E3BF0000000000000FB010790141107004050150841D405064090741402480A0350
1001
ACAD
1000
AcDbSavedByObjectVersion
1070
     0
  0
ACAD_PROXY_OBJECT
  5
2B
102
{ACAD_REACTORS
330
2A
102
}
330
2A
100
AcDbProxyObject
 90
      499
 91
      501
 93
      388
310
41119B185D240901404333333333333E3BF0000000000000F9010740A41107004050150841D405064090741402480A1B50
1001
ACAD
1000
AcDbSavedByObjectVersion
1070
     0
  0
ACAD_PROXY_OBJECT
  5
2C
102
{ACAD_REACTORS
330
2A
102
}
330
2A
100
AcDbProxyObject
 90
      499
 91
      501
 93
      476
310
43519B185D15DA5D1A115919D95CD0140901404333333333333E3BF0000000000000F9010740901411070040501600405405064090741402480A1B50
1001
ACAD
1000
AcDbSavedByObjectVersion
1070
     0
  0
ACAD_PROXY_OBJECT
  5
2D
102
{ACAD_REACTORS
330
2A
102
}
330
2A
100
AcDbProxyObject
 90
      499
 91
      501
 93
      412
310
41D1DBDD5C985D5910240902404333333333333E3BF0000000000000F9010740A411070040501641D405064090741402480A1B50
1001
ACAD
1000
AcDbSavedByObjectVersion
1070
     0
  0
ACAD_PROXY_OBJECT
  5
2E
102
{ACAD_REACTORS
330
2A
102
}
330
2A
100
AcDbProxyObject
 90
      499
 91
      501
 93
      500
310
4411DBDD5C985D5915DA5D1A115919D95CD0340902404333333333333E3BF0000000000000F9010740901411070040501600405405064090741402480A1B50
1001
ACAD
1000
AcDbSavedByObjectVersion
1070
     0
  0
ACAD_PROXY_OBJECT
  5
38
102
{ACAD_REACTORS
330
2A
102
}
330
2A
100
AcDbProxyObject
 90
      499
 91
      501
 93
      444
310
42D31A5B995C185D1D195C9B90E409028333333333333E3BF0000000000000FB010790141107004050750841D405064090741402483A0350
1001
ACAD
1000
AcDbSavedByObjectVersion
1070
     0
  0
ACAD_PROXY_OBJECT
  5
33
102
{ACAD_REACTORS
330
2A
102
}
330
2A
100
AcDbProxyObject
 90
      499
 91
      501
 93
      420
310
425499585B1A5CDD1A58D08409028333333333333E3BF0000000000000FB01079019070040501508421405064090741402480A1B40
1001
ACAD
1000
AcDbSavedByObjectVersion
1070
     0
  0
ACAD_PROXY_OBJECT
  5
37
102
{ACAD_REACTORS
330
2A
102
}
330
2A
100
AcDbProxyObject
 90
      499
 91
      501
 93
      412
310
41D51A1A58DAD95B90D409028333333333333E3BF0000000000000FB010790141107004050150C41D405064090741402480A0350
1001
ACAD
1000
AcDbSavedByObjectVersion
1070
     0
  0
XRECORD
  5
13A
102
{ACAD_REACTORS
330
131
102
}
330
131
100
AcDbXrecord
 90
        0
  0
XRECORD
  5
150
102
{ACAD_REACTORS
330
131
102
}
330
131
100
AcDbXrecord
1000
DSTYLE
1002
{
1070
   340
340
11
1002
}
  0
XRECORD
  5
13B
102
{ACAD_REACTORS
330
131
102
}
330
131
100
AcDbXrecord
  1
{BE450CA9-5487-4456-A169-3072E89B205C}
  0
XRECORD
  5
134
102
{ACAD_REACTORS
330
131
102
}
330
131
100
AcDbXrecord
  1

  0
XRECORD
  5
139
102
{ACAD_REACTORS
330
131
102
}
330
131
100
AcDbXrecord
 90
        4
  0
XRECORD
  5
136
102
{ACAD_REACTORS
330
131
102
}
330
131
100
AcDbXrecord
340
1A
  0
XRECORD
  5
138
102
{ACAD_REACTORS
330
131
102
}
330
131
100
AcDbXrecord
 90
    10781
  0
XRECORD
  5
137
102
{ACAD_REACTORS
330
131
102
}
330
131
100
AcDbXrecord
340
19
  0
XRECORD
  5
13D
102
{ACAD_REACTORS
330
131
102
}
330
131
100
AcDbXrecord
 40
0.0
  0
XRECORD
  5
140
102
{ACAD_REACTORS
330
131
102
}
330
131
100
AcDbXrecord
340
0
  0
XRECORD
  5
146
102
{ACAD_REACTORS
330
131
102
}
330
131
100
AcDbXrecord
 10
0.0
 20
0.0
 30
0.0
  0
XRECORD
  5
142
102
{ACAD_REACTORS
330
131
102
}
330
131
100
AcDbXrecord
 10
0.0
 20
0.0
 30
0.0
  0
XRECORD
  5
145
102
{ACAD_REACTORS
330
131
102
}
330
131
100
AcDbXrecord
 10
0.0
 20
0.0
 30
0.0
  0
XRECORD
  5
143
102
{ACAD_REACTORS
330
131
102
}
330
131
100
AcDbXrecord
 10
0.0
 20
0.0
 30
0.0
  0
XRECORD
  5
144
102
{ACAD_REACTORS
330
131
102
}
330
131
100
AcDbXrecord
 10
0.0
 20
0.0
 30
0.0
  0
XRECORD
  5
141
102
{ACAD_REACTORS
330
131
102
}
330
131
100
AcDbXrecord
 10
0.0
 20
0.0
 30
0.0
  0
XRECORD
  5
13E
102
{ACAD_REACTORS
330
131
102
}
330
131
100
AcDbXrecord
340
0
  0
XRECORD
  5
13F
102
{ACAD_REACTORS
330
131
102
}
330
131
100
AcDbXrecord
 70
     0
  0
XRECORD
  5
135
102
{ACAD_REACTORS
330
131
102
}
330
131
100
AcDbXrecord
  1

  0
XRECORD
  5
132
102
{ACAD_REACTORS
330
131
102
}
330
131
100
AcDbXrecord
 90
        1
  0
XRECORD
  5
133
102
{ACAD_REACTORS
330
131
102
}
330
131
100
AcDbXrecord
 90
       70
  0
XRECORD
  5
149
102
{ACAD_REACTORS
330
131
102
}
330
131
100
AcDbXrecord
340
0
  0
XRECORD
  5
14F
102
{ACAD_REACTORS
330
131
102
}
330
131
100
AcDbXrecord
 10
0.0
 20
0.0
 30
0.0
  0
XRECORD
  5
14B
102
{ACAD_REACTORS
330
131
102
}
330
131
100
AcDbXrecord
 10
0.0
 20
0.0
 30
0.0
  0
XRECORD
  5
14E
102
{ACAD_REACTORS
330
131
102
}
330
131
100
AcDbXrecord
 10
0.0
 20
0.0
 30
0.0
  0
XRECORD
  5
14C
102
{ACAD_REACTORS
330
131
102
}
330
131
100
AcDbXrecord
 10
0.0
 20
0.0
 30
0.0
  0
XRECORD
  5
14D
102
{ACAD_REACTORS
330
131
102
}
330
131
100
AcDbXrecord
 10
0.0
 20
0.0
 30
0.0
  0
XRECORD
  5
14A
102
{ACAD_REACTORS
330
131
102
}
330
131
100
AcDbXrecord
 10
0.0
 20
0.0
 30
0.0
  0
XRECORD
  5
147
102
{ACAD_REACTORS
330
131
102
}
330
131
100
AcDbXrecord
340
0
  0
XRECORD
  5
148
102
{ACAD_REACTORS
330
131
102
}
330
131
100
AcDbXrecord
 70
     0
  0
XRECORD
  5
13C
102
{ACAD_REACTORS
330
131
102
}
330
131
100
AcDbXrecord
  1
{FAEB1C32-E019-11D5-929B-00C0DF256EC4}
  0
DICTIONARYVAR
  5
154
102
{ACAD_REACTORS
330
151
102
}
330
151
100
DictionaryVariables
280
     0
  1
2
  0
DICTIONARYVAR
  5
155
102
{ACAD_REACTORS
330
151
102
}
330
151
100
DictionaryVariables
280
     0
  1
1
  0
DICTIONARY
  5
158
330
3D
100
AcDbDictionary
280
     1
  3
ACAD_XREC_ROUNDTRIP
360
159
  0
DICTIONARY
  5
156
330
3C
100
AcDbDictionary
280
     1
  3
ACAD_XREC_ROUNDTRIP
360
157
  0
DICTIONARY
  5
15A
330
3E
100
AcDbDictionary
280
     1
  3
ACAD_XREC_ROUNDTRIP
360
15B
  0
XRECORD
  5
159
102
{ACAD_REACTORS
330
158
102
}
330
158
100
AcDbXrecord
102
MATERIAL
148
0.0
149
0.0
149
0.0
 93
        0
 94
      127
282
     0
 72
     1
 77
     1
171
     1
175
     1
179
     1
273
     0
  0
XRECORD
  5
157
102
{ACAD_REACTORS
330
156
102
}
330
156
100
AcDbXrecord
102
MATERIAL
148
0.0
149
0.0
149
0.0
 93
        0
 94
      127
282
     0
 72
     1
 77
     1
171
     1
175
     1
179
     1
273
     0
  0
XRECORD
  5
15B
102
{ACAD_REACTORS
330
15A
102
}
330
15A
100
AcDbXrecord
102
MATERIAL
148
0.0
149
0.0
149
0.0
 93
        0
 94
      127
282
     0
 72
     1
 77
     1
171
     1
175
     1
179
     1
273
     0
  0
ENDSEC
  0
EOF
