  0
SECTION
  2
HEADER
  9
$ACADVER
  1
AC1014
  9
$ACADMAINTVER
 70
     9
  9
$DWGCODEPAGE
  3
ANSI_1250
  9
$INSBASE
 10
0.0
 20
0.0
 30
0.0
  9
$EXTMIN
 10
-15.7969
 20
-24.7294
 30
0.0
  9
$EXTMAX
 10
15.938
 20
27.2694
 30
0.0
  9
$LIMMIN
 10
0.0
 20
0.0
  9
$LIMMAX
 10
12.0
 20
9.0
  9
$ORTHOMODE
 70
     0
  9
$REGENMODE
 70
     1
  9
$FILLMODE
 70
     1
  9
$QTEXTMODE
 70
     0
  9
$MIRRTEXT
 70
     1
  9
$DRAGMODE
 70
     2
  9
$LTSCALE
 40
1.0
  9
$OSMODE
 70
    37
  9
$ATTMODE
 70
     1
  9
$TEXTSIZE
 40
0.2
  9
$TRACEWID
 40
0.05
  9
$TEXTSTYLE
  7
STANDARD
  9
$CLAYER
  8
0
  9
$CELTYPE
  6
BYLAYER
  9
$CECOLOR
 62
   256
  9
$CELTSCALE
 40
1.0
  9
$DELOBJ
 70
     1
  9
$DISPSILH
 70
     0
  9
$DIMSCALE
 40
1.0
  9
$DIMASZ
 40
0.18
  9
$DIMEXO
 40
0.0625
  9
$DIMDLI
 40
0.38
  9
$DIMRND
 40
0.0
  9
$DIMDLE
 40
0.0
  9
$DIMEXE
 40
0.18
  9
$DIMTP
 40
0.0
  9
$DIMTM
 40
0.0
  9
$DIMTXT
 40
0.18
  9
$DIMCEN
 40
0.09
  9
$DIMTSZ
 40
0.0
  9
$DIMTOL
 70
     0
  9
$DIMLIM
 70
     0
  9
$DIMTIH
 70
     1
  9
$DIMTOH
 70
     1
  9
$DIMSE1
 70
     0
  9
$DIMSE2
 70
     0
  9
$DIMTAD
 70
     0
  9
$DIMZIN
 70
     0
  9
$DIMBLK
  1

  9
$DIMASO
 70
     1
  9
$DIMSHO
 70
     1
  9
$DIMPOST
  1

  9
$DIMAPOST
  1

  9
$DIMALT
 70
     0
  9
$DIMALTD
 70
     2
  9
$DIMALTF
 40
25.4
  9
$DIMLFAC
 40
1.0
  9
$DIMTOFL
 70
     0
  9
$DIMTVP
 40
0.0
  9
$DIMTIX
 70
     0
  9
$DIMSOXD
 70
     0
  9
$DIMSAH
 70
     0
  9
$DIMBLK1
  1

  9
$DIMBLK2
  1

  9
$DIMSTYLE
  2
STANDARD
  9
$DIMCLRD
 70
     0
  9
$DIMCLRE
 70
     0
  9
$DIMCLRT
 70
     0
  9
$DIMTFAC
 40
1.0
  9
$DIMGAP
 40
0.09
  9
$DIMJUST
 70
     0
  9
$DIMSD1
 70
     0
  9
$DIMSD2
 70
     0
  9
$DIMTOLJ
 70
     1
  9
$DIMTZIN
 70
     0
  9
$DIMALTZ
 70
     0
  9
$DIMALTTZ
 70
     0
  9
$DIMFIT
 70
     3
  9
$DIMUPT
 70
     0
  9
$DIMUNIT
 70
     2
  9
$DIMDEC
 70
     4
  9
$DIMTDEC
 70
     4
  9
$DIMALTU
 70
     2
  9
$DIMALTTD
 70
     2
  9
$DIMTXSTY
  7
STANDARD
  9
$DIMAUNIT
 70
     0
  9
$LUNITS
 70
     2
  9
$LUPREC
 70
     4
  9
$SKETCHINC
 40
0.1
  9
$FILLETRAD
 40
0.5
  9
$AUNITS
 70
     0
  9
$AUPREC
 70
     0
  9
$MENU
  1
.
  9
$ELEVATION
 40
0.0
  9
$PELEVATION
 40
0.0
  9
$THICKNESS
 40
0.0
  9
$LIMCHECK
 70
     0
  9
$CHAMFERA
 40
0.5
  9
$CHAMFERB
 40
0.5
  9
$CHAMFERC
 40
1.0
  9
$CHAMFERD
 40
0.0
  9
$SKPOLY
 70
     0
  9
$TDCREATE
 40
2456247.44230669
  9
$TDUPDATE
 40
2456247.442306702
  9
$TDINDWG
 40
0.0000000116
  9
$TDUSRTIMER
 40
0.0000000116
  9
$USRTIMER
 70
     1
  9
$ANGBASE
 50
0.0
  9
$ANGDIR
 70
     0
  9
$PDMODE
 70
     0
  9
$PDSIZE
 40
0.0
  9
$PLINEWID
 40
0.0
  9
$COORDS
 70
     1
  9
$SPLFRAME
 70
     0
  9
$SPLINETYPE
 70
     6
  9
$SPLINESEGS
 70
     8
  9
$ATTDIA
 70
     0
  9
$ATTREQ
 70
     1
  9
$HANDLING
 70
     1
  9
$HANDSEED
  5
E4
  9
$SURFTAB1
 70
     6
  9
$SURFTAB2
 70
     6
  9
$SURFTYPE
 70
     6
  9
$SURFU
 70
     6
  9
$SURFV
 70
     6
  9
$UCSNAME
  2

  9
$UCSORG
 10
0.0
 20
0.0
 30
0.0
  9
$UCSXDIR
 10
1.0
 20
0.0
 30
0.0
  9
$UCSYDIR
 10
0.0
 20
1.0
 30
0.0
  9
$PUCSNAME
  2

  9
$PUCSORG
 10
0.0
 20
0.0
 30
0.0
  9
$PUCSXDIR
 10
1.0
 20
0.0
 30
0.0
  9
$PUCSYDIR
 10
0.0
 20
1.0
 30
0.0
  9
$USERI1
 70
     0
  9
$USERI2
 70
     0
  9
$USERI3
 70
     0
  9
$USERI4
 70
     0
  9
$USERI5
 70
     0
  9
$USERR1
 40
0.0
  9
$USERR2
 40
0.0
  9
$USERR3
 40
0.0
  9
$USERR4
 40
0.0
  9
$USERR5
 40
0.0
  9
$WORLDVIEW
 70
     1
  9
$SHADEDGE
 70
     3
  9
$SHADEDIF
 70
    70
  9
$TILEMODE
 70
     1
  9
$MAXACTVP
 70
    64
  9
$PINSBASE
 10
0.0
 20
0.0
 30
0.0
  9
$PLIMCHECK
 70
     0
  9
$PEXTMIN
 10
1.000000000000000E+20
 20
1.000000000000000E+20
 30
1.000000000000000E+20
  9
$PEXTMAX
 10
-1.000000000000000E+20
 20
-1.000000000000000E+20
 30
-1.000000000000000E+20
  9
$PLIMMIN
 10
0.0
 20
0.0
  9
$PLIMMAX
 10
12.0
 20
9.0
  9
$UNITMODE
 70
     0
  9
$VISRETAIN
 70
     1
  9
$PLINEGEN
 70
     0
  9
$PSLTSCALE
 70
     1
  9
$TREEDEPTH
 70
  3020
  9
$PICKSTYLE
 70
     1
  9
$CMLSTYLE
  2
STANDARD
  9
$CMLJUST
 70
     0
  9
$CMLSCALE
 40
1.0
  9
$PROXYGRAPHICS
 70
     1
  9
$MEASUREMENT
 70
     0
  0
ENDSEC
  0
SECTION
  2
CLASSES
  0
CLASS
  1
ACDBDICTIONARYWDFLT
  2
AcDbDictionaryWithDefault
  3
ObjectDBX Classes
 90
        0
280
     0
281
     0
  0
CLASS
  1
VISUALSTYLE
  2
AcDbVisualStyle
  3
ObjectDBX Classes
 90
     4095
280
     0
281
     0
  0
CLASS
  1
MATERIAL
  2
AcDbMaterial
  3
ObjectDBX Classes
 90
     1153
280
     0
281
     0
  0
CLASS
  1
DICTIONARYVAR
  2
AcDbDictionaryVar
  3
ObjectDBX Classes
 90
        0
280
     0
281
     0
  0
CLASS
  1
XRECORD
  2
AcDbXrecord
  3
AutoCAD 2000
 90
        0
280
     0
281
     0
  0
CLASS
  1
LWPOLYLINE
  2
AcDbPolyline
  3
AutoCAD 2000
 90
        0
280
     0
281
     1
  0
CLASS
  1
HATCH
  2
AcDbHatch
  3
AutoCAD 2000
 90
        0
280
     0
281
     1
  0
CLASS
  1
ACDBPLACEHOLDER
  2
AcDbPlaceHolder
  3
ObjectDBX Classes
 90
        0
280
     0
281
     0
  0
CLASS
  1
LAYOUT
  2
AcDbLayout
  3
ObjectDBX Classes
 90
        0
280
     0
281
     0
  0
ENDSEC
  0
SECTION
  2
TABLES
  0
TABLE
  2
VPORT
  5
8
330
0
100
AcDbSymbolTable
 70
     1
  0
VPORT
  5
29
330
8
100
AcDbSymbolTableRecord
100
AcDbViewportTableRecord
  2
*ACTIVE
 70
     0
 10
0.0
 20
0.0
 11
1.0
 21
1.0
 12
10.42990654205607
 22
4.5
 13
0.0
 23
0.0
 14
0.5
 24
0.5
 15
0.5
 25
0.5
 16
0.0
 26
0.0
 36
1.0
 17
0.0
 27
0.0
 37
0.0
 40
9.0
 41
1.972972972850329
 42
50.0
 43
0.0
 44
0.0
 50
0.0
 51
0.0
 71
     0
 72
   100
 73
     1
 74
     3
 75
     0
 76
     0
 77
     0
 78
     0
  0
ENDTAB
  0
TABLE
  2
LTYPE
  5
5
330
0
100
AcDbSymbolTable
 70
     2
  0
LTYPE
  5
14
330
5
100
AcDbSymbolTableRecord
100
AcDbLinetypeTableRecord
  2
BYBLOCK
 70
     0
  3

 72
    65
 73
     0
 40
0.0
  0
LTYPE
  5
15
330
5
100
AcDbSymbolTableRecord
100
AcDbLinetypeTableRecord
  2
BYLAYER
 70
     0
  3

 72
    65
 73
     0
 40
0.0
  0
LTYPE
  5
16
330
5
100
AcDbSymbolTableRecord
100
AcDbLinetypeTableRecord
  2
CONTINUOUS
 70
     0
  3
Solid line
 72
    65
 73
     0
 40
0.0
  0
LTYPE
  5
42
330
5
100
AcDbSymbolTableRecord
100
AcDbLinetypeTableRecord
  2
NEW_LINE1
 70
     0
  3

 72
    65
 73
     4
 40
1.2
 49
0.5
 74
     4
 75
     0
340
0
 46
1.0
 50
0.0
 44
0.0
 45
0.0
 49
-0.3
 74
     4
 75
     0
340
0
 46
1.0
 50
0.0
 44
0.0
 45
0.0
 49
0.1
 74
     4
 75
     0
340
0
 46
1.0
 50
0.0
 44
0.0
 45
0.0
 49
-0.3
 74
     4
 75
     0
340
0
 46
1.0
 50
0.0
 44
0.0
 45
0.0
  0
ENDTAB
  0
TABLE
  2
LAYER
  5
2
330
0
100
AcDbSymbolTable
 70
     2
  0
LAYER
  5
10
330
2
100
AcDbSymbolTableRecord
100
AcDbLayerTableRecord
  2
0
 70
     0
 62
     7
  6
CONTINUOUS
  0
LAYER
  5
40
330
2
100
AcDbSymbolTableRecord
100
AcDbLayerTableRecord
  2
VRSTVA_1
 70
     0
 62
     7
  6
CONTINUOUS
  0
ENDTAB
  0
TABLE
  2
STYLE
  5
3
330
0
100
AcDbSymbolTable
 70
     1
  0
STYLE
  5
11
330
3
100
AcDbSymbolTableRecord
100
AcDbTextStyleTableRecord
  2
STANDARD
 70
     0
 40
0.0
 41
1.0
 50
0.0
 71
     0
 42
0.2
  3
txt
  4

  0
ENDTAB
  0
TABLE
  2
VIEW
  5
6
330
0
100
AcDbSymbolTable
 70
     0
  0
ENDTAB
  0
TABLE
  2
UCS
  5
7
330
0
100
AcDbSymbolTable
 70
     0
  0
ENDTAB
  0
TABLE
  2
APPID
  5
9
330
0
100
AcDbSymbolTable
 70
     2
  0
APPID
  5
12
330
9
100
AcDbSymbolTableRecord
100
AcDbRegAppTableRecord
  2
ACAD
 70
     0
  0
APPID
  5
3F
330
9
100
AcDbSymbolTableRecord
100
AcDbRegAppTableRecord
  2
ODA
 70
     0
  0
ENDTAB
  0
TABLE
  2
DIMSTYLE
  5
A
330
0
100
AcDbSymbolTable
 70
     1
  0
DIMSTYLE
105
27
330
A
100
AcDbSymbolTableRecord
100
AcDbDimStyleTableRecord
  2
STANDARD
 70
     0
  3

  4

  5

  6

  7

 40
1.0
 41
0.18
 42
0.0625
 43
0.38
 44
0.18
 45
0.0
 46
0.0
 47
0.0
 48
0.0
140
0.18
141
0.09
142
0.0
143
25.4
144
1.0
145
0.0
146
1.0
147
0.09
 71
     0
 72
     0
 73
     1
 74
     1
 75
     0
 76
     0
 77
     0
 78
     0
170
     0
171
     2
172
     0
173
     0
174
     0
175
     0
176
     0
177
     0
178
     0
270
     2
271
     4
272
     4
273
     2
274
     2
340
11
275
     0
280
     0
281
     0
282
     0
283
     1
284
     0
285
     0
286
     0
287
     3
288
     0
  0
ENDTAB
  0
TABLE
  2
BLOCK_RECORD
  5
1
330
0
100
AcDbSymbolTable
 70
     1
  0
BLOCK_RECORD
  5
1F
330
1
100
AcDbSymbolTableRecord
100
AcDbBlockTableRecord
  2
*MODEL_SPACE
  0
BLOCK_RECORD
  5
1B
330
1
100
AcDbSymbolTableRecord
100
AcDbBlockTableRecord
  2
*PAPER_SPACE
  0
ENDTAB
  0
ENDSEC
  0
SECTION
  2
BLOCKS
  0
BLOCK
  5
20
330
1F
100
AcDbEntity
  8
0
100
AcDbBlockBegin
  2
*MODEL_SPACE
 70
     0
 10
0.0
 20
0.0
 30
0.0
  3
*MODEL_SPACE
  1

  0
ENDBLK
  5
21
330
1F
100
AcDbEntity
  8
0
100
AcDbBlockEnd
  0
BLOCK
  5
1C
330
1B
100
AcDbEntity
 67
     1
  8
0
100
AcDbBlockBegin
  2
*PAPER_SPACE
 70
     0
 10
0.0
 20
0.0
 30
0.0
  3
*PAPER_SPACE
  1

  0
ENDBLK
  5
1D
330
1B
100
AcDbEntity
 67
     1
  8
0
100
AcDbBlockEnd
  0
ENDSEC
  0
SECTION
  2
ENTITIES
  0
SPLINE
  5
41
330
1F
100
AcDbEntity
  8
VRSTVA_1
  6
NEW_LINE1
100
AcDbSpline
210
0.0
220
0.0
230
1.0
 70
    24
 71
     3
 72
     8
 73
     4
 74
     0
 42
0.0000000001
 43
0.0000000001
 40
0.0
 40
0.0
 40
0.0
 40
0.0
 40
1.0
 40
1.0
 40
1.0
 40
1.0
 10
3.7266
 20
20.8476
 30
0.0
 10
3.7266
 20
20.8476
 30
0.0
 10
3.7266
 20
-18.2957
 30
0.0
 10
3.7266
 20
-18.2957
 30
0.0
  0
SPLINE
  5
43
330
1F
100
AcDbEntity
  8
VRSTVA_1
100
AcDbSpline
210
0.0
220
0.0
230
1.0
 70
    24
 71
     3
 72
     8
 73
     4
 74
     0
 42
0.0000000001
 43
0.0000000001
 40
0.0
 40
0.0
 40
0.0
 40
0.0
 40
1.0
 40
1.0
 40
1.0
 40
1.0
 10
-7.8568
 20
5.6497
 30
0.0
 10
-7.8568
 20
5.6497
 30
0.0
 10
-7.8568
 20
25.6562
 30
0.0
 10
-7.8568
 20
25.6562
 30
0.0
  0
SPLINE
  5
44
330
1F
100
AcDbEntity
  8
VRSTVA_1
100
AcDbSpline
210
0.0
220
0.0
230
1.0
 70
    24
 71
     3
 72
     8
 73
     4
 74
     0
 42
0.0000000001
 43
0.0000000001
 40
0.0
 40
0.0
 40
0.0
 40
0.0
 40
1.0
 40
1.0
 40
1.0
 40
1.0
 10
15.3285
 20
5.6497
 30
0.0
 10
15.3285
 20
5.6497
 30
0.0
 10
15.3285
 20
25.3255
 30
0.0
 10
15.3285
 20
25.3255
 30
0.0
  0
SPLINE
  5
45
330
1F
100
AcDbEntity
  8
VRSTVA_1
100
AcDbSpline
210
0.0
220
0.0
230
1.0
 70
    24
 71
     3
 72
     8
 73
     4
 74
     0
 42
0.0000000001
 43
0.0000000001
 40
0.0
 40
0.0
 40
0.0
 40
0.0
 40
1.0
 40
1.0
 40
1.0
 40
1.0
 10
-8.9677
 20
-3.1066
 30
0.0
 10
-8.9677
 20
-3.1066
 30
0.0
 10
-13.2673
 20
-3.1066
 30
0.0
 10
-13.2673
 20
-3.1066
 30
0.0
  0
SPLINE
  5
46
330
1F
100
AcDbEntity
  8
VRSTVA_1
100
AcDbSpline
210
0.0
220
0.0
230
1.0
 70
    24
 71
     3
 72
     8
 73
     4
 74
     0
 42
0.0000000001
 43
0.0000000001
 40
0.0
 40
0.0
 40
0.0
 40
0.0
 40
1.0
 40
1.0
 40
1.0
 40
1.0
 10
-4.5181
 20
-10.4318
 30
0.0
 10
-4.5181
 20
-10.4318
 30
0.0
 10
-13.3996
 20
-10.4318
 30
0.0
 10
-13.3996
 20
-10.4318
 30
0.0
  0
SPLINE
  5
47
330
1F
100
AcDbEntity
  8
VRSTVA_1
100
AcDbSpline
210
0.0
220
0.0
230
1.0
 70
    24
 71
     3
 72
     8
 73
     4
 74
     0
 42
0.0000000001
 43
0.0000000001
 40
0.0
 40
0.0
 40
0.0
 40
0.0
 40
1.0
 40
1.0
 40
1.0
 40
1.0
 10
-12.8579
 20
8.8136
 30
0.0
 10
-12.8579
 20
8.8136
 30
0.0
 10
-12.8579
 20
-10.0825
 30
0.0
 10
-12.8579
 20
-10.0825
 30
0.0
  0
SPLINE
  5
48
330
1F
100
AcDbEntity
  8
VRSTVA_1
100
AcDbSpline
210
0.0
220
0.0
230
1.0
 70
    24
 71
     3
 72
     8
 73
     4
 74
     0
 42
0.0000000001
 43
0.0000000001
 40
0.0
 40
0.0
 40
0.0
 40
0.0
 40
1.0
 40
1.0
 40
1.0
 40
1.0
 10
-4.1066
 20
-10.9265
 30
0.0
 10
-4.1066
 20
-10.9265
 30
0.0
 10
-4.1066
 20
-24.7294
 30
0.0
 10
-4.1066
 20
-24.7294
 30
0.0
  0
SPLINE
  5
49
330
1F
100
AcDbEntity
  8
VRSTVA_1
100
AcDbSpline
210
0.0
220
0.0
230
1.0
 70
    24
 71
     3
 72
     8
 73
     4
 74
     0
 42
0.0000000001
 43
0.0000000001
 40
0.0
 40
0.0
 40
0.0
 40
0.0
 40
1.0
 40
1.0
 40
1.0
 40
1.0
 10
11.1337
 20
-10.9265
 30
0.0
 10
11.1337
 20
-10.9265
 30
0.0
 10
11.207
 20
-24.5249
 30
0.0
 10
11.207
 20
-24.5249
 30
0.0
  0
SPLINE
  5
4A
330
1F
100
AcDbEntity
  8
VRSTVA_1
 62
   250
100
AcDbSpline
210
0.0
220
0.0
230
1.0
 70
    24
 71
     3
 72
     8
 73
     4
 74
     0
 42
0.0000000001
 43
0.0000000001
 40
0.0
 40
0.0
 40
0.0
 40
0.0
 40
1.0
 40
1.0
 40
1.0
 40
1.0
 10
-2.8796
 20
-23.8517
 30
0.0
 10
-2.8796
 20
-23.8517
 30
0.0
 10
9.9799
 20
-23.8517
 30
0.0
 10
9.9799
 20
-23.8517
 30
0.0
  0
SPLINE
  5
4B
330
1F
100
AcDbEntity
  8
VRSTVA_1
 62
   250
100
AcDbSpline
210
0.0
220
0.0
230
1.0
 70
    11
 71
     3
 72
    20
 73
    16
 74
     0
 42
0.0000000001
 43
0.0000000001
 40
0.0
 40
0.0
 40
0.0
 40
0.0
 40
0.2
 40
0.2
 40
0.2
 40
0.2
 40
0.4
 40
0.4
 40
0.4
 40
0.4
 40
0.6
 40
0.6
 40
0.6
 40
0.6
 40
1.0
 40
1.0
 40
1.0
 40
1.0
 10
-13.2504
 20
-5.6547
 30
0.0
 10
-13.2504
 20
-5.6547
 30
0.0
 10
-12.8975
 20
-3.1547
 30
0.0
 10
-12.8975
 20
-3.1547
 30
0.0
 10
-12.8975
 20
-3.1547
 30
0.0
 10
-12.8975
 20
-3.1547
 30
0.0
 10
-12.8192
 20
-3.1547
 30
0.0
 10
-12.8192
 20
-3.1547
 30
0.0
 10
-12.8192
 20
-3.1547
 30
0.0
 10
-12.8192
 20
-3.1547
 30
0.0
 10
-12.4429
 20
-5.6547
 30
0.0
 10
-12.4429
 20
-5.6547
 30
0.0
 10
-12.4429
 20
-5.6547
 30
0.0
 10
-12.4429
 20
-5.6547
 30
0.0
 10
-13.2504
 20
-5.6547
 30
0.0
 10
-13.2504
 20
-5.6547
 30
0.0
  0
SPLINE
  5
4C
330
1F
100
AcDbEntity
  8
VRSTVA_1
 62
   250
100
AcDbSpline
210
0.0
220
0.0
230
1.0
 70
    11
 71
     3
 72
   120
 73
   116
 74
     0
 42
0.0000000001
 43
0.0000000001
 40
0.0
 40
0.0
 40
0.0
 40
0.0
 40
0.0333333333333333
 40
0.0333333333333333
 40
0.0333333333333333
 40
0.0333333333333333
 40
0.0666666666666667
 40
0.0666666666666667
 40
0.0666666666666667
 40
0.0666666666666667
 40
0.1
 40
0.1
 40
0.1
 40
0.1
 40
0.1333333333333333
 40
0.1333333333333333
 40
0.1333333333333333
 40
0.1333333333333333
 40
0.1666666666666667
 40
0.1666666666666667
 40
0.1666666666666667
 40
0.1666666666666667
 40
0.2
 40
0.2
 40
0.2
 40
0.2
 40
0.2333333333333333
 40
0.2333333333333333
 40
0.2333333333333333
 40
0.2333333333333333
 40
0.2666666666666667
 40
0.2666666666666667
 40
0.2666666666666667
 40
0.2666666666666667
 40
0.3
 40
0.3
 40
0.3
 40
0.3
 40
0.3333333333333333
 40
0.3333333333333333
 40
0.3333333333333333
 40
0.3333333333333333
 40
0.3666666666666666
 40
0.3666666666666666
 40
0.3666666666666666
 40
0.3666666666666666
 40
0.4
 40
0.4
 40
0.4
 40
0.4
 40
0.4333333333333333
 40
0.4333333333333333
 40
0.4333333333333333
 40
0.4333333333333333
 40
0.4666666666666667
 40
0.4666666666666667
 40
0.4666666666666667
 40
0.4666666666666667
 40
0.5
 40
0.5
 40
0.5
 40
0.5
 40
0.5333333333333333
 40
0.5333333333333333
 40
0.5333333333333333
 40
0.5333333333333333
 40
0.5666666666666667
 40
0.5666666666666667
 40
0.5666666666666667
 40
0.5666666666666667
 40
0.6
 40
0.6
 40
0.6
 40
0.6
 40
0.6333333333333333
 40
0.6333333333333333
 40
0.6333333333333333
 40
0.6333333333333333
 40
0.6666666666666666
 40
0.6666666666666666
 40
0.6666666666666666
 40
0.6666666666666666
 40
0.7
 40
0.7
 40
0.7
 40
0.7
 40
0.7333333333333333
 40
0.7333333333333333
 40
0.7333333333333333
 40
0.7333333333333333
 40
0.7666666666666667
 40
0.7666666666666667
 40
0.7666666666666667
 40
0.7666666666666667
 40
0.8
 40
0.8
 40
0.8
 40
0.8
 40
0.8333333333333334
 40
0.8333333333333334
 40
0.8333333333333334
 40
0.8333333333333334
 40
0.8666666666666667
 40
0.8666666666666667
 40
0.8666666666666667
 40
0.8666666666666667
 40
0.9
 40
0.9
 40
0.9
 40
0.9
 40
0.9333333333333333
 40
0.9333333333333333
 40
0.9333333333333333
 40
0.9333333333333333
 40
1.0
 40
1.0
 40
1.0
 40
1.0
 10
0.8472
 20
-22.441
 30
0.0
 10
0.8472
 20
-22.441
 30
0.0
 10
0.8472
 20
-22.2044
 30
0.0
 10
0.8472
 20
-22.2044
 30
0.0
 10
0.8472
 20
-22.2044
 30
0.0
 10
0.8472
 20
-22.2044
 30
0.0
 10
1.7028
 20
-22.203
 30
0.0
 10
1.7028
 20
-22.203
 30
0.0
 10
1.7028
 20
-22.203
 30
0.0
 10
1.7028
 20
-22.203
 30
0.0
 10
1.7028
 20
-22.9523
 30
0.0
 10
1.7028
 20
-22.9523
 30
0.0
 10
1.7028
 20
-22.9523
 30
0.0
 10
1.5716
 20
-23.0572
 30
0.0
 10
1.4361
 20
-23.1358
 30
0.0
 10
1.2964
 20
-23.1889
 30
0.0
 10
1.2964
 20
-23.1889
 30
0.0
 10
1.1567
 20
-23.2416
 30
0.0
 10
1.0133
 20
-23.2679
 30
0.0
 10
0.8665
 20
-23.2679
 30
0.0
 10
0.8665
 20
-23.2679
 30
0.0
 10
0.668
 20
-23.2679
 30
0.0
 10
0.4874
 20
-23.2256
 30
0.0
 10
0.3256
 20
-23.1405
 30
0.0
 10
0.3256
 20
-23.1405
 30
0.0
 10
0.1633
 20
-23.0558
 30
0.0
 10
0.041
 20
-22.9326
 30
0.0
 10
-0.0418
 20
-22.7722
 30
0.0
 10
-0.0418
 20
-22.7722
 30
0.0
 10
-0.1246
 20
-22.6113
 30
0.0
 10
-0.166
 20
-22.4316
 30
0.0
 10
-0.166
 20
-22.2331
 30
0.0
 10
-0.166
 20
-22.2331
 30
0.0
 10
-0.166
 20
-22.0365
 30
0.0
 10
-0.1246
 20
-21.8531
 30
0.0
 10
-0.0422
 20
-21.6828
 30
0.0
 10
-0.0422
 20
-21.6828
 30
0.0
 10
0.0396
 20
-21.5121
 30
0.0
 10
0.1581
 20
-21.3855
 30
0.0
 10
0.3124
 20
-21.3027
 30
0.0
 10
0.3124
 20
-21.3027
 30
0.0
 10
0.4667
 20
-21.2204
 30
0.0
 10
0.6445
 20
-21.179
 30
0.0
 10
0.8458
 20
-21.179
 30
0.0
 10
0.8458
 20
-21.179
 30
0.0
 10
0.9916
 20
-21.179
 30
0.0
 10
1.1238
 20
-21.2026
 30
0.0
 10
1.2419
 20
-21.2501
 30
0.0
 10
1.2419
 20
-21.2501
 30
0.0
 10
1.3599
 20
-21.2971
 30
0.0
 10
1.4526
 20
-21.363
 30
0.0
 10
1.5194
 20
-21.4476
 30
0.0
 10
1.5194
 20
-21.4476
 30
0.0
 10
1.5866
 20
-21.5323
 30
0.0
 10
1.6374
 20
-21.6423
 30
0.0
 10
1.6727
 20
-21.7783
 30
0.0
 10
1.6727
 20
-21.7783
 30
0.0
 10
1.6727
 20
-21.7783
 30
0.0
 10
1.4314
 20
-21.8446
 30
0.0
 10
1.4314
 20
-21.8446
 30
0.0
 10
1.4314
 20
-21.8446
 30
0.0
 10
1.4008
 20
-21.7416
 30
0.0
 10
1.3632
 20
-21.6607
 30
0.0
 10
1.3185
 20
-21.6019
 30
0.0
 10
1.3185
 20
-21.6019
 30
0.0
 10
1.2734
 20
-21.5431
 30
0.0
 10
1.2089
 20
-21.4961
 30
0.0
 10
1.1252
 20
-21.4608
 30
0.0
 10
1.1252
 20
-21.4608
 30
0.0
 10
1.0419
 20
-21.4255
 30
0.0
 10
0.9488
 20
-21.4076
 30
0.0
 10
0.8472
 20
-21.4076
 30
0.0
 10
0.8472
 20
-21.4076
 30
0.0
 10
0.7249
 20
-21.4076
 30
0.0
 10
0.6191
 20
-21.4265
 30
0.0
 10
0.5302
 20
-21.4636
 30
0.0
 10
0.5302
 20
-21.4636
 30
0.0
 10
0.4408
 20
-21.5008
 30
0.0
 10
0.3693
 20
-21.5497
 30
0.0
 10
0.3143
 20
-21.6104
 30
0.0
 10
0.3143
 20
-21.6104
 30
0.0
 10
0.2597
 20
-21.671
 30
0.0
 10
0.2174
 20
-21.7374
 30
0.0
 10
0.1868
 20
-21.8103
 30
0.0
 10
0.1868
 20
-21.8103
 30
0.0
 10
0.1356
 20
-21.9349
 30
0.0
 10
0.1097
 20
-22.0704
 30
0.0
 10
0.1097
 20
-22.2167
 30
0.0
 10
0.1097
 20
-22.2167
 30
0.0
 10
0.1097
 20
-22.3968
 30
0.0
 10
0.1407
 20
-22.5473
 30
0.0
 10
0.2028
 20
-22.6687
 30
0.0
 10
0.2028
 20
-22.6687
 30
0.0
 10
0.2649
 20
-22.79
 30
0.0
 10
0.3552
 20
-22.8799
 30
0.0
 10
0.4737
 20
-22.9387
 30
0.0
 10
0.4737
 20
-22.9387
 30
0.0
 10
0.5923
 20
-22.9975
 30
0.0
 10
0.7179
 20
-23.0271
 30
0.0
 10
0.851
 20
-23.0271
 30
0.0
 10
0.851
 20
-23.0271
 30
0.0
 10
0.9672
 20
-23.0271
 30
0.0
 10
1.08
 20
-23.0045
 30
0.0
 10
1.1901
 20
-22.9598
 30
0.0
 10
1.1901
 20
-22.9598
 30
0.0
 10
1.3007
 20
-22.9156
 30
0.0
 10
1.3839
 20
-22.8681
 30
0.0
 10
1.4408
 20
-22.8173
 30
0.0
 10
1.4408
 20
-22.8173
 30
0.0
 10
1.4408
 20
-22.8173
 30
0.0
 10
1.4408
 20
-22.441
 30
0.0
 10
1.4408
 20
-22.441
 30
0.0
 10
1.4408
 20
-22.441
 30
0.0
 10
1.4408
 20
-22.441
 30
0.0
 10
0.8472
 20
-22.441
 30
0.0
 10
0.8472
 20
-22.441
 30
0.0
  0
SPLINE
  5
4D
330
1F
100
AcDbEntity
  8
VRSTVA_1
 62
   250
100
AcDbSpline
210
0.0
220
0.0
230
1.0
 70
    11
 71
     3
 72
    92
 73
    88
 74
     0
 42
0.0000000001
 43
0.0000000001
 40
0.0
 40
0.0
 40
0.0
 40
0.0
 40
0.0434782608695652
 40
0.0434782608695652
 40
0.0434782608695652
 40
0.0434782608695652
 40
0.0869565217391304
 40
0.0869565217391304
 40
0.0869565217391304
 40
0.0869565217391304
 40
0.1304347826086956
 40
0.1304347826086956
 40
0.1304347826086956
 40
0.1304347826086956
 40
0.1739130434782609
 40
0.1739130434782609
 40
0.1739130434782609
 40
0.1739130434782609
 40
0.2173913043478261
 40
0.2173913043478261
 40
0.2173913043478261
 40
0.2173913043478261
 40
0.2608695652173913
 40
0.2608695652173913
 40
0.2608695652173913
 40
0.2608695652173913
 40
0.3043478260869565
 40
0.3043478260869565
 40
0.3043478260869565
 40
0.3043478260869565
 40
0.3478260869565217
 40
0.3478260869565217
 40
0.3478260869565217
 40
0.3478260869565217
 40
0.391304347826087
 40
0.391304347826087
 40
0.391304347826087
 40
0.391304347826087
 40
0.4347826086956522
 40
0.4347826086956522
 40
0.4347826086956522
 40
0.4347826086956522
 40
0.4782608695652174
 40
0.4782608695652174
 40
0.4782608695652174
 40
0.4782608695652174
 40
0.5217391304347826
 40
0.5217391304347826
 40
0.5217391304347826
 40
0.5217391304347826
 40
0.5652173913043478
 40
0.5652173913043478
 40
0.5652173913043478
 40
0.5652173913043478
 40
0.6086956521739131
 40
0.6086956521739131
 40
0.6086956521739131
 40
0.6086956521739131
 40
0.6521739130434783
 40
0.6521739130434783
 40
0.6521739130434783
 40
0.6521739130434783
 40
0.6956521739130435
 40
0.6956521739130435
 40
0.6956521739130435
 40
0.6956521739130435
 40
0.7391304347826086
 40
0.7391304347826086
 40
0.7391304347826086
 40
0.7391304347826086
 40
0.782608695652174
 40
0.782608695652174
 40
0.782608695652174
 40
0.782608695652174
 40
0.8260869565217391
 40
0.8260869565217391
 40
0.8260869565217391
 40
0.8260869565217391
 40
0.8695652173913043
 40
0.8695652173913043
 40
0.8695652173913043
 40
0.8695652173913043
 40
0.9130434782608695
 40
0.9130434782608695
 40
0.9130434782608695
 40
0.9130434782608695
 40
1.0
 40
1.0
 40
1.0
 40
1.0
 10
2.7804
 20
-22.7044
 30
0.0
 10
2.7804
 20
-22.7044
 30
0.0
 10
3.041
 20
-22.6823
 30
0.0
 10
3.041
 20
-22.6823
 30
0.0
 10
3.041
 20
-22.6823
 30
0.0
 10
3.0603
 20
-22.8093
 30
0.0
 10
3.105
 20
-22.9043
 30
0.0
 10
3.1751
 20
-22.9683
 30
0.0
 10
3.1751
 20
-22.9683
 30
0.0
 10
3.2456
 20
-23.0323
 30
0.0
 10
3.3303
 20
-23.0643
 30
0.0
 10
3.4295
 20
-23.0643
 30
0.0
 10
3.4295
 20
-23.0643
 30
0.0
 10
3.549
 20
-23.0643
 30
0.0
 10
3.6501
 20
-23.0191
 30
0.0
 10
3.7324
 20
-22.9293
 30
0.0
 10
3.7324
 20
-22.9293
 30
0.0
 10
3.8152
 20
-22.839
 30
0.0
 10
3.8566
 20
-22.7195
 30
0.0
 10
3.8566
 20
-22.5709
 30
0.0
 10
3.8566
 20
-22.5709
 30
0.0
 10
3.8566
 20
-22.4293
 30
0.0
 10
3.8171
 20
-22.3178
 30
0.0
 10
3.7376
 20
-22.236
 30
0.0
 10
3.7376
 20
-22.236
 30
0.0
 10
3.6581
 20
-22.1541
 30
0.0
 10
3.5542
 20
-22.1132
 30
0.0
 10
3.4253
 20
-22.1132
 30
0.0
 10
3.4253
 20
-22.1132
 30
0.0
 10
3.3453
 20
-22.1132
 30
0.0
 10
3.2734
 20
-22.1315
 30
0.0
 10
3.2089
 20
-22.1677
 30
0.0
 10
3.2089
 20
-22.1677
 30
0.0
 10
3.1445
 20
-22.204
 30
0.0
 10
3.0942
 20
-22.251
 30
0.0
 10
3.0575
 20
-22.3089
 30
0.0
 10
3.0575
 20
-22.3089
 30
0.0
 10
3.0575
 20
-22.3089
 30
0.0
 10
2.8246
 20
-22.2788
 30
0.0
 10
2.8246
 20
-22.2788
 30
0.0
 10
2.8246
 20
-22.2788
 30
0.0
 10
2.8246
 20
-22.2788
 30
0.0
 10
3.0203
 20
-21.2411
 30
0.0
 10
3.0203
 20
-21.2411
 30
0.0
 10
3.0203
 20
-21.2411
 30
0.0
 10
3.0203
 20
-21.2411
 30
0.0
 10
4.025
 20
-21.2411
 30
0.0
 10
4.025
 20
-21.2411
 30
0.0
 10
4.025
 20
-21.2411
 30
0.0
 10
4.025
 20
-21.2411
 30
0.0
 10
4.025
 20
-21.4782
 30
0.0
 10
4.025
 20
-21.4782
 30
0.0
 10
4.025
 20
-21.4782
 30
0.0
 10
4.025
 20
-21.4782
 30
0.0
 10
3.2188
 20
-21.4782
 30
0.0
 10
3.2188
 20
-21.4782
 30
0.0
 10
3.2188
 20
-21.4782
 30
0.0
 10
3.2188
 20
-21.4782
 30
0.0
 10
3.1097
 20
-22.021
 30
0.0
 10
3.1097
 20
-22.021
 30
0.0
 10
3.1097
 20
-22.021
 30
0.0
 10
3.231
 20
-21.9363
 30
0.0
 10
3.3585
 20
-21.894
 30
0.0
 10
3.4916
 20
-21.894
 30
0.0
 10
3.4916
 20
-21.894
 30
0.0
 10
3.668
 20
-21.894
 30
0.0
 10
3.8166
 20
-21.9551
 30
0.0
 10
3.938
 20
-22.0774
 30
0.0
 10
3.938
 20
-22.0774
 30
0.0
 10
4.0593
 20
-22.1997
 30
0.0
 10
4.12
 20
-22.3568
 30
0.0
 10
4.12
 20
-22.5487
 30
0.0
 10
4.12
 20
-22.5487
 30
0.0
 10
4.12
 20
-22.7317
 30
0.0
 10
4.0664
 20
-22.8898
 30
0.0
 10
3.9601
 20
-23.0229
 30
0.0
 10
3.9601
 20
-23.0229
 30
0.0
 10
3.8303
 20
-23.1861
 30
0.0
 10
3.6534
 20
-23.2679
 30
0.0
 10
3.4295
 20
-23.2679
 30
0.0
 10
3.4295
 20
-23.2679
 30
0.0
 10
3.2456
 20
-23.2679
 30
0.0
 10
3.0956
 20
-23.2167
 30
0.0
 10
2.9794
 20
-23.1137
 30
0.0
 10
2.9794
 20
-23.1137
 30
0.0
 10
2.8632
 20
-23.0106
 30
0.0
 10
2.7969
 20
-22.8742
 30
0.0
 10
2.7804
 20
-22.7044
 30
0.0
  0
SPLINE
  5
4E
330
1F
100
AcDbEntity
  8
VRSTVA_1
 62
   250
100
AcDbSpline
210
0.0
220
0.0
230
1.0
 70
    11
 71
     3
 72
    20
 73
    16
 74
     0
 42
0.0000000001
 43
0.0000000001
 40
0.0
 40
0.0
 40
0.0
 40
0.0
 40
0.2
 40
0.2
 40
0.2
 40
0.2
 40
0.4
 40
0.4
 40
0.4
 40
0.4
 40
0.6
 40
0.6
 40
0.6
 40
0.6
 40
1.0
 40
1.0
 40
1.0
 40
1.0
 10
4.2329
 20
-23.2679
 30
0.0
 10
4.2329
 20
-23.2679
 30
0.0
 10
4.8185
 20
-21.179
 30
0.0
 10
4.8185
 20
-21.179
 30
0.0
 10
4.8185
 20
-21.179
 30
0.0
 10
4.8185
 20
-21.179
 30
0.0
 10
5.017
 20
-21.179
 30
0.0
 10
5.017
 20
-21.179
 30
0.0
 10
5.017
 20
-21.179
 30
0.0
 10
5.017
 20
-21.179
 30
0.0
 10
4.4328
 20
-23.2679
 30
0.0
 10
4.4328
 20
-23.2679
 30
0.0
 10
4.4328
 20
-23.2679
 30
0.0
 10
4.4328
 20
-23.2679
 30
0.0
 10
4.2329
 20
-23.2679
 30
0.0
 10
4.2329
 20
-23.2679
 30
0.0
  0
SPLINE
  5
4F
330
1F
100
AcDbEntity
  8
VRSTVA_1
 62
   250
100
AcDbSpline
210
0.0
220
0.0
230
1.0
 70
    11
 71
     3
 72
    48
 73
    44
 74
     0
 42
0.0000000001
 43
0.0000000001
 40
0.0
 40
0.0
 40
0.0
 40
0.0
 40
0.0833333333333333
 40
0.0833333333333333
 40
0.0833333333333333
 40
0.0833333333333333
 40
0.1666666666666667
 40
0.1666666666666667
 40
0.1666666666666667
 40
0.1666666666666667
 40
0.25
 40
0.25
 40
0.25
 40
0.25
 40
0.3333333333333333
 40
0.3333333333333333
 40
0.3333333333333333
 40
0.3333333333333333
 40
0.4166666666666667
 40
0.4166666666666667
 40
0.4166666666666667
 40
0.4166666666666667
 40
0.5
 40
0.5
 40
0.5
 40
0.5
 40
0.5833333333333334
 40
0.5833333333333334
 40
0.5833333333333334
 40
0.5833333333333334
 40
0.6666666666666666
 40
0.6666666666666666
 40
0.6666666666666666
 40
0.6666666666666666
 40
0.75
 40
0.75
 40
0.75
 40
0.75
 40
0.8333333333333334
 40
0.8333333333333334
 40
0.8333333333333334
 40
0.8333333333333334
 40
1.0
 40
1.0
 40
1.0
 40
1.0
 10
5.929
 20
-23.2336
 30
0.0
 10
5.929
 20
-23.2336
 30
0.0
 10
5.929
 20
-22.7501
 30
0.0
 10
5.929
 20
-22.7501
 30
0.0
 10
5.929
 20
-22.7501
 30
0.0
 10
5.929
 20
-22.7501
 30
0.0
 10
5.0527
 20
-22.7501
 30
0.0
 10
5.0527
 20
-22.7501
 30
0.0
 10
5.0527
 20
-22.7501
 30
0.0
 10
5.0527
 20
-22.7501
 30
0.0
 10
5.0527
 20
-22.5224
 30
0.0
 10
5.0527
 20
-22.5224
 30
0.0
 10
5.0527
 20
-22.5224
 30
0.0
 10
5.0527
 20
-22.5224
 30
0.0
 10
5.9747
 20
-21.2134
 30
0.0
 10
5.9747
 20
-21.2134
 30
0.0
 10
5.9747
 20
-21.2134
 30
0.0
 10
5.9747
 20
-21.2134
 30
0.0
 10
6.1774
 20
-21.2134
 30
0.0
 10
6.1774
 20
-21.2134
 30
0.0
 10
6.1774
 20
-21.2134
 30
0.0
 10
6.1774
 20
-21.2134
 30
0.0
 10
6.1774
 20
-22.5224
 30
0.0
 10
6.1774
 20
-22.5224
 30
0.0
 10
6.1774
 20
-22.5224
 30
0.0
 10
6.1774
 20
-22.5224
 30
0.0
 10
6.4502
 20
-22.5224
 30
0.0
 10
6.4502
 20
-22.5224
 30
0.0
 10
6.4502
 20
-22.5224
 30
0.0
 10
6.4502
 20
-22.5224
 30
0.0
 10
6.4502
 20
-22.7501
 30
0.0
 10
6.4502
 20
-22.7501
 30
0.0
 10
6.4502
 20
-22.7501
 30
0.0
 10
6.4502
 20
-22.7501
 30
0.0
 10
6.1774
 20
-22.7501
 30
0.0
 10
6.1774
 20
-22.7501
 30
0.0
 10
6.1774
 20
-22.7501
 30
0.0
 10
6.1774
 20
-22.7501
 30
0.0
 10
6.1774
 20
-23.2336
 30
0.0
 10
6.1774
 20
-23.2336
 30
0.0
 10
6.1774
 20
-23.2336
 30
0.0
 10
6.1774
 20
-23.2336
 30
0.0
 10
5.929
 20
-23.2336
 30
0.0
 10
5.929
 20
-23.2336
 30
0.0
  0
SPLINE
  5
50
330
1F
100
AcDbEntity
  8
VRSTVA_1
 62
   250
100
AcDbSpline
210
0.0
220
0.0
230
1.0
 70
    11
 71
     3
 72
    16
 73
    12
 74
     0
 42
0.0000000001
 43
0.0000000001
 40
0.0
 40
0.0
 40
0.0
 40
0.0
 40
0.25
 40
0.25
 40
0.25
 40
0.25
 40
0.5
 40
0.5
 40
0.5
 40
0.5
 40
1.0
 40
1.0
 40
1.0
 40
1.0
 10
5.929
 20
-22.5224
 30
0.0
 10
5.929
 20
-22.5224
 30
0.0
 10
5.929
 20
-21.6118
 30
0.0
 10
5.929
 20
-21.6118
 30
0.0
 10
5.929
 20
-21.6118
 30
0.0
 10
5.929
 20
-21.6118
 30
0.0
 10
5.2969
 20
-22.5224
 30
0.0
 10
5.2969
 20
-22.5224
 30
0.0
 10
5.2969
 20
-22.5224
 30
0.0
 10
5.2969
 20
-22.5224
 30
0.0
 10
5.929
 20
-22.5224
 30
0.0
 10
5.929
 20
-22.5224
 30
0.0
  0
SPLINE
  5
51
330
1F
100
AcDbEntity
  8
VRSTVA_1
 62
   250
100
AcDbSpline
210
0.0
220
0.0
230
1.0
 70
    11
 71
     3
 72
    28
 73
    24
 74
     0
 42
0.0000000001
 43
0.0000000001
 40
0.0
 40
0.0
 40
0.0
 40
0.0
 40
0.1428571428571428
 40
0.1428571428571428
 40
0.1428571428571428
 40
0.1428571428571428
 40
0.2857142857142857
 40
0.2857142857142857
 40
0.2857142857142857
 40
0.2857142857142857
 40
0.4285714285714285
 40
0.4285714285714285
 40
0.4285714285714285
 40
0.4285714285714285
 40
0.5714285714285714
 40
0.5714285714285714
 40
0.5714285714285714
 40
0.5714285714285714
 40
0.7142857142857143
 40
0.7142857142857143
 40
0.7142857142857143
 40
0.7142857142857143
 40
1.0
 40
1.0
 40
1.0
 40
1.0
 10
6.7851
 20
-21.9288
 30
0.0
 10
6.7851
 20
-21.9288
 30
0.0
 10
6.716
 20
-21.544
 30
0.0
 10
6.716
 20
-21.544
 30
0.0
 10
6.716
 20
-21.544
 30
0.0
 10
6.716
 20
-21.544
 30
0.0
 10
6.716
 20
-21.2134
 30
0.0
 10
6.716
 20
-21.2134
 30
0.0
 10
6.716
 20
-21.2134
 30
0.0
 10
6.716
 20
-21.2134
 30
0.0
 10
6.9986
 20
-21.2134
 30
0.0
 10
6.9986
 20
-21.2134
 30
0.0
 10
6.9986
 20
-21.2134
 30
0.0
 10
6.9986
 20
-21.2134
 30
0.0
 10
6.9986
 20
-21.544
 30
0.0
 10
6.9986
 20
-21.544
 30
0.0
 10
6.9986
 20
-21.544
 30
0.0
 10
6.9986
 20
-21.544
 30
0.0
 10
6.9366
 20
-21.9288
 30
0.0
 10
6.9366
 20
-21.9288
 30
0.0
 10
6.9366
 20
-21.9288
 30
0.0
 10
6.9366
 20
-21.9288
 30
0.0
 10
6.7851
 20
-21.9288
 30
0.0
 10
6.7851
 20
-21.9288
 30
0.0
  0
SPLINE
  5
52
330
1F
100
AcDbEntity
  8
VRSTVA_1
 62
   250
100
AcDbSpline
210
0.0
220
0.0
230
1.0
 70
    11
 71
     3
 72
    28
 73
    24
 74
     0
 42
0.0000000001
 43
0.0000000001
 40
0.0
 40
0.0
 40
0.0
 40
0.0
 40
0.1428571428571428
 40
0.1428571428571428
 40
0.1428571428571428
 40
0.1428571428571428
 40
0.2857142857142857
 40
0.2857142857142857
 40
0.2857142857142857
 40
0.2857142857142857
 40
0.4285714285714285
 40
0.4285714285714285
 40
0.4285714285714285
 40
0.4285714285714285
 40
0.5714285714285714
 40
0.5714285714285714
 40
0.5714285714285714
 40
0.5714285714285714
 40
0.7142857142857143
 40
0.7142857142857143
 40
0.7142857142857143
 40
0.7142857142857143
 40
1.0
 40
1.0
 40
1.0
 40
1.0
 10
7.2414
 20
-21.9288
 30
0.0
 10
7.2414
 20
-21.9288
 30
0.0
 10
7.1736
 20
-21.544
 30
0.0
 10
7.1736
 20
-21.544
 30
0.0
 10
7.1736
 20
-21.544
 30
0.0
 10
7.1736
 20
-21.544
 30
0.0
 10
7.1736
 20
-21.2134
 30
0.0
 10
7.1736
 20
-21.2134
 30
0.0
 10
7.1736
 20
-21.2134
 30
0.0
 10
7.1736
 20
-21.2134
 30
0.0
 10
7.4563
 20
-21.2134
 30
0.0
 10
7.4563
 20
-21.2134
 30
0.0
 10
7.4563
 20
-21.2134
 30
0.0
 10
7.4563
 20
-21.2134
 30
0.0
 10
7.4563
 20
-21.544
 30
0.0
 10
7.4563
 20
-21.544
 30
0.0
 10
7.4563
 20
-21.544
 30
0.0
 10
7.4563
 20
-21.544
 30
0.0
 10
7.39
 20
-21.9288
 30
0.0
 10
7.39
 20
-21.9288
 30
0.0
 10
7.39
 20
-21.9288
 30
0.0
 10
7.39
 20
-21.9288
 30
0.0
 10
7.2414
 20
-21.9288
 30
0.0
 10
7.2414
 20
-21.9288
 30
0.0
  0
SPLINE
  5
53
330
1F
100
AcDbEntity
  8
VRSTVA_1
 62
   250
100
AcDbSpline
210
0.0
220
0.0
230
1.0
 70
    11
 71
     3
 72
    20
 73
    16
 74
     0
 42
0.0000000001
 43
0.0000000001
 40
0.0
 40
0.0
 40
0.0
 40
0.0
 40
0.2
 40
0.2
 40
0.2
 40
0.2
 40
0.4
 40
0.4
 40
0.4
 40
0.4
 40
0.6
 40
0.6
 40
0.6
 40
0.6
 40
1.0
 40
1.0
 40
1.0
 40
1.0
 10
8.58
 20
-23.5021
 30
0.0
 10
8.58
 20
-23.5021
 30
0.0
 10
11.08
 20
-23.855
 30
0.0
 10
11.08
 20
-23.855
 30
0.0
 10
11.08
 20
-23.855
 30
0.0
 10
11.08
 20
-23.855
 30
0.0
 10
11.08
 20
-23.9333
 30
0.0
 10
11.08
 20
-23.9333
 30
0.0
 10
11.08
 20
-23.9333
 30
0.0
 10
11.08
 20
-23.9333
 30
0.0
 10
8.58
 20
-24.3096
 30
0.0
 10
8.58
 20
-24.3096
 30
0.0
 10
8.58
 20
-24.3096
 30
0.0
 10
8.58
 20
-24.3096
 30
0.0
 10
8.58
 20
-23.5021
 30
0.0
 10
8.58
 20
-23.5021
 30
0.0
  0
SPLINE
  5
54
330
1F
100
AcDbEntity
  8
VRSTVA_1
 62
   250
100
AcDbSpline
210
0.0
220
0.0
230
1.0
 70
    11
 71
     3
 72
    20
 73
    16
 74
     0
 42
0.0000000001
 43
0.0000000001
 40
0.0
 40
0.0
 40
0.0
 40
0.0
 40
0.2
 40
0.2
 40
0.2
 40
0.2
 40
0.4
 40
0.4
 40
0.4
 40
0.4
 40
0.6
 40
0.6
 40
0.6
 40
0.6
 40
1.0
 40
1.0
 40
1.0
 40
1.0
 10
-1.5298
 20
-24.3532
 30
0.0
 10
-1.5298
 20
-24.3532
 30
0.0
 10
-4.0298
 20
-24.0003
 30
0.0
 10
-4.0298
 20
-24.0003
 30
0.0
 10
-4.0298
 20
-24.0003
 30
0.0
 10
-4.0298
 20
-24.0003
 30
0.0
 10
-4.0298
 20
-23.922
 30
0.0
 10
-4.0298
 20
-23.922
 30
0.0
 10
-4.0298
 20
-23.922
 30
0.0
 10
-4.0298
 20
-23.922
 30
0.0
 10
-1.5298
 20
-23.5457
 30
0.0
 10
-1.5298
 20
-23.5457
 30
0.0
 10
-1.5298
 20
-23.5457
 30
0.0
 10
-1.5298
 20
-23.5457
 30
0.0
 10
-1.5298
 20
-24.3532
 30
0.0
 10
-1.5298
 20
-24.3532
 30
0.0
  0
SPLINE
  5
55
330
1F
100
AcDbEntity
  8
VRSTVA_1
 62
   250
100
AcDbSpline
210
0.0
220
0.0
230
1.0
 70
    11
 71
     3
 72
   116
 73
   112
 74
     0
 42
0.0000000001
 43
0.0000000001
 40
0.0
 40
0.0
 40
0.0
 40
0.0
 40
0.0344827586206897
 40
0.0344827586206897
 40
0.0344827586206897
 40
0.0344827586206897
 40
0.0689655172413793
 40
0.0689655172413793
 40
0.0689655172413793
 40
0.0689655172413793
 40
0.103448275862069
 40
0.103448275862069
 40
0.103448275862069
 40
0.103448275862069
 40
0.1379310344827586
 40
0.1379310344827586
 40
0.1379310344827586
 40
0.1379310344827586
 40
0.1724137931034483
 40
0.1724137931034483
 40
0.1724137931034483
 40
0.1724137931034483
 40
0.2068965517241379
 40
0.2068965517241379
 40
0.2068965517241379
 40
0.2068965517241379
 40
0.2413793103448276
 40
0.2413793103448276
 40
0.2413793103448276
 40
0.2413793103448276
 40
0.2758620689655172
 40
0.2758620689655172
 40
0.2758620689655172
 40
0.2758620689655172
 40
0.3103448275862069
 40
0.3103448275862069
 40
0.3103448275862069
 40
0.3103448275862069
 40
0.3448275862068966
 40
0.3448275862068966
 40
0.3448275862068966
 40
0.3448275862068966
 40
0.3793103448275862
 40
0.3793103448275862
 40
0.3793103448275862
 40
0.3793103448275862
 40
0.4137931034482759
 40
0.4137931034482759
 40
0.4137931034482759
 40
0.4137931034482759
 40
0.4482758620689655
 40
0.4482758620689655
 40
0.4482758620689655
 40
0.4482758620689655
 40
0.4827586206896552
 40
0.4827586206896552
 40
0.4827586206896552
 40
0.4827586206896552
 40
0.5172413793103449
 40
0.5172413793103449
 40
0.5172413793103449
 40
0.5172413793103449
 40
0.5517241379310345
 40
0.5517241379310345
 40
0.5517241379310345
 40
0.5517241379310345
 40
0.5862068965517241
 40
0.5862068965517241
 40
0.5862068965517241
 40
0.5862068965517241
 40
0.6206896551724138
 40
0.6206896551724138
 40
0.6206896551724138
 40
0.6206896551724138
 40
0.6551724137931034
 40
0.6551724137931034
 40
0.6551724137931034
 40
0.6551724137931034
 40
0.6896551724137931
 40
0.6896551724137931
 40
0.6896551724137931
 40
0.6896551724137931
 40
0.7241379310344828
 40
0.7241379310344828
 40
0.7241379310344828
 40
0.7241379310344828
 40
0.7586206896551724
 40
0.7586206896551724
 40
0.7586206896551724
 40
0.7586206896551724
 40
0.7931034482758621
 40
0.7931034482758621
 40
0.7931034482758621
 40
0.7931034482758621
 40
0.8275862068965517
 40
0.8275862068965517
 40
0.8275862068965517
 40
0.8275862068965517
 40
0.8620689655172413
 40
0.8620689655172413
 40
0.8620689655172413
 40
0.8620689655172413
 40
0.896551724137931
 40
0.896551724137931
 40
0.896551724137931
 40
0.896551724137931
 40
0.9310344827586207
 40
0.9310344827586207
 40
0.9310344827586207
 40
0.9310344827586207
 40
1.0
 40
1.0
 40
1.0
 40
1.0
 10
-13.7767
 20
-1.7895
 30
0.0
 10
-13.7767
 20
-1.7895
 30
0.0
 10
-15.24
 20
-1.7895
 30
0.0
 10
-15.24
 20
-1.7895
 30
0.0
 10
-15.24
 20
-1.7895
 30
0.0
 10
-15.24
 20
-1.7895
 30
0.0
 10
-15.24
 20
-1.568
 30
0.0
 10
-15.24
 20
-1.568
 30
0.0
 10
-15.24
 20
-1.568
 30
0.0
 10
-15.24
 20
-1.568
 30
0.0
 10
-15.0349
 20
-1.568
 30
0.0
 10
-15.0349
 20
-1.568
 30
0.0
 10
-15.0349
 20
-1.568
 30
0.0
 10
-15.1064
 20
-1.5219
 30
0.0
 10
-15.1643
 20
-1.4607
 30
0.0
 10
-15.2076
 20
-1.3845
 30
0.0
 10
-15.2076
 20
-1.3845
 30
0.0
 10
-15.2513
 20
-1.3083
 30
0.0
 10
-15.2734
 20
-1.2213
 30
0.0
 10
-15.2734
 20
-1.124
 30
0.0
 10
-15.2734
 20
-1.124
 30
0.0
 10
-15.2734
 20
-1.0158
 30
0.0
 10
-15.2508
 20
-0.9269
 30
0.0
 10
-15.2057
 20
-0.8577
 30
0.0
 10
-15.2057
 20
-0.8577
 30
0.0
 10
-15.1605
 20
-0.7881
 30
0.0
 10
-15.098
 20
-0.7392
 30
0.0
 10
-15.0171
 20
-0.711
 30
0.0
 10
-15.0171
 20
-0.711
 30
0.0
 10
-15.1878
 20
-0.5948
 30
0.0
 10
-15.2734
 20
-0.4443
 30
0.0
 10
-15.2734
 20
-0.259
 30
0.0
 10
-15.2734
 20
-0.259
 30
0.0
 10
-15.2734
 20
-0.1136
 30
0.0
 10
-15.233
 20
-0.0021
 30
0.0
 10
-15.1525
 20
0.0759
 30
0.0
 10
-15.1525
 20
0.0759
 30
0.0
 10
-15.0721
 20
0.154
 30
0.0
 10
-14.9484
 20
0.1931
 30
0.0
 10
-14.7814
 20
0.1931
 30
0.0
 10
-14.7814
 20
0.1931
 30
0.0
 10
-14.7814
 20
0.1931
 30
0.0
 10
-13.7767
 20
0.1931
 30
0.0
 10
-13.7767
 20
0.1931
 30
0.0
 10
-13.7767
 20
0.1931
 30
0.0
 10
-13.7767
 20
0.1931
 30
0.0
 10
-13.7767
 20
-0.0534
 30
0.0
 10
-13.7767
 20
-0.0534
 30
0.0
 10
-13.7767
 20
-0.0534
 30
0.0
 10
-13.7767
 20
-0.0534
 30
0.0
 10
-14.6986
 20
-0.0534
 30
0.0
 10
-14.6986
 20
-0.0534
 30
0.0
 10
-14.6986
 20
-0.0534
 30
0.0
 10
-14.7979
 20
-0.0534
 30
0.0
 10
-14.8694
 20
-0.0614
 30
0.0
 10
-14.9131
 20
-0.0774
 30
0.0
 10
-14.9131
 20
-0.0774
 30
0.0
 10
-14.9564
 20
-0.0939
 30
0.0
 10
-14.9917
 20
-0.123
 30
0.0
 10
-15.0185
 20
-0.1649
 30
0.0
 10
-15.0185
 20
-0.1649
 30
0.0
 10
-15.0448
 20
-0.2072
 30
0.0
 10
-15.0584
 20
-0.2571
 30
0.0
 10
-15.0584
 20
-0.314
 30
0.0
 10
-15.0584
 20
-0.314
 30
0.0
 10
-15.0584
 20
-0.417
 30
0.0
 10
-15.0241
 20
-0.5021
 30
0.0
 10
-14.9554
 20
-0.5703
 30
0.0
 10
-14.9554
 20
-0.5703
 30
0.0
 10
-14.8872
 20
-0.6381
 30
0.0
 10
-14.7776
 20
-0.6724
 30
0.0
 10
-14.6271
 20
-0.6724
 30
0.0
 10
-14.6271
 20
-0.6724
 30
0.0
 10
-14.6271
 20
-0.6724
 30
0.0
 10
-13.7767
 20
-0.6724
 30
0.0
 10
-13.7767
 20
-0.6724
 30
0.0
 10
-13.7767
 20
-0.6724
 30
0.0
 10
-13.7767
 20
-0.6724
 30
0.0
 10
-13.7767
 20
-0.9203
 30
0.0
 10
-13.7767
 20
-0.9203
 30
0.0
 10
-13.7767
 20
-0.9203
 30
0.0
 10
-13.7767
 20
-0.9203
 30
0.0
 10
-14.7273
 20
-0.9203
 30
0.0
 10
-14.7273
 20
-0.9203
 30
0.0
 10
-14.7273
 20
-0.9203
 30
0.0
 10
-14.8378
 20
-0.9203
 30
0.0
 10
-14.9206
 20
-0.9405
 30
0.0
 10
-14.9757
 20
-0.981
 30
0.0
 10
-14.9757
 20
-0.981
 30
0.0
 10
-15.0307
 20
-1.0214
 30
0.0
 10
-15.0584
 20
-1.0873
 30
0.0
 10
-15.0584
 20
-1.1795
 30
0.0
 10
-15.0584
 20
-1.1795
 30
0.0
 10
-15.0584
 20
-1.2491
 30
0.0
 10
-15.0401
 20
-1.3135
 30
0.0
 10
-15.0029
 20
-1.3728
 30
0.0
 10
-15.0029
 20
-1.3728
 30
0.0
 10
-14.9663
 20
-1.4321
 30
0.0
 10
-14.9126
 20
-1.4753
 30
0.0
 10
-14.8421
 20
-1.5017
 30
0.0
 10
-14.8421
 20
-1.5017
 30
0.0
 10
-14.7711
 20
-1.5285
 30
0.0
 10
-14.669
 20
-1.5417
 30
0.0
 10
-14.5359
 20
-1.5417
 30
0.0
 10
-14.5359
 20
-1.5417
 30
0.0
 10
-14.5359
 20
-1.5417
 30
0.0
 10
-13.7767
 20
-1.5417
 30
0.0
 10
-13.7767
 20
-1.5417
 30
0.0
 10
-13.7767
 20
-1.5417
 30
0.0
 10
-13.7767
 20
-1.5417
 30
0.0
 10
-13.7767
 20
-1.7895
 30
0.0
 10
-13.7767
 20
-1.7895
 30
0.0
  0
SPLINE
  5
56
330
1F
100
AcDbEntity
  8
VRSTVA_1
 62
   250
100
AcDbSpline
210
0.0
220
0.0
230
1.0
 70
    11
 71
     3
 72
   112
 73
   108
 74
     0
 42
0.0000000001
 43
0.0000000001
 40
0.0
 40
0.0
 40
0.0
 40
0.0
 40
0.0357142857142857
 40
0.0357142857142857
 40
0.0357142857142857
 40
0.0357142857142857
 40
0.0714285714285714
 40
0.0714285714285714
 40
0.0714285714285714
 40
0.0714285714285714
 40
0.1071428571428571
 40
0.1071428571428571
 40
0.1071428571428571
 40
0.1071428571428571
 40
0.1428571428571428
 40
0.1428571428571428
 40
0.1428571428571428
 40
0.1428571428571428
 40
0.1785714285714286
 40
0.1785714285714286
 40
0.1785714285714286
 40
0.1785714285714286
 40
0.2142857142857143
 40
0.2142857142857143
 40
0.2142857142857143
 40
0.2142857142857143
 40
0.25
 40
0.25
 40
0.25
 40
0.25
 40
0.2857142857142857
 40
0.2857142857142857
 40
0.2857142857142857
 40
0.2857142857142857
 40
0.3214285714285715
 40
0.3214285714285715
 40
0.3214285714285715
 40
0.3214285714285715
 40
0.3571428571428572
 40
0.3571428571428572
 40
0.3571428571428572
 40
0.3571428571428572
 40
0.3928571428571428
 40
0.3928571428571428
 40
0.3928571428571428
 40
0.3928571428571428
 40
0.4285714285714285
 40
0.4285714285714285
 40
0.4285714285714285
 40
0.4285714285714285
 40
0.4642857142857143
 40
0.4642857142857143
 40
0.4642857142857143
 40
0.4642857142857143
 40
0.5
 40
0.5
 40
0.5
 40
0.5
 40
0.5357142857142857
 40
0.5357142857142857
 40
0.5357142857142857
 40
0.5357142857142857
 40
0.5714285714285714
 40
0.5714285714285714
 40
0.5714285714285714
 40
0.5714285714285714
 40
0.6071428571428571
 40
0.6071428571428571
 40
0.6071428571428571
 40
0.6071428571428571
 40
0.6428571428571429
 40
0.6428571428571429
 40
0.6428571428571429
 40
0.6428571428571429
 40
0.6785714285714286
 40
0.6785714285714286
 40
0.6785714285714286
 40
0.6785714285714286
 40
0.7142857142857143
 40
0.7142857142857143
 40
0.7142857142857143
 40
0.7142857142857143
 40
0.75
 40
0.75
 40
0.75
 40
0.75
 40
0.7857142857142857
 40
0.7857142857142857
 40
0.7857142857142857
 40
0.7857142857142857
 40
0.8214285714285714
 40
0.8214285714285714
 40
0.8214285714285714
 40
0.8214285714285714
 40
0.8571428571428571
 40
0.8571428571428571
 40
0.8571428571428571
 40
0.8571428571428571
 40
0.8928571428571429
 40
0.8928571428571429
 40
0.8928571428571429
 40
0.8928571428571429
 40
0.9285714285714286
 40
0.9285714285714286
 40
0.9285714285714286
 40
0.9285714285714286
 40
1.0
 40
1.0
 40
1.0
 40
1.0
 10
-13.9573
 20
1.5162
 30
0.0
 10
-13.8792
 20
1.424
 30
0.0
 10
-13.8242
 20
1.3356
 30
0.0
 10
-13.7918
 20
1.2509
 30
0.0
 10
-13.7918
 20
1.2509
 30
0.0
 10
-13.7598
 20
1.1658
 30
0.0
 10
-13.7438
 20
1.0745
 30
0.0
 10
-13.7438
 20
0.9772
 30
0.0
 10
-13.7438
 20
0.9772
 30
0.0
 10
-13.7438
 20
0.8163
 30
0.0
 10
-13.7828
 20
0.6931
 30
0.0
 10
-13.8614
 20
0.6065
 30
0.0
 10
-13.8614
 20
0.6065
 30
0.0
 10
-13.9399
 20
0.5204
 30
0.0
 10
-14.0406
 20
0.4772
 30
0.0
 10
-14.1624
 20
0.4772
 30
0.0
 10
-14.1624
 20
0.4772
 30
0.0
 10
-14.2344
 20
0.4772
 30
0.0
 10
-14.2997
 20
0.4932
 30
0.0
 10
-14.359
 20
0.5261
 30
0.0
 10
-14.359
 20
0.5261
 30
0.0
 10
-14.4183
 20
0.5585
 30
0.0
 10
-14.4658
 20
0.6013
 30
0.0
 10
-14.5015
 20
0.654
 30
0.0
 10
-14.5015
 20
0.654
 30
0.0
 10
-14.5373
 20
0.7072
 30
0.0
 10
-14.5646
 20
0.7664
 30
0.0
 10
-14.5829
 20
0.8328
 30
0.0
 10
-14.5829
 20
0.8328
 30
0.0
 10
-14.5956
 20
0.8812
 30
0.0
 10
-14.6083
 20
0.9546
 30
0.0
 10
-14.6201
 20
1.0529
 30
0.0
 10
-14.6201
 20
1.0529
 30
0.0
 10
-14.6441
 20
1.2533
 30
0.0
 10
-14.6723
 20
1.401
 30
0.0
 10
-14.7057
 20
1.4955
 30
0.0
 10
-14.7057
 20
1.4955
 30
0.0
 10
-14.7395
 20
1.4965
 30
0.0
 10
-14.7612
 20
1.4969
 30
0.0
 10
-14.7701
 20
1.4969
 30
0.0
 10
-14.7701
 20
1.4969
 30
0.0
 10
-14.8712
 20
1.4969
 30
0.0
 10
-14.9427
 20
1.4734
 30
0.0
 10
-14.9837
 20
1.4264
 30
0.0
 10
-14.9837
 20
1.4264
 30
0.0
 10
-15.0401
 20
1.3633
 30
0.0
 10
-15.0679
 20
1.2688
 30
0.0
 10
-15.0679
 20
1.1441
 30
0.0
 10
-15.0679
 20
1.1441
 30
0.0
 10
-15.0679
 20
1.0275
 30
0.0
 10
-15.0476
 20
0.9414
 30
0.0
 10
-15.0067
 20
0.8854
 30
0.0
 10
-15.0067
 20
0.8854
 30
0.0
 10
-14.9658
 20
0.8299
 30
0.0
 10
-14.8934
 20
0.789
 30
0.0
 10
-14.7894
 20
0.7622
 30
0.0
 10
-14.7894
 20
0.7622
 30
0.0
 10
-14.7894
 20
0.7622
 30
0.0
 10
-14.8228
 20
0.52
 30
0.0
 10
-14.8228
 20
0.52
 30
0.0
 10
-14.8228
 20
0.52
 30
0.0
 10
-14.9263
 20
0.5421
 30
0.0
 10
-15.0105
 20
0.5783
 30
0.0
 10
-15.074
 20
0.6286
 30
0.0
 10
-15.074
 20
0.6286
 30
0.0
 10
-15.1379
 20
0.679
 30
0.0
 10
-15.1873
 20
0.7523
 30
0.0
 10
-15.2217
 20
0.8478
 30
0.0
 10
-15.2217
 20
0.8478
 30
0.0
 10
-15.256
 20
0.9433
 30
0.0
 10
-15.2734
 20
1.0538
 30
0.0
 10
-15.2734
 20
1.1799
 30
0.0
 10
-15.2734
 20
1.1799
 30
0.0
 10
-15.2734
 20
1.305
 30
0.0
 10
-15.2584
 20
1.4061
 30
0.0
 10
-15.2292
 20
1.4842
 30
0.0
 10
-15.2292
 20
1.4842
 30
0.0
 10
-15.1996
 20
1.5623
 30
0.0
 10
-15.1629
 20
1.6197
 30
0.0
 10
-15.1182
 20
1.6568
 30
0.0
 10
-15.1182
 20
1.6568
 30
0.0
 10
-15.0735
 20
1.6935
 30
0.0
 10
-15.0175
 20
1.7189
 30
0.0
 10
-14.9493
 20
1.734
 30
0.0
 10
-14.9493
 20
1.734
 30
0.0
 10
-14.907
 20
1.742
 30
0.0
 10
-14.8308
 20
1.7462
 30
0.0
 10
-14.7207
 20
1.7462
 30
0.0
 10
-14.7207
 20
1.7462
 30
0.0
 10
-14.7207
 20
1.7462
 30
0.0
 10
-14.3901
 20
1.7462
 30
0.0
 10
-14.3901
 20
1.7462
 30
0.0
 10
-14.3901
 20
1.7462
 30
0.0
 10
-14.1591
 20
1.7462
 30
0.0
 10
-14.0133
 20
1.7514
 30
0.0
 10
-13.9526
 20
1.7622
 30
0.0
 10
-13.9526
 20
1.7622
 30
0.0
 10
-13.8915
 20
1.7726
 30
0.0
 10
-13.8327
 20
1.7937
 30
0.0
 10
-13.7767
 20
1.8248
 30
0.0
 10
-13.7767
 20
1.8248
 30
0.0
 10
-13.7767
 20
1.8248
 30
0.0
 10
-13.7767
 20
1.5656
 30
0.0
 10
-13.7767
 20
1.5656
 30
0.0
 10
-13.7767
 20
1.5656
 30
0.0
 10
-13.828
 20
1.5402
 30
0.0
 10
-13.8882
 20
1.5233
 30
0.0
 10
-13.9573
 20
1.5162
 30
0.0
  0
SPLINE
  5
57
330
1F
100
AcDbEntity
  8
VRSTVA_1
 62
   250
100
AcDbSpline
210
0.0
220
0.0
230
1.0
 70
    11
 71
     3
 72
    44
 73
    40
 74
     0
 42
0.0000000001
 43
0.0000000001
 40
0.0
 40
0.0
 40
0.0
 40
0.0
 40
0.0909090909090909
 40
0.0909090909090909
 40
0.0909090909090909
 40
0.0909090909090909
 40
0.1818181818181818
 40
0.1818181818181818
 40
0.1818181818181818
 40
0.1818181818181818
 40
0.2727272727272727
 40
0.2727272727272727
 40
0.2727272727272727
 40
0.2727272727272727
 40
0.3636363636363636
 40
0.3636363636363636
 40
0.3636363636363636
 40
0.3636363636363636
 40
0.4545454545454545
 40
0.4545454545454545
 40
0.4545454545454545
 40
0.4545454545454545
 40
0.5454545454545454
 40
0.5454545454545454
 40
0.5454545454545454
 40
0.5454545454545454
 40
0.6363636363636364
 40
0.6363636363636364
 40
0.6363636363636364
 40
0.6363636363636364
 40
0.7272727272727273
 40
0.7272727272727273
 40
0.7272727272727273
 40
0.7272727272727273
 40
0.8181818181818182
 40
0.8181818181818182
 40
0.8181818181818182
 40
0.8181818181818182
 40
1.0
 40
1.0
 40
1.0
 40
1.0
 10
-14.5114
 20
1.4955
 30
0.0
 10
-14.4743
 20
1.4052
 30
0.0
 10
-14.4432
 20
1.2702
 30
0.0
 10
-14.4173
 20
1.0905
 30
0.0
 10
-14.4173
 20
1.0905
 30
0.0
 10
-14.4028
 20
0.9885
 30
0.0
 10
-14.3863
 20
0.916
 30
0.0
 10
-14.368
 20
0.8742
 30
0.0
 10
-14.368
 20
0.8742
 30
0.0
 10
-14.3496
 20
0.8318
 30
0.0
 10
-14.3228
 20
0.7989
 30
0.0
 10
-14.287
 20
0.7763
 30
0.0
 10
-14.287
 20
0.7763
 30
0.0
 10
-14.2518
 20
0.7533
 30
0.0
 10
-14.2127
 20
0.7415
 30
0.0
 10
-14.1695
 20
0.7415
 30
0.0
 10
-14.1695
 20
0.7415
 30
0.0
 10
-14.1031
 20
0.7415
 30
0.0
 10
-14.0481
 20
0.7669
 30
0.0
 10
-14.0039
 20
0.8168
 30
0.0
 10
-14.0039
 20
0.8168
 30
0.0
 10
-13.9601
 20
0.8666
 30
0.0
 10
-13.938
 20
0.94
 30
0.0
 10
-13.938
 20
1.0364
 30
0.0
 10
-13.938
 20
1.0364
 30
0.0
 10
-13.938
 20
1.1319
 30
0.0
 10
-13.9587
 20
1.2171
 30
0.0
 10
-14.0006
 20
1.2914
 30
0.0
 10
-14.0006
 20
1.2914
 30
0.0
 10
-14.0425
 20
1.3657
 30
0.0
 10
-14.0998
 20
1.4207
 30
0.0
 10
-14.1723
 20
1.4555
 30
0.0
 10
-14.1723
 20
1.4555
 30
0.0
 10
-14.2283
 20
1.4823
 30
0.0
 10
-14.311
 20
1.4955
 30
0.0
 10
-14.4202
 20
1.4955
 30
0.0
 10
-14.4202
 20
1.4955
 30
0.0
 10
-14.4202
 20
1.4955
 30
0.0
 10
-14.5114
 20
1.4955
 30
0.0
 10
-14.5114
 20
1.4955
 30
0.0
  0
SPLINE
  5
58
330
1F
100
AcDbEntity
  8
VRSTVA_1
 62
   250
100
AcDbSpline
210
0.0
220
0.0
230
1.0
 70
    11
 71
     3
 72
    64
 73
    60
 74
     0
 42
0.0000000001
 43
0.0000000001
 40
0.0
 40
0.0
 40
0.0
 40
0.0
 40
0.0625
 40
0.0625
 40
0.0625
 40
0.0625
 40
0.125
 40
0.125
 40
0.125
 40
0.125
 40
0.1875
 40
0.1875
 40
0.1875
 40
0.1875
 40
0.25
 40
0.25
 40
0.25
 40
0.25
 40
0.3125
 40
0.3125
 40
0.3125
 40
0.3125
 40
0.375
 40
0.375
 40
0.375
 40
0.375
 40
0.4375
 40
0.4375
 40
0.4375
 40
0.4375
 40
0.5
 40
0.5
 40
0.5
 40
0.5
 40
0.5625
 40
0.5625
 40
0.5625
 40
0.5625
 40
0.625
 40
0.625
 40
0.625
 40
0.625
 40
0.6875
 40
0.6875
 40
0.6875
 40
0.6875
 40
0.75
 40
0.75
 40
0.75
 40
0.75
 40
0.8125
 40
0.8125
 40
0.8125
 40
0.8125
 40
0.875
 40
0.875
 40
0.875
 40
0.875
 40
1.0
 40
1.0
 40
1.0
 40
1.0
 10
-13.7767
 20
1.9654
 30
0.0
 10
-13.7767
 20
1.9654
 30
0.0
 10
-14.5373
 20
2.5002
 30
0.0
 10
-14.5373
 20
2.5002
 30
0.0
 10
-14.5373
 20
2.5002
 30
0.0
 10
-14.5373
 20
2.5002
 30
0.0
 10
-15.24
 20
2.0054
 30
0.0
 10
-15.24
 20
2.0054
 30
0.0
 10
-15.24
 20
2.0054
 30
0.0
 10
-15.24
 20
2.0054
 30
0.0
 10
-15.24
 20
2.3153
 30
0.0
 10
-15.24
 20
2.3153
 30
0.0
 10
-15.24
 20
2.3153
 30
0.0
 10
-15.24
 20
2.3153
 30
0.0
 10
-14.8971
 20
2.5402
 30
0.0
 10
-14.8971
 20
2.5402
 30
0.0
 10
-14.8971
 20
2.5402
 30
0.0
 10
-14.8317
 20
2.582
 30
0.0
 10
-14.7772
 20
2.6164
 30
0.0
 10
-14.733
 20
2.6418
 30
0.0
 10
-14.733
 20
2.6418
 30
0.0
 10
-14.7936
 20
2.6822
 30
0.0
 10
-14.8473
 20
2.7194
 30
0.0
 10
-14.8943
 20
2.7537
 30
0.0
 10
-14.8943
 20
2.7537
 30
0.0
 10
-14.8943
 20
2.7537
 30
0.0
 10
-15.24
 20
3.0002
 30
0.0
 10
-15.24
 20
3.0002
 30
0.0
 10
-15.24
 20
3.0002
 30
0.0
 10
-15.24
 20
3.0002
 30
0.0
 10
-15.24
 20
3.2965
 30
0.0
 10
-15.24
 20
3.2965
 30
0.0
 10
-15.24
 20
3.2965
 30
0.0
 10
-15.24
 20
3.2965
 30
0.0
 10
-14.5509
 20
2.7909
 30
0.0
 10
-14.5509
 20
2.7909
 30
0.0
 10
-14.5509
 20
2.7909
 30
0.0
 10
-14.5509
 20
2.7909
 30
0.0
 10
-13.7767
 20
3.3351
 30
0.0
 10
-13.7767
 20
3.3351
 30
0.0
 10
-13.7767
 20
3.3351
 30
0.0
 10
-13.7767
 20
3.3351
 30
0.0
 10
-13.7767
 20
3.0308
 30
0.0
 10
-13.7767
 20
3.0308
 30
0.0
 10
-13.7767
 20
3.0308
 30
0.0
 10
-13.7767
 20
3.0308
 30
0.0
 10
-14.2315
 20
2.7302
 30
0.0
 10
-14.2315
 20
2.7302
 30
0.0
 10
-14.2315
 20
2.7302
 30
0.0
 10
-14.2315
 20
2.7302
 30
0.0
 10
-14.3543
 20
2.6503
 30
0.0
 10
-14.3543
 20
2.6503
 30
0.0
 10
-14.3543
 20
2.6503
 30
0.0
 10
-14.3543
 20
2.6503
 30
0.0
 10
-13.7767
 20
2.266
 30
0.0
 10
-13.7767
 20
2.266
 30
0.0
 10
-13.7767
 20
2.266
 30
0.0
 10
-13.7767
 20
2.266
 30
0.0
 10
-13.7767
 20
1.9654
 30
0.0
 10
-13.7767
 20
1.9654
 30
0.0
  0
SPLINE
  5
59
330
1F
100
AcDbEntity
  8
VRSTVA_1
 62
   250
100
AcDbSpline
210
0.0
220
0.0
230
1.0
 70
    11
 71
     3
 72
    48
 73
    44
 74
     0
 42
0.0000000001
 43
0.0000000001
 40
0.0
 40
0.0
 40
0.0
 40
0.0
 40
0.0833333333333333
 40
0.0833333333333333
 40
0.0833333333333333
 40
0.0833333333333333
 40
0.1666666666666667
 40
0.1666666666666667
 40
0.1666666666666667
 40
0.1666666666666667
 40
0.25
 40
0.25
 40
0.25
 40
0.25
 40
0.3333333333333333
 40
0.3333333333333333
 40
0.3333333333333333
 40
0.3333333333333333
 40
0.4166666666666667
 40
0.4166666666666667
 40
0.4166666666666667
 40
0.4166666666666667
 40
0.5
 40
0.5
 40
0.5
 40
0.5
 40
0.5833333333333334
 40
0.5833333333333334
 40
0.5833333333333334
 40
0.5833333333333334
 40
0.6666666666666666
 40
0.6666666666666666
 40
0.6666666666666666
 40
0.6666666666666666
 40
0.75
 40
0.75
 40
0.75
 40
0.75
 40
0.8333333333333334
 40
0.8333333333333334
 40
0.8333333333333334
 40
0.8333333333333334
 40
1.0
 40
1.0
 40
1.0
 40
1.0
 10
-13.7767
 20
5.0519
 30
0.0
 10
-13.7767
 20
5.0519
 30
0.0
 10
-14.2602
 20
5.0519
 30
0.0
 10
-14.2602
 20
5.0519
 30
0.0
 10
-14.2602
 20
5.0519
 30
0.0
 10
-14.2602
 20
5.0519
 30
0.0
 10
-14.2602
 20
4.1756
 30
0.0
 10
-14.2602
 20
4.1756
 30
0.0
 10
-14.2602
 20
4.1756
 30
0.0
 10
-14.2602
 20
4.1756
 30
0.0
 10
-14.4879
 20
4.1756
 30
0.0
 10
-14.4879
 20
4.1756
 30
0.0
 10
-14.4879
 20
4.1756
 30
0.0
 10
-14.4879
 20
4.1756
 30
0.0
 10
-15.7969
 20
5.0976
 30
0.0
 10
-15.7969
 20
5.0976
 30
0.0
 10
-15.7969
 20
5.0976
 30
0.0
 10
-15.7969
 20
5.0976
 30
0.0
 10
-15.7969
 20
5.3003
 30
0.0
 10
-15.7969
 20
5.3003
 30
0.0
 10
-15.7969
 20
5.3003
 30
0.0
 10
-15.7969
 20
5.3003
 30
0.0
 10
-14.4879
 20
5.3003
 30
0.0
 10
-14.4879
 20
5.3003
 30
0.0
 10
-14.4879
 20
5.3003
 30
0.0
 10
-14.4879
 20
5.3003
 30
0.0
 10
-14.4879
 20
5.5731
 30
0.0
 10
-14.4879
 20
5.5731
 30
0.0
 10
-14.4879
 20
5.5731
 30
0.0
 10
-14.4879
 20
5.5731
 30
0.0
 10
-14.2602
 20
5.5731
 30
0.0
 10
-14.2602
 20
5.5731
 30
0.0
 10
-14.2602
 20
5.5731
 30
0.0
 10
-14.2602
 20
5.5731
 30
0.0
 10
-14.2602
 20
5.3003
 30
0.0
 10
-14.2602
 20
5.3003
 30
0.0
 10
-14.2602
 20
5.3003
 30
0.0
 10
-14.2602
 20
5.3003
 30
0.0
 10
-13.7767
 20
5.3003
 30
0.0
 10
-13.7767
 20
5.3003
 30
0.0
 10
-13.7767
 20
5.3003
 30
0.0
 10
-13.7767
 20
5.3003
 30
0.0
 10
-13.7767
 20
5.0519
 30
0.0
 10
-13.7767
 20
5.0519
 30
0.0
  0
SPLINE
  5
5A
330
1F
100
AcDbEntity
  8
VRSTVA_1
 62
   250
100
AcDbSpline
210
0.0
220
0.0
230
1.0
 70
    11
 71
     3
 72
    16
 73
    12
 74
     0
 42
0.0000000001
 43
0.0000000001
 40
0.0
 40
0.0
 40
0.0
 40
0.0
 40
0.25
 40
0.25
 40
0.25
 40
0.25
 40
0.5
 40
0.5
 40
0.5
 40
0.5
 40
1.0
 40
1.0
 40
1.0
 40
1.0
 10
-14.4879
 20
5.0519
 30
0.0
 10
-14.4879
 20
5.0519
 30
0.0
 10
-15.3985
 20
5.0519
 30
0.0
 10
-15.3985
 20
5.0519
 30
0.0
 10
-15.3985
 20
5.0519
 30
0.0
 10
-15.3985
 20
5.0519
 30
0.0
 10
-14.4879
 20
4.4198
 30
0.0
 10
-14.4879
 20
4.4198
 30
0.0
 10
-14.4879
 20
4.4198
 30
0.0
 10
-14.4879
 20
4.4198
 30
0.0
 10
-14.4879
 20
5.0519
 30
0.0
 10
-14.4879
 20
5.0519
 30
0.0
  0
SPLINE
  5
5B
330
1F
100
AcDbEntity
  8
VRSTVA_1
 62
   250
100
AcDbSpline
210
0.0
220
0.0
230
1.0
 70
    11
 71
     3
 72
    92
 73
    88
 74
     0
 42
0.0000000001
 43
0.0000000001
 40
0.0
 40
0.0
 40
0.0
 40
0.0
 40
0.0434782608695652
 40
0.0434782608695652
 40
0.0434782608695652
 40
0.0434782608695652
 40
0.0869565217391304
 40
0.0869565217391304
 40
0.0869565217391304
 40
0.0869565217391304
 40
0.1304347826086956
 40
0.1304347826086956
 40
0.1304347826086956
 40
0.1304347826086956
 40
0.1739130434782609
 40
0.1739130434782609
 40
0.1739130434782609
 40
0.1739130434782609
 40
0.2173913043478261
 40
0.2173913043478261
 40
0.2173913043478261
 40
0.2173913043478261
 40
0.2608695652173913
 40
0.2608695652173913
 40
0.2608695652173913
 40
0.2608695652173913
 40
0.3043478260869565
 40
0.3043478260869565
 40
0.3043478260869565
 40
0.3043478260869565
 40
0.3478260869565217
 40
0.3478260869565217
 40
0.3478260869565217
 40
0.3478260869565217
 40
0.391304347826087
 40
0.391304347826087
 40
0.391304347826087
 40
0.391304347826087
 40
0.4347826086956522
 40
0.4347826086956522
 40
0.4347826086956522
 40
0.4347826086956522
 40
0.4782608695652174
 40
0.4782608695652174
 40
0.4782608695652174
 40
0.4782608695652174
 40
0.5217391304347826
 40
0.5217391304347826
 40
0.5217391304347826
 40
0.5217391304347826
 40
0.5652173913043478
 40
0.5652173913043478
 40
0.5652173913043478
 40
0.5652173913043478
 40
0.6086956521739131
 40
0.6086956521739131
 40
0.6086956521739131
 40
0.6086956521739131
 40
0.6521739130434783
 40
0.6521739130434783
 40
0.6521739130434783
 40
0.6521739130434783
 40
0.6956521739130435
 40
0.6956521739130435
 40
0.6956521739130435
 40
0.6956521739130435
 40
0.7391304347826086
 40
0.7391304347826086
 40
0.7391304347826086
 40
0.7391304347826086
 40
0.782608695652174
 40
0.782608695652174
 40
0.782608695652174
 40
0.782608695652174
 40
0.8260869565217391
 40
0.8260869565217391
 40
0.8260869565217391
 40
0.8260869565217391
 40
0.8695652173913043
 40
0.8695652173913043
 40
0.8695652173913043
 40
0.8695652173913043
 40
0.9130434782608695
 40
0.9130434782608695
 40
0.9130434782608695
 40
0.9130434782608695
 40
1.0
 40
1.0
 40
1.0
 40
1.0
 10
-14.3059
 20
5.8266
 30
0.0
 10
-14.3059
 20
5.8266
 30
0.0
 10
-14.328
 20
6.0872
 30
0.0
 10
-14.328
 20
6.0872
 30
0.0
 10
-14.328
 20
6.0872
 30
0.0
 10
-14.201
 20
6.1065
 30
0.0
 10
-14.106
 20
6.1512
 30
0.0
 10
-14.042
 20
6.2213
 30
0.0
 10
-14.042
 20
6.2213
 30
0.0
 10
-13.978
 20
6.2918
 30
0.0
 10
-13.946
 20
6.3765
 30
0.0
 10
-13.946
 20
6.4757
 30
0.0
 10
-13.946
 20
6.4757
 30
0.0
 10
-13.946
 20
6.5952
 30
0.0
 10
-13.9912
 20
6.6963
 30
0.0
 10
-14.081
 20
6.7786
 30
0.0
 10
-14.081
 20
6.7786
 30
0.0
 10
-14.1713
 20
6.8614
 30
0.0
 10
-14.2908
 20
6.9028
 30
0.0
 10
-14.4394
 20
6.9028
 30
0.0
 10
-14.4394
 20
6.9028
 30
0.0
 10
-14.581
 20
6.9028
 30
0.0
 10
-14.6925
 20
6.8633
 30
0.0
 10
-14.7743
 20
6.7838
 30
0.0
 10
-14.7743
 20
6.7838
 30
0.0
 10
-14.8562
 20
6.7043
 30
0.0
 10
-14.8971
 20
6.6004
 30
0.0
 10
-14.8971
 20
6.4715
 30
0.0
 10
-14.8971
 20
6.4715
 30
0.0
 10
-14.8971
 20
6.3915
 30
0.0
 10
-14.8788
 20
6.3196
 30
0.0
 10
-14.8426
 20
6.2551
 30
0.0
 10
-14.8426
 20
6.2551
 30
0.0
 10
-14.8063
 20
6.1907
 30
0.0
 10
-14.7593
 20
6.1404
 30
0.0
 10
-14.7014
 20
6.1037
 30
0.0
 10
-14.7014
 20
6.1037
 30
0.0
 10
-14.7014
 20
6.1037
 30
0.0
 10
-14.7315
 20
5.8708
 30
0.0
 10
-14.7315
 20
5.8708
 30
0.0
 10
-14.7315
 20
5.8708
 30
0.0
 10
-14.7315
 20
5.8708
 30
0.0
 10
-15.7692
 20
6.0665
 30
0.0
 10
-15.7692
 20
6.0665
 30
0.0
 10
-15.7692
 20
6.0665
 30
0.0
 10
-15.7692
 20
6.0665
 30
0.0
 10
-15.7692
 20
7.0712
 30
0.0
 10
-15.7692
 20
7.0712
 30
0.0
 10
-15.7692
 20
7.0712
 30
0.0
 10
-15.7692
 20
7.0712
 30
0.0
 10
-15.5321
 20
7.0712
 30
0.0
 10
-15.5321
 20
7.0712
 30
0.0
 10
-15.5321
 20
7.0712
 30
0.0
 10
-15.5321
 20
7.0712
 30
0.0
 10
-15.5321
 20
6.265
 30
0.0
 10
-15.5321
 20
6.265
 30
0.0
 10
-15.5321
 20
6.265
 30
0.0
 10
-15.5321
 20
6.265
 30
0.0
 10
-14.9893
 20
6.1559
 30
0.0
 10
-14.9893
 20
6.1559
 30
0.0
 10
-14.9893
 20
6.1559
 30
0.0
 10
-15.074
 20
6.2772
 30
0.0
 10
-15.1163
 20
6.4047
 30
0.0
 10
-15.1163
 20
6.5378
 30
0.0
 10
-15.1163
 20
6.5378
 30
0.0
 10
-15.1163
 20
6.7142
 30
0.0
 10
-15.0552
 20
6.8628
 30
0.0
 10
-14.9329
 20
6.9842
 30
0.0
 10
-14.9329
 20
6.9842
 30
0.0
 10
-14.8106
 20
7.1055
 30
0.0
 10
-14.6535
 20
7.1662
 30
0.0
 10
-14.4616
 20
7.1662
 30
0.0
 10
-14.4616
 20
7.1662
 30
0.0
 10
-14.2786
 20
7.1662
 30
0.0
 10
-14.1205
 20
7.1126
 30
0.0
 10
-13.9874
 20
7.0063
 30
0.0
 10
-13.9874
 20
7.0063
 30
0.0
 10
-13.8242
 20
6.8765
 30
0.0
 10
-13.7424
 20
6.6996
 30
0.0
 10
-13.7424
 20
6.4757
 30
0.0
 10
-13.7424
 20
6.4757
 30
0.0
 10
-13.7424
 20
6.2918
 30
0.0
 10
-13.7936
 20
6.1418
 30
0.0
 10
-13.8966
 20
6.0256
 30
0.0
 10
-13.8966
 20
6.0256
 30
0.0
 10
-13.9997
 20
5.9094
 30
0.0
 10
-14.1361
 20
5.8431
 30
0.0
 10
-14.3059
 20
5.8266
 30
0.0
  0
SPLINE
  5
5C
330
1F
100
AcDbEntity
  8
VRSTVA_1
 62
   250
100
AcDbSpline
210
0.0
220
0.0
230
1.0
 70
    11
 71
     3
 72
    40
 73
    36
 74
     0
 42
0.0000000001
 43
0.0000000001
 40
0.0
 40
0.0
 40
0.0
 40
0.0
 40
0.1
 40
0.1
 40
0.1
 40
0.1
 40
0.2
 40
0.2
 40
0.2
 40
0.2
 40
0.3
 40
0.3
 40
0.3
 40
0.3
 40
0.4
 40
0.4
 40
0.4
 40
0.4
 40
0.5
 40
0.5
 40
0.5
 40
0.5
 40
0.6
 40
0.6
 40
0.6
 40
0.6
 40
0.7
 40
0.7
 40
0.7
 40
0.7
 40
0.8
 40
0.8
 40
0.8
 40
0.8
 40
1.0
 40
1.0
 40
1.0
 40
1.0
 10
-13.6274
 20
-7.3458
 30
0.0
 10
-13.6274
 20
-7.3458
 30
0.0
 10
-13.6274
 20
-7.5937
 30
0.0
 10
-13.6274
 20
-7.5937
 30
0.0
 10
-13.6274
 20
-7.5937
 30
0.0
 10
-13.6274
 20
-7.5937
 30
0.0
 10
-15.2078
 20
-7.5937
 30
0.0
 10
-15.2078
 20
-7.5937
 30
0.0
 10
-15.2078
 20
-7.5937
 30
0.0
 10
-15.1509
 20
-7.6535
 30
0.0
 10
-15.094
 20
-7.7315
 30
0.0
 10
-15.0371
 20
-7.8284
 30
0.0
 10
-15.0371
 20
-7.8284
 30
0.0
 10
-14.9802
 20
-7.9258
 30
0.0
 10
-14.9374
 20
-8.0128
 30
0.0
 10
-14.9091
 20
-8.09
 30
0.0
 10
-14.9091
 20
-8.09
 30
0.0
 10
-14.9091
 20
-8.09
 30
0.0
 10
-15.1486
 20
-8.09
 30
0.0
 10
-15.1486
 20
-8.09
 30
0.0
 10
-15.1486
 20
-8.09
 30
0.0
 10
-15.2139
 20
-7.9512
 30
0.0
 10
-15.293
 20
-7.8298
 30
0.0
 10
-15.3856
 20
-7.7259
 30
0.0
 10
-15.3856
 20
-7.7259
 30
0.0
 10
-15.4788
 20
-7.6224
 30
0.0
 10
-15.5686
 20
-7.5486
 30
0.0
 10
-15.6561
 20
-7.5053
 30
0.0
 10
-15.6561
 20
-7.5053
 30
0.0
 10
-15.6561
 20
-7.5053
 30
0.0
 10
-15.6561
 20
-7.3458
 30
0.0
 10
-15.6561
 20
-7.3458
 30
0.0
 10
-15.6561
 20
-7.3458
 30
0.0
 10
-15.6561
 20
-7.3458
 30
0.0
 10
-13.6274
 20
-7.3458
 30
0.0
 10
-13.6274
 20
-7.3458
 30
0.0
  0
SPLINE
  5
5D
330
1F
100
AcDbEntity
  8
VRSTVA_1
 62
   250
100
AcDbSpline
210
0.0
220
0.0
230
1.0
 70
    11
 71
     3
 72
    68
 73
    64
 74
     0
 42
0.0000000001
 43
0.0000000001
 40
0.0
 40
0.0
 40
0.0
 40
0.0
 40
0.0588235294117647
 40
0.0588235294117647
 40
0.0588235294117647
 40
0.0588235294117647
 40
0.1176470588235294
 40
0.1176470588235294
 40
0.1176470588235294
 40
0.1176470588235294
 40
0.1764705882352941
 40
0.1764705882352941
 40
0.1764705882352941
 40
0.1764705882352941
 40
0.2352941176470588
 40
0.2352941176470588
 40
0.2352941176470588
 40
0.2352941176470588
 40
0.2941176470588235
 40
0.2941176470588235
 40
0.2941176470588235
 40
0.2941176470588235
 40
0.3529411764705883
 40
0.3529411764705883
 40
0.3529411764705883
 40
0.3529411764705883
 40
0.4117647058823529
 40
0.4117647058823529
 40
0.4117647058823529
 40
0.4117647058823529
 40
0.4705882352941176
 40
0.4705882352941176
 40
0.4705882352941176
 40
0.4705882352941176
 40
0.5294117647058824
 40
0.5294117647058824
 40
0.5294117647058824
 40
0.5294117647058824
 40
0.5882352941176471
 40
0.5882352941176471
 40
0.5882352941176471
 40
0.5882352941176471
 40
0.6470588235294118
 40
0.6470588235294118
 40
0.6470588235294118
 40
0.6470588235294118
 40
0.7058823529411765
 40
0.7058823529411765
 40
0.7058823529411765
 40
0.7058823529411765
 40
0.7647058823529411
 40
0.7647058823529411
 40
0.7647058823529411
 40
0.7647058823529411
 40
0.8235294117647058
 40
0.8235294117647058
 40
0.8235294117647058
 40
0.8235294117647058
 40
0.8823529411764706
 40
0.8823529411764706
 40
0.8823529411764706
 40
0.8823529411764706
 40
1.0
 40
1.0
 40
1.0
 40
1.0
 10
-14.7229
 20
-6.3284
 30
0.0
 10
-14.7605
 20
-6.4315
 30
0.0
 10
-14.8141
 20
-6.5077
 30
0.0
 10
-14.8842
 20
-6.5575
 30
0.0
 10
-14.8842
 20
-6.5575
 30
0.0
 10
-14.9538
 20
-6.6069
 30
0.0
 10
-15.0376
 20
-6.6318
 30
0.0
 10
-15.1349
 20
-6.6318
 30
0.0
 10
-15.1349
 20
-6.6318
 30
0.0
 10
-15.2821
 20
-6.6318
 30
0.0
 10
-15.4054
 20
-6.5791
 30
0.0
 10
-15.5056
 20
-6.4733
 30
0.0
 10
-15.5056
 20
-6.4733
 30
0.0
 10
-15.6058
 20
-6.3675
 30
0.0
 10
-15.6561
 20
-6.2273
 30
0.0
 10
-15.6561
 20
-6.0519
 30
0.0
 10
-15.6561
 20
-6.0519
 30
0.0
 10
-15.6561
 20
-5.8755
 30
0.0
 10
-15.6048
 20
-5.7334
 30
0.0
 10
-15.5023
 20
-5.6257
 30
0.0
 10
-15.5023
 20
-5.6257
 30
0.0
 10
-15.3997
 20
-5.5185
 30
0.0
 10
-15.2751
 20
-5.4648
 30
0.0
 10
-15.1279
 20
-5.4648
 30
0.0
 10
-15.1279
 20
-5.4648
 30
0.0
 10
-15.0343
 20
-5.4648
 30
0.0
 10
-14.9529
 20
-5.4893
 30
0.0
 10
-14.8833
 20
-5.5382
 30
0.0
 10
-14.8833
 20
-5.5382
 30
0.0
 10
-14.8141
 20
-5.5876
 30
0.0
 10
-14.7605
 20
-5.6619
 30
0.0
 10
-14.7229
 20
-5.7621
 30
0.0
 10
-14.7229
 20
-5.7621
 30
0.0
 10
-14.6824
 20
-5.6384
 30
0.0
 10
-14.6175
 20
-5.5439
 30
0.0
 10
-14.5272
 20
-5.479
 30
0.0
 10
-14.5272
 20
-5.479
 30
0.0
 10
-14.4374
 20
-5.4145
 30
0.0
 10
-14.3297
 20
-5.3821
 30
0.0
 10
-14.205
 20
-5.3821
 30
0.0
 10
-14.205
 20
-5.3821
 30
0.0
 10
-14.0319
 20
-5.3821
 30
0.0
 10
-13.887
 20
-5.4432
 30
0.0
 10
-13.7695
 20
-5.565
 30
0.0
 10
-13.7695
 20
-5.565
 30
0.0
 10
-13.6519
 20
-5.6873
 30
0.0
 10
-13.5931
 20
-5.8482
 30
0.0
 10
-13.5931
 20
-6.0476
 30
0.0
 10
-13.5931
 20
-6.0476
 30
0.0
 10
-13.5931
 20
-6.2471
 30
0.0
 10
-13.6519
 20
-6.4075
 30
0.0
 10
-13.7699
 20
-6.5298
 30
0.0
 10
-13.7699
 20
-6.5298
 30
0.0
 10
-13.888
 20
-6.6521
 30
0.0
 10
-14.0352
 20
-6.7132
 30
0.0
 10
-14.2116
 20
-6.7132
 30
0.0
 10
-14.2116
 20
-6.7132
 30
0.0
 10
-14.3428
 20
-6.7132
 30
0.0
 10
-14.4529
 20
-6.6798
 30
0.0
 10
-14.5418
 20
-6.613
 30
0.0
 10
-14.5418
 20
-6.613
 30
0.0
 10
-14.6302
 20
-6.5467
 30
0.0
 10
-14.6909
 20
-6.4517
 30
0.0
 10
-14.7229
 20
-6.3284
 30
0.0
  0
SPLINE
  5
5E
330
1F
100
AcDbEntity
  8
VRSTVA_1
 62
   250
100
AcDbSpline
210
0.0
220
0.0
230
1.0
 70
    11
 71
     3
 72
    36
 73
    32
 74
     0
 42
0.0000000001
 43
0.0000000001
 40
0.0
 40
0.0
 40
0.0
 40
0.0
 40
0.1111111111111111
 40
0.1111111111111111
 40
0.1111111111111111
 40
0.1111111111111111
 40
0.2222222222222222
 40
0.2222222222222222
 40
0.2222222222222222
 40
0.2222222222222222
 40
0.3333333333333333
 40
0.3333333333333333
 40
0.3333333333333333
 40
0.3333333333333333
 40
0.4444444444444444
 40
0.4444444444444444
 40
0.4444444444444444
 40
0.4444444444444444
 40
0.5555555555555556
 40
0.5555555555555556
 40
0.5555555555555556
 40
0.5555555555555556
 40
0.6666666666666666
 40
0.6666666666666666
 40
0.6666666666666666
 40
0.6666666666666666
 40
0.7777777777777778
 40
0.7777777777777778
 40
0.7777777777777778
 40
0.7777777777777778
 40
1.0
 40
1.0
 40
1.0
 40
1.0
 10
-15.1434
 20
-6.3783
 30
0.0
 10
-15.0479
 20
-6.3783
 30
0.0
 10
-14.9698
 20
-6.3473
 30
0.0
 10
-14.9091
 20
-6.2861
 30
0.0
 10
-14.9091
 20
-6.2861
 30
0.0
 10
-14.8485
 20
-6.2245
 30
0.0
 10
-14.8179
 20
-6.1445
 30
0.0
 10
-14.8179
 20
-6.0462
 30
0.0
 10
-14.8179
 20
-6.0462
 30
0.0
 10
-14.8179
 20
-5.9507
 30
0.0
 10
-14.848
 20
-5.8722
 30
0.0
 10
-14.9082
 20
-5.811
 30
0.0
 10
-14.9082
 20
-5.811
 30
0.0
 10
-14.9684
 20
-5.7499
 30
0.0
 10
-15.0423
 20
-5.7198
 30
0.0
 10
-15.1293
 20
-5.7198
 30
0.0
 10
-15.1293
 20
-5.7198
 30
0.0
 10
-15.2205
 20
-5.7198
 30
0.0
 10
-15.2967
 20
-5.7508
 30
0.0
 10
-15.3588
 20
-5.8139
 30
0.0
 10
-15.3588
 20
-5.8139
 30
0.0
 10
-15.4209
 20
-5.8769
 30
0.0
 10
-15.452
 20
-5.955
 30
0.0
 10
-15.452
 20
-6.049
 30
0.0
 10
-15.452
 20
-6.049
 30
0.0
 10
-15.452
 20
-6.1436
 30
0.0
 10
-15.4214
 20
-6.2221
 30
0.0
 10
-15.3612
 20
-6.2847
 30
0.0
 10
-15.3612
 20
-6.2847
 30
0.0
 10
-15.3005
 20
-6.3473
 30
0.0
 10
-15.2276
 20
-6.3783
 30
0.0
 10
-15.1434
 20
-6.3783
 30
0.0
  0
SPLINE
  5
5F
330
1F
100
AcDbEntity
  8
VRSTVA_1
 62
   250
100
AcDbSpline
210
0.0
220
0.0
230
1.0
 70
    11
 71
     3
 72
    40
 73
    36
 74
     0
 42
0.0000000001
 43
0.0000000001
 40
0.0
 40
0.0
 40
0.0
 40
0.0
 40
0.1
 40
0.1
 40
0.1
 40
0.1
 40
0.2
 40
0.2
 40
0.2
 40
0.2
 40
0.3
 40
0.3
 40
0.3
 40
0.3
 40
0.4
 40
0.4
 40
0.4
 40
0.4
 40
0.5
 40
0.5
 40
0.5
 40
0.5
 40
0.6
 40
0.6
 40
0.6
 40
0.6
 40
0.7
 40
0.7
 40
0.7
 40
0.7
 40
0.8
 40
0.8
 40
0.8
 40
0.8
 40
1.0
 40
1.0
 40
1.0
 40
1.0
 10
-14.2102
 20
-6.4583
 30
0.0
 10
-14.1396
 20
-6.4583
 30
0.0
 10
-14.071
 20
-6.4413
 30
0.0
 10
-14.0051
 20
-6.4079
 30
0.0
 10
-14.0051
 20
-6.4079
 30
0.0
 10
-13.9388
 20
-6.3745
 30
0.0
 10
-13.8875
 20
-6.3247
 30
0.0
 10
-13.8513
 20
-6.2584
 30
0.0
 10
-13.8513
 20
-6.2584
 30
0.0
 10
-13.8151
 20
-6.192
 30
0.0
 10
-13.7967
 20
-6.121
 30
0.0
 10
-13.7967
 20
-6.0448
 30
0.0
 10
-13.7967
 20
-6.0448
 30
0.0
 10
-13.7967
 20
-5.9263
 30
0.0
 10
-13.8348
 20
-5.8284
 30
0.0
 10
-13.9115
 20
-5.7513
 30
0.0
 10
-13.9115
 20
-5.7513
 30
0.0
 10
-13.9877
 20
-5.6742
 30
0.0
 10
-14.0846
 20
-5.6356
 30
0.0
 10
-14.2022
 20
-5.6356
 30
0.0
 10
-14.2022
 20
-5.6356
 30
0.0
 10
-14.3217
 20
-5.6356
 30
0.0
 10
-14.4204
 20
-5.6751
 30
0.0
 10
-14.4985
 20
-5.7546
 30
0.0
 10
-14.4985
 20
-5.7546
 30
0.0
 10
-14.5766
 20
-5.8341
 30
0.0
 10
-14.6156
 20
-5.9338
 30
0.0
 10
-14.6156
 20
-6.0533
 30
0.0
 10
-14.6156
 20
-6.0533
 30
0.0
 10
-14.6156
 20
-6.1699
 30
0.0
 10
-14.5771
 20
-6.2664
 30
0.0
 10
-14.4999
 20
-6.343
 30
0.0
 10
-14.4999
 20
-6.343
 30
0.0
 10
-14.4223
 20
-6.4197
 30
0.0
 10
-14.3259
 20
-6.4583
 30
0.0
 10
-14.2102
 20
-6.4583
 30
0.0
  0
SPLINE
  5
60
330
1F
100
AcDbEntity
  8
VRSTVA_1
 62
   250
100
AcDbSpline
210
0.0
220
0.0
230
1.0
 70
    11
 71
     3
 72
    84
 73
    80
 74
     0
 42
0.0000000001
 43
0.0000000001
 40
0.0
 40
0.0
 40
0.0
 40
0.0
 40
0.0476190476190476
 40
0.0476190476190476
 40
0.0476190476190476
 40
0.0476190476190476
 40
0.0952380952380952
 40
0.0952380952380952
 40
0.0952380952380952
 40
0.0952380952380952
 40
0.1428571428571428
 40
0.1428571428571428
 40
0.1428571428571428
 40
0.1428571428571428
 40
0.1904761904761905
 40
0.1904761904761905
 40
0.1904761904761905
 40
0.1904761904761905
 40
0.2380952380952381
 40
0.2380952380952381
 40
0.2380952380952381
 40
0.2380952380952381
 40
0.2857142857142857
 40
0.2857142857142857
 40
0.2857142857142857
 40
0.2857142857142857
 40
0.3333333333333333
 40
0.3333333333333333
 40
0.3333333333333333
 40
0.3333333333333333
 40
0.3809523809523809
 40
0.3809523809523809
 40
0.3809523809523809
 40
0.3809523809523809
 40
0.4285714285714285
 40
0.4285714285714285
 40
0.4285714285714285
 40
0.4285714285714285
 40
0.4761904761904762
 40
0.4761904761904762
 40
0.4761904761904762
 40
0.4761904761904762
 40
0.5238095238095238
 40
0.5238095238095238
 40
0.5238095238095238
 40
0.5238095238095238
 40
0.5714285714285714
 40
0.5714285714285714
 40
0.5714285714285714
 40
0.5714285714285714
 40
0.6190476190476191
 40
0.6190476190476191
 40
0.6190476190476191
 40
0.6190476190476191
 40
0.6666666666666666
 40
0.6666666666666666
 40
0.6666666666666666
 40
0.6666666666666666
 40
0.7142857142857143
 40
0.7142857142857143
 40
0.7142857142857143
 40
0.7142857142857143
 40
0.7619047619047619
 40
0.7619047619047619
 40
0.7619047619047619
 40
0.7619047619047619
 40
0.8095238095238095
 40
0.8095238095238095
 40
0.8095238095238095
 40
0.8095238095238095
 40
0.8571428571428571
 40
0.8571428571428571
 40
0.8571428571428571
 40
0.8571428571428571
 40
0.9047619047619048
 40
0.9047619047619048
 40
0.9047619047619048
 40
0.9047619047619048
 40
1.0
 40
1.0
 40
1.0
 40
1.0
 10
2.8407
 20
27.0103
 30
0.0
 10
2.8407
 20
27.0103
 30
0.0
 10
3.0721
 20
27.2694
 30
0.0
 10
3.0721
 20
27.2694
 30
0.0
 10
3.0721
 20
27.2694
 30
0.0
 10
3.0721
 20
27.2694
 30
0.0
 10
3.2085
 20
27.1537
 30
0.0
 10
3.2085
 20
27.1537
 30
0.0
 10
3.2085
 20
27.1537
 30
0.0
 10
3.2085
 20
27.1537
 30
0.0
 10
2.9663
 20
26.8809
 30
0.0
 10
2.9663
 20
26.8809
 30
0.0
 10
2.9663
 20
26.8809
 30
0.0
 10
3.0453
 20
26.7633
 30
0.0
 10
3.0984
 20
26.6603
 30
0.0
 10
3.1262
 20
26.5724
 30
0.0
 10
3.1262
 20
26.5724
 30
0.0
 10
3.1629
 20
26.4566
 30
0.0
 10
3.1812
 20
26.3268
 30
0.0
 10
3.1812
 20
26.1838
 30
0.0
 10
3.1812
 20
26.1838
 30
0.0
 10
3.1812
 20
25.9769
 30
0.0
 10
3.1394
 20
25.7925
 30
0.0
 10
3.0556
 20
25.6312
 30
0.0
 10
3.0556
 20
25.6312
 30
0.0
 10
2.9719
 20
25.4693
 30
0.0
 10
2.8548
 20
25.3471
 30
0.0
 10
2.7038
 20
25.2643
 30
0.0
 10
2.7038
 20
25.2643
 30
0.0
 10
2.5523
 20
25.182
 30
0.0
 10
2.392
 20
25.1406
 30
0.0
 10
2.2222
 20
25.1406
 30
0.0
 10
2.2222
 20
25.1406
 30
0.0
 10
2.0952
 20
25.1406
 30
0.0
 10
1.9804
 20
25.1584
 30
0.0
 10
1.8774
 20
25.1942
 30
0.0
 10
1.8774
 20
25.1942
 30
0.0
 10
1.7984
 20
25.2219
 30
0.0
 10
1.7062
 20
25.2746
 30
0.0
 10
1.6003
 20
25.3527
 30
0.0
 10
1.6003
 20
25.3527
 30
0.0
 10
1.6003
 20
25.3527
 30
0.0
 10
1.3689
 20
25.0935
 30
0.0
 10
1.3689
 20
25.0935
 30
0.0
 10
1.3689
 20
25.0935
 30
0.0
 10
1.3689
 20
25.0935
 30
0.0
 10
1.2325
 20
25.2092
 30
0.0
 10
1.2325
 20
25.2092
 30
0.0
 10
1.2325
 20
25.2092
 30
0.0
 10
1.2325
 20
25.2092
 30
0.0
 10
1.4752
 20
25.4806
 30
0.0
 10
1.4752
 20
25.4806
 30
0.0
 10
1.4752
 20
25.4806
 30
0.0
 10
1.3849
 20
25.6175
 30
0.0
 10
1.3247
 20
25.7346
 30
0.0
 10
1.2946
 20
25.8315
 30
0.0
 10
1.2946
 20
25.8315
 30
0.0
 10
1.2645
 20
25.9284
 30
0.0
 10
1.249
 20
26.0451
 30
0.0
 10
1.249
 20
26.181
 30
0.0
 10
1.249
 20
26.181
 30
0.0
 10
1.249
 20
26.3884
 30
0.0
 10
1.2904
 20
26.5733
 30
0.0
 10
1.3731
 20
26.7356
 30
0.0
 10
1.3731
 20
26.7356
 30
0.0
 10
1.4559
 20
26.8979
 30
0.0
 10
1.5716
 20
27.0206
 30
0.0
 10
1.7212
 20
27.1043
 30
0.0
 10
1.7212
 20
27.1043
 30
0.0
 10
1.8703
 20
27.1876
 30
0.0
 10
2.0364
 20
27.2295
 30
0.0
 10
2.2193
 20
27.2295
 30
0.0
 10
2.2193
 20
27.2295
 30
0.0
 10
2.3426
 20
27.2295
 30
0.0
 10
2.4503
 20
27.2135
 30
0.0
 10
2.5425
 20
27.1805
 30
0.0
 10
2.5425
 20
27.1805
 30
0.0
 10
2.6347
 20
27.1481
 30
0.0
 10
2.7344
 20
27.0912
 30
0.0
 10
2.8407
 20
27.0103
 30
0.0
  0
SPLINE
  5
61
330
1F
100
AcDbEntity
  8
VRSTVA_1
 62
   250
100
AcDbSpline
210
0.0
220
0.0
230
1.0
 70
    11
 71
     3
 72
    32
 73
    28
 74
     0
 42
0.0000000001
 43
0.0000000001
 40
0.0
 40
0.0
 40
0.0
 40
0.0
 40
0.125
 40
0.125
 40
0.125
 40
0.125
 40
0.25
 40
0.25
 40
0.25
 40
0.25
 40
0.375
 40
0.375
 40
0.375
 40
0.375
 40
0.5
 40
0.5
 40
0.5
 40
0.5
 40
0.625
 40
0.625
 40
0.625
 40
0.625
 40
0.75
 40
0.75
 40
0.75
 40
0.75
 40
1.0
 40
1.0
 40
1.0
 40
1.0
 10
2.6756
 20
26.8245
 30
0.0
 10
2.589
 20
26.8922
 30
0.0
 10
2.5133
 20
26.9388
 30
0.0
 10
2.4489
 20
26.9637
 30
0.0
 10
2.4489
 20
26.9637
 30
0.0
 10
2.384
 20
26.9882
 30
0.0
 10
2.3078
 20
27.0009
 30
0.0
 10
2.2207
 20
27.0009
 30
0.0
 10
2.2207
 20
27.0009
 30
0.0
 10
2.0194
 20
27.0009
 30
0.0
 10
1.8534
 20
26.9327
 30
0.0
 10
1.7217
 20
26.7963
 30
0.0
 10
1.7217
 20
26.7963
 30
0.0
 10
1.5904
 20
26.6598
 30
0.0
 10
1.5246
 20
26.4562
 30
0.0
 10
1.5246
 20
26.1848
 30
0.0
 10
1.5246
 20
26.1848
 30
0.0
 10
1.5246
 20
26.0785
 30
0.0
 10
1.5349
 20
25.9839
 30
0.0
 10
1.5552
 20
25.9011
 30
0.0
 10
1.5552
 20
25.9011
 30
0.0
 10
1.5698
 20
25.8395
 30
0.0
 10
1.6003
 20
25.7638
 30
0.0
 10
1.6474
 20
25.674
 30
0.0
 10
1.6474
 20
25.674
 30
0.0
 10
1.6474
 20
25.674
 30
0.0
 10
2.6756
 20
26.8245
 30
0.0
 10
2.6756
 20
26.8245
 30
0.0
  0
SPLINE
  5
62
330
1F
100
AcDbEntity
  8
VRSTVA_1
 62
   250
100
AcDbSpline
210
0.0
220
0.0
230
1.0
 70
    11
 71
     3
 72
    28
 73
    24
 74
     0
 42
0.0000000001
 43
0.0000000001
 40
0.0
 40
0.0
 40
0.0
 40
0.0
 40
0.1428571428571428
 40
0.1428571428571428
 40
0.1428571428571428
 40
0.1428571428571428
 40
0.2857142857142857
 40
0.2857142857142857
 40
0.2857142857142857
 40
0.2857142857142857
 40
0.4285714285714285
 40
0.4285714285714285
 40
0.4285714285714285
 40
0.4285714285714285
 40
0.5714285714285714
 40
0.5714285714285714
 40
0.5714285714285714
 40
0.5714285714285714
 40
0.7142857142857143
 40
0.7142857142857143
 40
0.7142857142857143
 40
0.7142857142857143
 40
1.0
 40
1.0
 40
1.0
 40
1.0
 10
2.7885
 20
26.6824
 30
0.0
 10
2.7885
 20
26.6824
 30
0.0
 10
1.7645
 20
25.5361
 30
0.0
 10
1.7645
 20
25.5361
 30
0.0
 10
1.7645
 20
25.5361
 30
0.0
 10
1.835
 20
25.4783
 30
0.0
 10
1.9004
 20
25.4378
 30
0.0
 10
1.9602
 20
25.4148
 30
0.0
 10
1.9602
 20
25.4148
 30
0.0
 10
2.0382
 20
25.3842
 30
0.0
 10
2.1229
 20
25.3692
 30
0.0
 10
2.2137
 20
25.3692
 30
0.0
 10
2.2137
 20
25.3692
 30
0.0
 10
2.4141
 20
25.3692
 30
0.0
 10
2.5792
 20
25.4397
 30
0.0
 10
2.7099
 20
25.5813
 30
0.0
 10
2.7099
 20
25.5813
 30
0.0
 10
2.8402
 20
25.7229
 30
0.0
 10
2.9056
 20
25.9214
 30
0.0
 10
2.9056
 20
26.1768
 30
0.0
 10
2.9056
 20
26.1768
 30
0.0
 10
2.9056
 20
26.3677
 30
0.0
 10
2.8666
 20
26.5366
 30
0.0
 10
2.7885
 20
26.6824
 30
0.0
  0
SPLINE
  5
63
330
1F
100
AcDbEntity
  8
VRSTVA_1
 62
   250
100
AcDbSpline
210
0.0
220
0.0
230
1.0
 70
    11
 71
     3
 72
    80
 73
    76
 74
     0
 42
0.0000000001
 43
0.0000000001
 40
0.0
 40
0.0
 40
0.0
 40
0.0
 40
0.05
 40
0.05
 40
0.05
 40
0.05
 40
0.1
 40
0.1
 40
0.1
 40
0.1
 40
0.15
 40
0.15
 40
0.15
 40
0.15
 40
0.2
 40
0.2
 40
0.2
 40
0.2
 40
0.25
 40
0.25
 40
0.25
 40
0.25
 40
0.3
 40
0.3
 40
0.3
 40
0.3
 40
0.35
 40
0.35
 40
0.35
 40
0.35
 40
0.4
 40
0.4
 40
0.4
 40
0.4
 40
0.45
 40
0.45
 40
0.45
 40
0.45
 40
0.5
 40
0.5
 40
0.5
 40
0.5
 40
0.55
 40
0.55
 40
0.55
 40
0.55
 40
0.6
 40
0.6
 40
0.6
 40
0.6
 40
0.65
 40
0.65
 40
0.65
 40
0.65
 40
0.7
 40
0.7
 40
0.7
 40
0.7
 40
0.75
 40
0.75
 40
0.75
 40
0.75
 40
0.8
 40
0.8
 40
0.8
 40
0.8
 40
0.85
 40
0.85
 40
0.85
 40
0.85
 40
0.9
 40
0.9
 40
0.9
 40
0.9
 40
1.0
 40
1.0
 40
1.0
 40
1.0
 10
4.7174
 20
26.7003
 30
0.0
 10
4.7174
 20
26.7003
 30
0.0
 10
4.471
 20
26.681
 30
0.0
 10
4.471
 20
26.681
 30
0.0
 10
4.471
 20
26.681
 30
0.0
 10
4.4489
 20
26.7784
 30
0.0
 10
4.4178
 20
26.8494
 30
0.0
 10
4.3774
 20
26.8931
 30
0.0
 10
4.3774
 20
26.8931
 30
0.0
 10
4.3101
 20
26.9642
 30
0.0
 10
4.2273
 20
26.9995
 30
0.0
 10
4.129
 20
26.9995
 30
0.0
 10
4.129
 20
26.9995
 30
0.0
 10
4.05
 20
26.9995
 30
0.0
 10
3.9809
 20
26.9773
 30
0.0
 10
3.9211
 20
26.9331
 30
0.0
 10
3.9211
 20
26.9331
 30
0.0
 10
3.843
 20
26.8762
 30
0.0
 10
3.7814
 20
26.793
 30
0.0
 10
3.7363
 20
26.6838
 30
0.0
 10
3.7363
 20
26.6838
 30
0.0
 10
3.6916
 20
26.5747
 30
0.0
 10
3.6681
 20
26.419
 30
0.0
 10
3.6662
 20
26.2168
 30
0.0
 10
3.6662
 20
26.2168
 30
0.0
 10
3.7259
 20
26.3075
 30
0.0
 10
3.7988
 20
26.3753
 30
0.0
 10
3.8854
 20
26.4195
 30
0.0
 10
3.8854
 20
26.4195
 30
0.0
 10
3.9714
 20
26.4632
 30
0.0
 10
4.0622
 20
26.4853
 30
0.0
 10
4.1568
 20
26.4853
 30
0.0
 10
4.1568
 20
26.4853
 30
0.0
 10
4.3223
 20
26.4853
 30
0.0
 10
4.463
 20
26.4247
 30
0.0
 10
4.5792
 20
26.3028
 30
0.0
 10
4.5792
 20
26.3028
 30
0.0
 10
4.6953
 20
26.181
 30
0.0
 10
4.7537
 20
26.0239
 30
0.0
 10
4.7537
 20
25.8311
 30
0.0
 10
4.7537
 20
25.8311
 30
0.0
 10
4.7537
 20
25.7041
 30
0.0
 10
4.7259
 20
25.5865
 30
0.0
 10
4.6713
 20
25.4773
 30
0.0
 10
4.6713
 20
25.4773
 30
0.0
 10
4.6168
 20
25.3687
 30
0.0
 10
4.5415
 20
25.285
 30
0.0
 10
4.446
 20
25.2271
 30
0.0
 10
4.446
 20
25.2271
 30
0.0
 10
4.3506
 20
25.1693
 30
0.0
 10
4.2424
 20
25.1406
 30
0.0
 10
4.121
 20
25.1406
 30
0.0
 10
4.121
 20
25.1406
 30
0.0
 10
3.9141
 20
25.1406
 30
0.0
 10
3.7457
 20
25.2163
 30
0.0
 10
3.6154
 20
25.3687
 30
0.0
 10
3.6154
 20
25.3687
 30
0.0
 10
3.4846
 20
25.5206
 30
0.0
 10
3.4197
 20
25.7713
 30
0.0
 10
3.4197
 20
26.1203
 30
0.0
 10
3.4197
 20
26.1203
 30
0.0
 10
3.4197
 20
26.5107
 30
0.0
 10
3.4917
 20
26.7944
 30
0.0
 10
3.6361
 20
26.9717
 30
0.0
 10
3.6361
 20
26.9717
 30
0.0
 10
3.7617
 20
27.126
 30
0.0
 10
3.931
 20
27.2036
 30
0.0
 10
4.1445
 20
27.2036
 30
0.0
 10
4.1445
 20
27.2036
 30
0.0
 10
4.3031
 20
27.2036
 30
0.0
 10
4.4333
 20
27.1589
 30
0.0
 10
4.5349
 20
27.0695
 30
0.0
 10
4.5349
 20
27.0695
 30
0.0
 10
4.6365
 20
26.9806
 30
0.0
 10
4.6972
 20
26.8574
 30
0.0
 10
4.7174
 20
26.7003
 30
0.0
  0
SPLINE
  5
64
330
1F
100
AcDbEntity
  8
VRSTVA_1
 62
   250
100
AcDbSpline
210
0.0
220
0.0
230
1.0
 70
    11
 71
     3
 72
    40
 73
    36
 74
     0
 42
0.0000000001
 43
0.0000000001
 40
0.0
 40
0.0
 40
0.0
 40
0.0
 40
0.1
 40
0.1
 40
0.1
 40
0.1
 40
0.2
 40
0.2
 40
0.2
 40
0.2
 40
0.3
 40
0.3
 40
0.3
 40
0.3
 40
0.4
 40
0.4
 40
0.4
 40
0.4
 40
0.5
 40
0.5
 40
0.5
 40
0.5
 40
0.6
 40
0.6
 40
0.6
 40
0.6
 40
0.7
 40
0.7
 40
0.7
 40
0.7
 40
0.8
 40
0.8
 40
0.8
 40
0.8
 40
1.0
 40
1.0
 40
1.0
 40
1.0
 10
3.7047
 20
25.8297
 30
0.0
 10
3.7047
 20
25.744
 30
0.0
 10
3.7231
 20
25.6622
 30
0.0
 10
3.7593
 20
25.5841
 30
0.0
 10
3.7593
 20
25.5841
 30
0.0
 10
3.7955
 20
25.506
 30
0.0
 10
3.8463
 20
25.4468
 30
0.0
 10
3.9112
 20
25.4059
 30
0.0
 10
3.9112
 20
25.4059
 30
0.0
 10
3.9766
 20
25.3649
 30
0.0
 10
4.0453
 20
25.3442
 30
0.0
 10
4.1168
 20
25.3442
 30
0.0
 10
4.1168
 20
25.3442
 30
0.0
 10
4.2217
 20
25.3442
 30
0.0
 10
4.3115
 20
25.3866
 30
0.0
 10
4.3868
 20
25.4712
 30
0.0
 10
4.3868
 20
25.4712
 30
0.0
 10
4.462
 20
25.5559
 30
0.0
 10
4.4997
 20
25.6707
 30
0.0
 10
4.4997
 20
25.8155
 30
0.0
 10
4.4997
 20
25.8155
 30
0.0
 10
4.4997
 20
25.9552
 30
0.0
 10
4.4625
 20
26.0653
 30
0.0
 10
4.3882
 20
26.1457
 30
0.0
 10
4.3882
 20
26.1457
 30
0.0
 10
4.3139
 20
26.2262
 30
0.0
 10
4.2203
 20
26.2662
 30
0.0
 10
4.1074
 20
26.2662
 30
0.0
 10
4.1074
 20
26.2662
 30
0.0
 10
3.995
 20
26.2662
 30
0.0
 10
3.8999
 20
26.2262
 30
0.0
 10
3.8219
 20
26.1457
 30
0.0
 10
3.8219
 20
26.1457
 30
0.0
 10
3.7438
 20
26.0653
 30
0.0
 10
3.7047
 20
25.9599
 30
0.0
 10
3.7047
 20
25.8297
 30
0.0
  0
SPLINE
  5
65
330
1F
100
AcDbEntity
  8
VRSTVA_1
 62
   250
100
AcDbSpline
210
0.0
220
0.0
230
1.0
 70
    11
 71
     3
 72
    52
 73
    48
 74
     0
 42
0.0000000001
 43
0.0000000001
 40
0.0
 40
0.0
 40
0.0
 40
0.0
 40
0.0769230769230769
 40
0.0769230769230769
 40
0.0769230769230769
 40
0.0769230769230769
 40
0.1538461538461539
 40
0.1538461538461539
 40
0.1538461538461539
 40
0.1538461538461539
 40
0.2307692307692308
 40
0.2307692307692308
 40
0.2307692307692308
 40
0.2307692307692308
 40
0.3076923076923077
 40
0.3076923076923077
 40
0.3076923076923077
 40
0.3076923076923077
 40
0.3846153846153846
 40
0.3846153846153846
 40
0.3846153846153846
 40
0.3846153846153846
 40
0.4615384615384616
 40
0.4615384615384616
 40
0.4615384615384616
 40
0.4615384615384616
 40
0.5384615384615384
 40
0.5384615384615384
 40
0.5384615384615384
 40
0.5384615384615384
 40
0.6153846153846154
 40
0.6153846153846154
 40
0.6153846153846154
 40
0.6153846153846154
 40
0.6923076923076923
 40
0.6923076923076923
 40
0.6923076923076923
 40
0.6923076923076923
 40
0.7692307692307693
 40
0.7692307692307693
 40
0.7692307692307693
 40
0.7692307692307693
 40
0.8461538461538461
 40
0.8461538461538461
 40
0.8461538461538461
 40
0.8461538461538461
 40
1.0
 40
1.0
 40
1.0
 40
1.0
 10
5.0001
 20
26.1711
 30
0.0
 10
5.0001
 20
26.4101
 30
0.0
 10
5.0246
 20
26.6025
 30
0.0
 10
5.074
 20
26.7478
 30
0.0
 10
5.074
 20
26.7478
 30
0.0
 10
5.1229
 20
26.8936
 30
0.0
 10
5.1963
 20
27.006
 30
0.0
 10
5.2932
 20
27.0851
 30
0.0
 10
5.2932
 20
27.0851
 30
0.0
 10
5.3901
 20
27.1641
 30
0.0
 10
5.5119
 20
27.2036
 30
0.0
 10
5.6586
 20
27.2036
 30
0.0
 10
5.6586
 20
27.2036
 30
0.0
 10
5.7673
 20
27.2036
 30
0.0
 10
5.8623
 20
27.1815
 30
0.0
 10
5.9441
 20
27.1377
 30
0.0
 10
5.9441
 20
27.1377
 30
0.0
 10
6.026
 20
27.0945
 30
0.0
 10
6.0933
 20
27.0314
 30
0.0
 10
6.1469
 20
26.9491
 30
0.0
 10
6.1469
 20
26.9491
 30
0.0
 10
6.2
 20
26.8668
 30
0.0
 10
6.2419
 20
26.7666
 30
0.0
 10
6.272
 20
26.6486
 30
0.0
 10
6.272
 20
26.6486
 30
0.0
 10
6.3026
 20
26.5305
 30
0.0
 10
6.3176
 20
26.3715
 30
0.0
 10
6.3176
 20
26.1711
 30
0.0
 10
6.3176
 20
26.1711
 30
0.0
 10
6.3176
 20
25.9341
 30
0.0
 10
6.2932
 20
25.7431
 30
0.0
 10
6.2447
 20
25.5973
 30
0.0
 10
6.2447
 20
25.5973
 30
0.0
 10
6.1958
 20
25.4515
 30
0.0
 10
6.1229
 20
25.3391
 30
0.0
 10
6.026
 20
25.2596
 30
0.0
 10
6.026
 20
25.2596
 30
0.0
 10
5.9291
 20
25.1801
 30
0.0
 10
5.8068
 20
25.1406
 30
0.0
 10
5.6586
 20
25.1406
 30
0.0
 10
5.6586
 20
25.1406
 30
0.0
 10
5.4639
 20
25.1406
 30
0.0
 10
5.311
 20
25.2102
 30
0.0
 10
5.2
 20
25.3499
 30
0.0
 10
5.2
 20
25.3499
 30
0.0
 10
5.0669
 20
25.5178
 30
0.0
 10
5.0001
 20
25.792
 30
0.0
 10
5.0001
 20
26.1711
 30
0.0
  0
SPLINE
  5
66
330
1F
100
AcDbEntity
  8
VRSTVA_1
 62
   250
100
AcDbSpline
210
0.0
220
0.0
230
1.0
 70
    11
 71
     3
 72
    36
 73
    32
 74
     0
 42
0.0000000001
 43
0.0000000001
 40
0.0
 40
0.0
 40
0.0
 40
0.0
 40
0.1111111111111111
 40
0.1111111111111111
 40
0.1111111111111111
 40
0.1111111111111111
 40
0.2222222222222222
 40
0.2222222222222222
 40
0.2222222222222222
 40
0.2222222222222222
 40
0.3333333333333333
 40
0.3333333333333333
 40
0.3333333333333333
 40
0.3333333333333333
 40
0.4444444444444444
 40
0.4444444444444444
 40
0.4444444444444444
 40
0.4444444444444444
 40
0.5555555555555556
 40
0.5555555555555556
 40
0.5555555555555556
 40
0.5555555555555556
 40
0.6666666666666666
 40
0.6666666666666666
 40
0.6666666666666666
 40
0.6666666666666666
 40
0.7777777777777778
 40
0.7777777777777778
 40
0.7777777777777778
 40
0.7777777777777778
 40
1.0
 40
1.0
 40
1.0
 40
1.0
 10
5.2551
 20
26.1711
 30
0.0
 10
5.2551
 20
25.8395
 30
0.0
 10
5.2941
 20
25.6189
 30
0.0
 10
5.3717
 20
25.5089
 30
0.0
 10
5.3717
 20
25.5089
 30
0.0
 10
5.4493
 20
25.3993
 30
0.0
 10
5.5448
 20
25.3442
 30
0.0
 10
5.6586
 20
25.3442
 30
0.0
 10
5.6586
 20
25.3442
 30
0.0
 10
5.7729
 20
25.3442
 30
0.0
 10
5.8684
 20
25.3997
 30
0.0
 10
5.946
 20
25.5098
 30
0.0
 10
5.946
 20
25.5098
 30
0.0
 10
6.0236
 20
25.6199
 30
0.0
 10
6.0627
 20
25.8405
 30
0.0
 10
6.0627
 20
26.1711
 30
0.0
 10
6.0627
 20
26.1711
 30
0.0
 10
6.0627
 20
26.5037
 30
0.0
 10
6.0236
 20
26.7248
 30
0.0
 10
5.946
 20
26.8339
 30
0.0
 10
5.946
 20
26.8339
 30
0.0
 10
5.8684
 20
26.9435
 30
0.0
 10
5.772
 20
26.998
 30
0.0
 10
5.6563
 20
26.998
 30
0.0
 10
5.6563
 20
26.998
 30
0.0
 10
5.542
 20
26.998
 30
0.0
 10
5.4512
 20
26.9496
 30
0.0
 10
5.383
 20
26.8532
 30
0.0
 10
5.383
 20
26.8532
 30
0.0
 10
5.2979
 20
26.7304
 30
0.0
 10
5.2551
 20
26.5027
 30
0.0
 10
5.2551
 20
26.1711
 30
0.0
  0
SPLINE
  5
67
330
1F
100
AcDbEntity
  8
VRSTVA_1
100
AcDbSpline
210
0.0
220
0.0
230
1.0
 70
    24
 71
     3
 72
     8
 73
     4
 74
     0
 42
0.0000000001
 43
0.0000000001
 40
0.0
 40
0.0
 40
0.0
 40
0.0
 40
1.0
 40
1.0
 40
1.0
 40
1.0
 10
-8.1099
 20
4.4383
 30
0.0
 10
-8.1099
 20
4.4383
 30
0.0
 10
-13.4437
 20
4.4383
 30
0.0
 10
-13.4437
 20
4.4383
 30
0.0
  0
SPLINE
  5
68
330
1F
100
AcDbEntity
  8
VRSTVA_1
 62
   250
100
AcDbSpline
210
0.0
220
0.0
230
1.0
 70
    11
 71
     3
 72
    20
 73
    16
 74
     0
 42
0.0000000001
 43
0.0000000001
 40
0.0
 40
0.0
 40
0.0
 40
0.0
 40
0.2
 40
0.2
 40
0.2
 40
0.2
 40
0.4
 40
0.4
 40
0.4
 40
0.4
 40
0.6
 40
0.6
 40
0.6
 40
0.6
 40
1.0
 40
1.0
 40
1.0
 40
1.0
 10
-12.4395
 20
7.0507
 30
0.0
 10
-12.4395
 20
7.0507
 30
0.0
 10
-12.7924
 20
4.5507
 30
0.0
 10
-12.7924
 20
4.5507
 30
0.0
 10
-12.7924
 20
4.5507
 30
0.0
 10
-12.7924
 20
4.5507
 30
0.0
 10
-12.8707
 20
4.5507
 30
0.0
 10
-12.8707
 20
4.5507
 30
0.0
 10
-12.8707
 20
4.5507
 30
0.0
 10
-12.8707
 20
4.5507
 30
0.0
 10
-13.247
 20
7.0507
 30
0.0
 10
-13.247
 20
7.0507
 30
0.0
 10
-13.247
 20
7.0507
 30
0.0
 10
-13.247
 20
7.0507
 30
0.0
 10
-12.4395
 20
7.0507
 30
0.0
 10
-12.4395
 20
7.0507
 30
0.0
  0
SPLINE
  5
69
330
1F
100
AcDbEntity
  8
VRSTVA_1
 62
   250
100
AcDbSpline
210
0.0
220
0.0
230
1.0
 70
    11
 71
     3
 72
    20
 73
    16
 74
     0
 42
0.0000000001
 43
0.0000000001
 40
0.0
 40
0.0
 40
0.0
 40
0.0
 40
0.2
 40
0.2
 40
0.2
 40
0.2
 40
0.4
 40
0.4
 40
0.4
 40
0.4
 40
0.6
 40
0.6
 40
0.6
 40
0.6
 40
1.0
 40
1.0
 40
1.0
 40
1.0
 10
-12.4776
 20
-7.8594
 30
0.0
 10
-12.4776
 20
-7.8594
 30
0.0
 10
-12.8305
 20
-10.3594
 30
0.0
 10
-12.8305
 20
-10.3594
 30
0.0
 10
-12.8305
 20
-10.3594
 30
0.0
 10
-12.8305
 20
-10.3594
 30
0.0
 10
-12.9088
 20
-10.3594
 30
0.0
 10
-12.9088
 20
-10.3594
 30
0.0
 10
-12.9088
 20
-10.3594
 30
0.0
 10
-12.9088
 20
-10.3594
 30
0.0
 10
-13.2851
 20
-7.8594
 30
0.0
 10
-13.2851
 20
-7.8594
 30
0.0
 10
-13.2851
 20
-7.8594
 30
0.0
 10
-13.2851
 20
-7.8594
 30
0.0
 10
-12.4776
 20
-7.8594
 30
0.0
 10
-12.4776
 20
-7.8594
 30
0.0
  0
SPLINE
  5
6A
330
1F
100
AcDbEntity
  8
VRSTVA_1
 62
   250
100
AcDbSpline
210
0.0
220
0.0
230
1.0
 70
    11
 71
     3
 72
    20
 73
    16
 74
     0
 42
0.0000000001
 43
0.0000000001
 40
0.0
 40
0.0
 40
0.0
 40
0.0
 40
0.2
 40
0.2
 40
0.2
 40
0.2
 40
0.4
 40
0.4
 40
0.4
 40
0.4
 40
0.6
 40
0.6
 40
0.6
 40
0.6
 40
1.0
 40
1.0
 40
1.0
 40
1.0
 10
12.7294
 20
25.0016
 30
0.0
 10
12.7294
 20
25.0016
 30
0.0
 10
15.2294
 20
24.6487
 30
0.0
 10
15.2294
 20
24.6487
 30
0.0
 10
15.2294
 20
24.6487
 30
0.0
 10
15.2294
 20
24.6487
 30
0.0
 10
15.2294
 20
24.5704
 30
0.0
 10
15.2294
 20
24.5704
 30
0.0
 10
15.2294
 20
24.5704
 30
0.0
 10
15.2294
 20
24.5704
 30
0.0
 10
12.7294
 20
24.1941
 30
0.0
 10
12.7294
 20
24.1941
 30
0.0
 10
12.7294
 20
24.1941
 30
0.0
 10
12.7294
 20
24.1941
 30
0.0
 10
12.7294
 20
25.0016
 30
0.0
 10
12.7294
 20
25.0016
 30
0.0
  0
SPLINE
  5
6B
330
1F
100
AcDbEntity
  8
VRSTVA_1
 62
   250
100
AcDbSpline
210
0.0
220
0.0
230
1.0
 70
    11
 71
     3
 72
    20
 73
    16
 74
     0
 42
0.0000000001
 43
0.0000000001
 40
0.0
 40
0.0
 40
0.0
 40
0.0
 40
0.2
 40
0.2
 40
0.2
 40
0.2
 40
0.4
 40
0.4
 40
0.4
 40
0.4
 40
0.6
 40
0.6
 40
0.6
 40
0.6
 40
1.0
 40
1.0
 40
1.0
 40
1.0
 10
-5.3008
 20
24.1914
 30
0.0
 10
-5.3008
 20
24.1914
 30
0.0
 10
-7.8008
 20
24.5443
 30
0.0
 10
-7.8008
 20
24.5443
 30
0.0
 10
-7.8008
 20
24.5443
 30
0.0
 10
-7.8008
 20
24.5443
 30
0.0
 10
-7.8008
 20
24.6226
 30
0.0
 10
-7.8008
 20
24.6226
 30
0.0
 10
-7.8008
 20
24.6226
 30
0.0
 10
-7.8008
 20
24.6226
 30
0.0
 10
-5.3008
 20
24.9989
 30
0.0
 10
-5.3008
 20
24.9989
 30
0.0
 10
-5.3008
 20
24.9989
 30
0.0
 10
-5.3008
 20
24.9989
 30
0.0
 10
-5.3008
 20
24.1914
 30
0.0
 10
-5.3008
 20
24.1914
 30
0.0
  0
SPLINE
  5
6C
330
1F
100
AcDbEntity
  8
VRSTVA_1
 62
   250
100
AcDbSpline
210
0.0
220
0.0
230
1.0
 70
    24
 71
     3
 72
     8
 73
     4
 74
     0
 42
0.0000000001
 43
0.0000000001
 40
0.0
 40
0.0
 40
0.0
 40
0.0
 40
1.0
 40
1.0
 40
1.0
 40
1.0
 10
-7.1467
 20
24.594
 30
0.0
 10
-7.1467
 20
24.594
 30
0.0
 10
14.3321
 20
24.594
 30
0.0
 10
14.3321
 20
24.594
 30
0.0
  0
SPLINE
  5
6D
330
1F
100
AcDbEntity
  8
VRSTVA_1
 62
   250
100
AcDbSpline
210
0.0
220
0.0
230
1.0
 70
    24
 71
     3
 72
     8
 73
     4
 74
     0
 42
0.0000000001
 43
0.0000000001
 40
0.0
 40
0.0
 40
0.0
 40
0.0
 40
1.0
 40
1.0
 40
1.0
 40
1.0
 10
-7.6771
 20
4.9539
 30
0.0
 10
-7.6771
 20
4.9539
 30
0.0
 10
15.0634
 20
4.9539
 30
0.0
 10
15.0634
 20
4.9539
 30
0.0
  0
SPLINE
  5
6E
330
1F
100
AcDbEntity
  8
VRSTVA_1
 62
   250
100
AcDbSpline
210
0.0
220
0.0
230
1.0
 70
    24
 71
     3
 72
     8
 73
     4
 74
     0
 42
0.0000000001
 43
0.0000000001
 40
0.0
 40
0.0
 40
0.0
 40
0.0
 40
1.0
 40
1.0
 40
1.0
 40
1.0
 10
15.0952
 20
4.7732
 30
0.0
 10
15.0952
 20
4.7732
 30
0.0
 10
15.0634
 20
4.9539
 30
0.0
 10
15.0634
 20
4.9539
 30
0.0
  0
SPLINE
  5
6F
330
1F
100
AcDbEntity
  8
VRSTVA_1
 62
   250
100
AcDbSpline
210
0.0
220
0.0
230
1.0
 70
    24
 71
     3
 72
     8
 73
     4
 74
     0
 42
0.0000000001
 43
0.0000000001
 40
0.0
 40
0.0
 40
0.0
 40
0.0
 40
1.0
 40
1.0
 40
1.0
 40
1.0
 10
-7.7089
 20
4.7732
 30
0.0
 10
-7.7089
 20
4.7732
 30
0.0
 10
-7.6771
 20
4.9539
 30
0.0
 10
-7.6771
 20
4.9539
 30
0.0
  0
SPLINE
  5
70
330
1F
100
AcDbEntity
  8
VRSTVA_1
 62
   250
100
AcDbSpline
210
0.0
220
0.0
230
1.0
 70
    24
 71
     3
 72
     8
 73
     4
 74
     0
 42
0.0000000001
 43
0.0000000001
 40
0.0
 40
0.0
 40
0.0
 40
0.0
 40
1.0
 40
1.0
 40
1.0
 40
1.0
 10
12.3671
 20
4.2921
 30
0.0
 10
12.3671
 20
4.2921
 30
0.0
 10
-4.9805
 20
4.2921
 30
0.0
 10
-4.9805
 20
4.2921
 30
0.0
  0
SPLINE
  5
71
330
1F
100
AcDbEntity
  8
VRSTVA_1
 62
   250
100
AcDbSpline
210
0.0
220
0.0
230
1.0
 70
    24
 71
     3
 72
     8
 73
     4
 74
     0
 42
0.0000000001
 43
0.0000000001
 40
0.0
 40
0.0
 40
0.0
 40
0.0
 40
1.0
 40
1.0
 40
1.0
 40
1.0
 10
15.0952
 20
4.7732
 30
0.0
 10
15.0952
 20
4.7732
 30
0.0
 10
-7.7089
 20
4.7732
 30
0.0
 10
-7.7089
 20
4.7732
 30
0.0
  0
SPLINE
  5
72
330
1F
100
AcDbEntity
  8
VRSTVA_1
 62
   250
100
AcDbSpline
210
0.0
220
0.0
230
1.0
 70
     8
 71
     3
 72
    12
 73
     8
 74
     0
 42
0.0000000001
 43
0.0000000001
 40
0.0
 40
0.0
 40
0.0
 40
0.0
 40
0.3333333333333333
 40
0.3333333333333333
 40
0.3333333333333333
 40
0.3333333333333333
 40
1.0
 40
1.0
 40
1.0
 40
1.0
 10
-2.3665
 20
-0.919
 30
0.0
 10
-2.4535
 20
-0.9151
 30
0.0
 10
-2.5362
 20
-0.9043
 30
0.0
 10
-2.6184
 20
-0.8743
 30
0.0
 10
-2.6184
 20
-0.8743
 30
0.0
 10
-3.1504
 20
-0.6795
 30
0.0
 10
-3.1336
 20
-0.0493
 30
0.0
 10
-3.2121
 20
0.4154
 30
0.0
  0
SPLINE
  5
73
330
1F
100
AcDbEntity
  8
VRSTVA_1
 62
   250
100
AcDbSpline
210
0.0
220
0.0
230
1.0
 70
    24
 71
     3
 72
     8
 73
     4
 74
     0
 42
0.0000000001
 43
0.0000000001
 40
0.0
 40
0.0
 40
0.0
 40
0.0
 40
1.0
 40
1.0
 40
1.0
 40
1.0
 10
-3.2121
 20
0.4154
 30
0.0
 10
-3.2121
 20
0.4154
 30
0.0
 10
-3.5175
 20
2.2188
 30
0.0
 10
-3.5175
 20
2.2188
 30
0.0
  0
SPLINE
  5
74
330
1F
100
AcDbEntity
  8
VRSTVA_1
 62
   250
100
AcDbSpline
210
0.0
220
0.0
230
1.0
 70
     8
 71
     3
 72
    12
 73
     8
 74
     0
 42
0.0000000001
 43
0.0000000001
 40
0.0
 40
0.0
 40
0.0
 40
0.0
 40
0.3333333333333333
 40
0.3333333333333333
 40
0.3333333333333333
 40
0.3333333333333333
 40
1.0
 40
1.0
 40
1.0
 40
1.0
 10
-3.5175
 20
2.2188
 30
0.0
 10
-3.5888
 20
2.6403
 30
0.0
 10
-3.6157
 20
3.1029
 30
0.0
 10
-3.8338
 20
3.4851
 30
0.0
 10
-3.8338
 20
3.4851
 30
0.0
 10
-4.0506
 20
3.8647
 30
0.0
 10
-4.417
 20
4.1473
 30
0.0
 10
-4.8393
 20
4.2608
 30
0.0
  0
SPLINE
  5
75
330
1F
100
AcDbEntity
  8
VRSTVA_1
 62
   250
100
AcDbSpline
210
0.0
220
0.0
230
1.0
 70
     8
 71
     3
 72
    20
 73
    16
 74
     0
 42
0.0000000001
 43
0.0000000001
 40
0.0
 40
0.0
 40
0.0
 40
0.0
 40
0.2
 40
0.2
 40
0.2
 40
0.2
 40
0.4
 40
0.4
 40
0.4
 40
0.4
 40
0.6
 40
0.6
 40
0.6
 40
0.6
 40
1.0
 40
1.0
 40
1.0
 40
1.0
 10
-4.8393
 20
4.2608
 30
0.0
 10
-4.8393
 20
4.2608
 30
0.0
 10
-4.9805
 20
4.2921
 30
0.0
 10
-4.9805
 20
4.2921
 30
0.0
 10
-4.9805
 20
4.2921
 30
0.0
 10
-4.9805
 20
4.2921
 30
0.0
 10
-5.7029
 20
4.4195
 30
0.0
 10
-5.7029
 20
4.4195
 30
0.0
 10
-5.7029
 20
4.4195
 30
0.0
 10
-5.7029
 20
4.4195
 30
0.0
 10
-6.9864
 20
4.6458
 30
0.0
 10
-6.9864
 20
4.6458
 30
0.0
 10
-6.9864
 20
4.6458
 30
0.0
 10
-6.9864
 20
4.6458
 30
0.0
 10
-7.7089
 20
4.7732
 30
0.0
 10
-7.7089
 20
4.7732
 30
0.0
  0
SPLINE
  5
76
330
1F
100
AcDbEntity
  8
VRSTVA_1
 62
   250
100
AcDbSpline
210
0.0
220
0.0
230
1.0
 70
     8
 71
     3
 72
    20
 73
    16
 74
     0
 42
0.0000000001
 43
0.0000000001
 40
0.0
 40
0.0
 40
0.0
 40
0.0
 40
0.2
 40
0.2
 40
0.2
 40
0.2
 40
0.4
 40
0.4
 40
0.4
 40
0.4
 40
0.6
 40
0.6
 40
0.6
 40
0.6
 40
1.0
 40
1.0
 40
1.0
 40
1.0
 10
15.0952
 20
4.7732
 30
0.0
 10
15.0952
 20
4.7732
 30
0.0
 10
14.3729
 20
4.6458
 30
0.0
 10
14.3729
 20
4.6458
 30
0.0
 10
14.3729
 20
4.6458
 30
0.0
 10
14.3729
 20
4.6458
 30
0.0
 10
13.0895
 20
4.4195
 30
0.0
 10
13.0895
 20
4.4195
 30
0.0
 10
13.0895
 20
4.4195
 30
0.0
 10
13.0895
 20
4.4195
 30
0.0
 10
12.3671
 20
4.2921
 30
0.0
 10
12.3671
 20
4.2921
 30
0.0
 10
12.3671
 20
4.2921
 30
0.0
 10
12.3671
 20
4.2921
 30
0.0
 10
12.2255
 20
4.2608
 30
0.0
 10
12.2255
 20
4.2608
 30
0.0
  0
SPLINE
  5
77
330
1F
100
AcDbEntity
  8
VRSTVA_1
 62
   250
100
AcDbSpline
210
0.0
220
0.0
230
1.0
 70
     8
 71
     3
 72
    12
 73
     8
 74
     0
 42
0.0000000001
 43
0.0000000001
 40
0.0
 40
0.0
 40
0.0
 40
0.0
 40
0.3333333333333333
 40
0.3333333333333333
 40
0.3333333333333333
 40
0.3333333333333333
 40
1.0
 40
1.0
 40
1.0
 40
1.0
 10
12.2255
 20
4.2608
 30
0.0
 10
11.8033
 20
4.1473
 30
0.0
 10
11.4369
 20
3.8647
 30
0.0
 10
11.2203
 20
3.4851
 30
0.0
 10
11.2203
 20
3.4851
 30
0.0
 10
11.0023
 20
3.1031
 30
0.0
 10
10.9751
 20
2.6403
 30
0.0
 10
10.9038
 20
2.2188
 30
0.0
  0
SPLINE
  5
78
330
1F
100
AcDbEntity
  8
VRSTVA_1
 62
   250
100
AcDbSpline
210
0.0
220
0.0
230
1.0
 70
    24
 71
     3
 72
     8
 73
     4
 74
     0
 42
0.0000000001
 43
0.0000000001
 40
0.0
 40
0.0
 40
0.0
 40
0.0
 40
1.0
 40
1.0
 40
1.0
 40
1.0
 10
10.9038
 20
2.2188
 30
0.0
 10
10.9038
 20
2.2188
 30
0.0
 10
10.5986
 20
0.4154
 30
0.0
 10
10.5986
 20
0.4154
 30
0.0
  0
SPLINE
  5
79
330
1F
100
AcDbEntity
  8
VRSTVA_1
 62
   250
100
AcDbSpline
210
0.0
220
0.0
230
1.0
 70
     8
 71
     3
 72
    12
 73
     8
 74
     0
 42
0.0000000001
 43
0.0000000001
 40
0.0
 40
0.0
 40
0.0
 40
0.0
 40
0.3333333333333333
 40
0.3333333333333333
 40
0.3333333333333333
 40
0.3333333333333333
 40
1.0
 40
1.0
 40
1.0
 40
1.0
 10
10.5986
 20
0.4154
 30
0.0
 10
10.5198
 20
-0.0493
 30
0.0
 10
10.5366
 20
-0.6795
 30
0.0
 10
10.0048
 20
-0.8743
 30
0.0
 10
10.0048
 20
-0.8743
 30
0.0
 10
9.9226
 20
-0.9043
 30
0.0
 10
9.8398
 20
-0.9151
 30
0.0
 10
9.7527
 20
-0.919
 30
0.0
  0
SPLINE
  5
7A
330
1F
100
AcDbEntity
  8
VRSTVA_1
 62
   250
100
AcDbSpline
210
0.0
220
0.0
230
1.0
 70
    24
 71
     3
 72
     8
 73
     4
 74
     0
 42
0.0000000001
 43
0.0000000001
 40
0.0
 40
0.0
 40
0.0
 40
0.0
 40
1.0
 40
1.0
 40
1.0
 40
1.0
 10
2.5928
 20
-3.1026
 30
0.0
 10
2.5928
 20
-3.1026
 30
0.0
 10
2.5928
 20
-2.0707
 30
0.0
 10
2.5928
 20
-2.0707
 30
0.0
  0
SPLINE
  5
7B
330
1F
100
AcDbEntity
  8
VRSTVA_1
 62
   250
100
AcDbSpline
210
0.0
220
0.0
230
1.0
 70
    24
 71
     3
 72
     8
 73
     4
 74
     0
 42
0.0000000001
 43
0.0000000001
 40
0.0
 40
0.0
 40
0.0
 40
0.0
 40
1.0
 40
1.0
 40
1.0
 40
1.0
 10
4.7935
 20
-2.0574
 30
0.0
 10
4.7935
 20
-2.0574
 30
0.0
 10
4.7935
 20
-2.9173
 30
0.0
 10
4.7935
 20
-2.9173
 30
0.0
  0
SPLINE
  5
7C
330
1F
100
AcDbEntity
  8
VRSTVA_1
 62
   250
100
AcDbSpline
210
0.0
220
0.0
230
1.0
 70
    24
 71
     3
 72
     8
 73
     4
 74
     0
 42
0.0000000001
 43
0.0000000001
 40
0.0
 40
0.0
 40
0.0
 40
0.0
 40
1.0
 40
1.0
 40
1.0
 40
1.0
 10
4.7935
 20
-17.2406
 30
0.0
 10
4.7935
 20
-17.2406
 30
0.0
 10
2.5928
 20
-17.2406
 30
0.0
 10
2.5928
 20
-17.2406
 30
0.0
  0
SPLINE
  5
7D
330
1F
100
AcDbEntity
  8
VRSTVA_1
 62
   250
100
AcDbSpline
210
0.0
220
0.0
230
1.0
 70
    24
 71
     3
 72
     8
 73
     4
 74
     0
 42
0.0000000001
 43
0.0000000001
 40
0.0
 40
0.0
 40
0.0
 40
0.0
 40
1.0
 40
1.0
 40
1.0
 40
1.0
 10
2.5928
 20
-10.6041
 30
0.0
 10
2.5928
 20
-10.6041
 30
0.0
 10
2.5928
 20
-17.2403
 30
0.0
 10
2.5928
 20
-17.2403
 30
0.0
  0
SPLINE
  5
7E
330
1F
100
AcDbEntity
  8
VRSTVA_1
 62
   250
100
AcDbSpline
210
0.0
220
0.0
230
1.0
 70
    24
 71
     3
 72
     8
 73
     4
 74
     0
 42
0.0000000001
 43
0.0000000001
 40
0.0
 40
0.0
 40
0.0
 40
0.0
 40
1.0
 40
1.0
 40
1.0
 40
1.0
 10
4.7935
 20
-17.2403
 30
0.0
 10
4.7935
 20
-17.2403
 30
0.0
 10
4.7935
 20
-10.5777
 30
0.0
 10
4.7935
 20
-10.5777
 30
0.0
  0
SPLINE
  5
7F
330
1F
100
AcDbEntity
  8
VRSTVA_1
 62
   250
100
AcDbSpline
210
0.0
220
0.0
230
1.0
 70
     8
 71
     3
 72
     8
 73
     4
 74
     0
 42
0.0000000001
 43
0.0000000001
 40
0.0
 40
0.0
 40
0.0
 40
0.0
 40
1.0
 40
1.0
 40
1.0
 40
1.0
 10
3.4181
 20
5.2625
 30
0.0
 10
3.4181
 20
5.2333
 30
0.0
 10
3.4205
 20
5.2047
 30
0.0
 10
3.4198
 20
5.1756
 30
0.0
  0
SPLINE
  5
80
330
1F
100
AcDbEntity
  8
VRSTVA_1
 62
   250
100
AcDbSpline
210
0.0
220
0.0
230
1.0
 70
     8
 71
     3
 72
     8
 73
     4
 74
     0
 42
0.0000000001
 43
0.0000000001
 40
0.0
 40
0.0
 40
0.0
 40
0.0
 40
1.0
 40
1.0
 40
1.0
 40
1.0
 10
3.4181
 20
5.2625
 30
0.0
 10
3.2036
 20
5.2478
 30
0.0
 10
2.9925
 20
5.2182
 30
0.0
 10
2.7817
 20
5.1756
 30
0.0
  0
SPLINE
  5
81
330
1F
100
AcDbEntity
  8
VRSTVA_1
 62
   250
100
AcDbSpline
210
0.0
220
0.0
230
1.0
 70
     8
 71
     3
 72
     8
 73
     4
 74
     0
 42
0.0000000001
 43
0.0000000001
 40
0.0
 40
0.0
 40
0.0
 40
0.0
 40
1.0
 40
1.0
 40
1.0
 40
1.0
 10
2.7829
 20
5.1846
 30
0.0
 10
2.5275
 20
5.1251
 30
0.0
 10
2.283
 20
5.048
 30
0.0
 10
2.0388
 20
4.9539
 30
0.0
  0
SPLINE
  5
82
330
1F
100
AcDbEntity
  8
VRSTVA_1
 62
   250
100
AcDbSpline
210
0.0
220
0.0
230
1.0
 70
     8
 71
     3
 72
     8
 73
     4
 74
     0
 42
0.0000000001
 43
0.0000000001
 40
0.0
 40
0.0
 40
0.0
 40
0.0
 40
1.0
 40
1.0
 40
1.0
 40
1.0
 10
3.4198
 20
5.1756
 30
0.0
 10
3.6029
 20
5.1848
 30
0.0
 10
3.7834
 20
5.1848
 30
0.0
 10
3.9667
 20
5.1756
 30
0.0
  0
SPLINE
  5
83
330
1F
100
AcDbEntity
  8
VRSTVA_1
 62
   250
100
AcDbSpline
210
0.0
220
0.0
230
1.0
 70
     8
 71
     3
 72
     8
 73
     4
 74
     0
 42
0.0000000001
 43
0.0000000001
 40
0.0
 40
0.0
 40
0.0
 40
0.0
 40
1.0
 40
1.0
 40
1.0
 40
1.0
 10
3.9682
 20
5.2625
 30
0.0
 10
4.1828
 20
5.2478
 30
0.0
 10
4.3941
 20
5.2182
 30
0.0
 10
4.6048
 20
5.1756
 30
0.0
  0
SPLINE
  5
84
330
1F
100
AcDbEntity
  8
VRSTVA_1
 62
   250
100
AcDbSpline
210
0.0
220
0.0
230
1.0
 70
     8
 71
     3
 72
     8
 73
     4
 74
     0
 42
0.0000000001
 43
0.0000000001
 40
0.0
 40
0.0
 40
0.0
 40
0.0
 40
1.0
 40
1.0
 40
1.0
 40
1.0
 10
4.6037
 20
5.1846
 30
0.0
 10
4.8588
 20
5.1251
 30
0.0
 10
5.1033
 20
5.048
 30
0.0
 10
5.3477
 20
4.9539
 30
0.0
  0
SPLINE
  5
85
330
1F
100
AcDbEntity
  8
VRSTVA_1
 62
   250
100
AcDbSpline
210
0.0
220
0.0
230
1.0
 70
     8
 71
     3
 72
     8
 73
     4
 74
     0
 42
0.0000000001
 43
0.0000000001
 40
0.0
 40
0.0
 40
0.0
 40
0.0
 40
1.0
 40
1.0
 40
1.0
 40
1.0
 10
3.9662
 20
5.2594
 30
0.0
 10
3.9596
 20
5.2377
 30
0.0
 10
3.9662
 20
5.198
 30
0.0
 10
3.9667
 20
5.1756
 30
0.0
  0
SPLINE
  5
86
330
1F
100
AcDbEntity
  8
VRSTVA_1
 62
   250
100
AcDbSpline
210
0.0
220
0.0
230
1.0
 70
    24
 71
     3
 72
     8
 73
     4
 74
     0
 42
0.0000000001
 43
0.0000000001
 40
0.0
 40
0.0
 40
0.0
 40
0.0
 40
1.0
 40
1.0
 40
1.0
 40
1.0
 10
15.7969
 20
-3.8533
 30
0.0
 10
15.7969
 20
-3.8533
 30
0.0
 10
-8.4107
 20
-3.8533
 30
0.0
 10
-8.4107
 20
-3.8533
 30
0.0
  0
SPLINE
  5
87
330
1F
100
AcDbEntity
  8
VRSTVA_1
 62
   250
100
AcDbSpline
210
0.0
220
0.0
230
1.0
 70
     8
 71
     3
 72
    12
 73
     8
 74
     0
 42
0.0000000001
 43
0.0000000001
 40
0.0
 40
0.0
 40
0.0
 40
0.0
 40
0.3333333333333333
 40
0.3333333333333333
 40
0.3333333333333333
 40
0.3333333333333333
 40
1.0
 40
1.0
 40
1.0
 40
1.0
 10
15.7969
 20
-3.8533
 30
0.0
 10
15.7894
 20
-4.0262
 30
0.0
 10
15.7682
 20
-4.1911
 30
0.0
 10
15.7085
 20
-4.3549
 30
0.0
 10
15.7085
 20
-4.3549
 30
0.0
 10
15.4931
 20
-4.947
 30
0.0
 10
14.9442
 20
-5.2935
 30
0.0
 10
14.33
 20
-5.3202
 30
0.0
  0
SPLINE
  5
88
330
1F
100
AcDbEntity
  8
VRSTVA_1
 62
   250
100
AcDbSpline
210
0.0
220
0.0
230
1.0
 70
    24
 71
     3
 72
    12
 73
     8
 74
     0
 42
0.0000000001
 43
0.0000000001
 40
0.0
 40
0.0
 40
0.0
 40
0.0
 40
0.3333333333333333
 40
0.3333333333333333
 40
0.3333333333333333
 40
0.3333333333333333
 40
1.0
 40
1.0
 40
1.0
 40
1.0
 10
14.33
 20
-5.3202
 30
0.0
 10
14.33
 20
-5.3202
 30
0.0
 10
13.5963
 20
-5.3202
 30
0.0
 10
13.5963
 20
-5.3202
 30
0.0
 10
13.5963
 20
-5.3202
 30
0.0
 10
13.5963
 20
-5.3202
 30
0.0
 10
-6.2099
 20
-5.3202
 30
0.0
 10
-6.2099
 20
-5.3202
 30
0.0
  0
SPLINE
  5
89
330
1F
100
AcDbEntity
  8
VRSTVA_1
 62
   250
100
AcDbSpline
210
0.0
220
0.0
230
1.0
 70
     8
 71
     3
 72
    12
 73
     8
 74
     0
 42
0.0000000001
 43
0.0000000001
 40
0.0
 40
0.0
 40
0.0
 40
0.0
 40
0.3333333333333333
 40
0.3333333333333333
 40
0.3333333333333333
 40
0.3333333333333333
 40
1.0
 40
1.0
 40
1.0
 40
1.0
 10
-6.2099
 20
-5.3202
 30
0.0
 10
-6.5484
 20
-5.3202
 30
0.0
 10
-6.973
 20
-5.3642
 30
0.0
 10
-7.3233
 20
-5.2704
 30
0.0
 10
-7.3233
 20
-5.2704
 30
0.0
 10
-7.9779
 20
-5.0949
 30
0.0
 10
-8.3819
 20
-4.5128
 30
0.0
 10
-8.4107
 20
-3.8533
 30
0.0
  0
SPLINE
  5
8A
330
1F
100
AcDbEntity
  8
VRSTVA_1
 62
   250
100
AcDbSpline
210
0.0
220
0.0
230
1.0
 70
    24
 71
     3
 72
     8
 73
     4
 74
     0
 42
0.0000000001
 43
0.0000000001
 40
0.0
 40
0.0
 40
0.0
 40
0.0
 40
1.0
 40
1.0
 40
1.0
 40
1.0
 10
-7.3102
 20
-0.919
 30
0.0
 10
-7.3102
 20
-0.919
 30
0.0
 10
14.6966
 20
-0.919
 30
0.0
 10
14.6966
 20
-0.919
 30
0.0
  0
SPLINE
  5
8B
330
1F
100
AcDbEntity
  8
VRSTVA_1
 62
   250
100
AcDbSpline
210
0.0
220
0.0
230
1.0
 70
    24
 71
     3
 72
     8
 73
     4
 74
     0
 42
0.0000000001
 43
0.0000000001
 40
0.0
 40
0.0
 40
0.0
 40
0.0
 40
1.0
 40
1.0
 40
1.0
 40
1.0
 10
14.6966
 20
-1.2856
 30
0.0
 10
14.6966
 20
-1.2856
 30
0.0
 10
14.6966
 20
-0.919
 30
0.0
 10
14.6966
 20
-0.919
 30
0.0
  0
SPLINE
  5
8C
330
1F
100
AcDbEntity
  8
VRSTVA_1
 62
   250
100
AcDbSpline
210
0.0
220
0.0
230
1.0
 70
    24
 71
     3
 72
     8
 73
     4
 74
     0
 42
0.0000000001
 43
0.0000000001
 40
0.0
 40
0.0
 40
0.0
 40
0.0
 40
1.0
 40
1.0
 40
1.0
 40
1.0
 10
-7.3102
 20
-1.2856
 30
0.0
 10
-7.3102
 20
-1.2856
 30
0.0
 10
-7.3102
 20
-0.919
 30
0.0
 10
-7.3102
 20
-0.919
 30
0.0
  0
SPLINE
  5
8D
330
1F
100
AcDbEntity
  8
VRSTVA_1
 62
   250
100
AcDbSpline
210
0.0
220
0.0
230
1.0
 70
     8
 71
     3
 72
    28
 73
    24
 74
     0
 42
0.0000000001
 43
0.0000000001
 40
0.0
 40
0.0
 40
0.0
 40
0.0
 40
0.1428571428571428
 40
0.1428571428571428
 40
0.1428571428571428
 40
0.1428571428571428
 40
0.2857142857142857
 40
0.2857142857142857
 40
0.2857142857142857
 40
0.2857142857142857
 40
0.4285714285714285
 40
0.4285714285714285
 40
0.4285714285714285
 40
0.4285714285714285
 40
0.5714285714285714
 40
0.5714285714285714
 40
0.5714285714285714
 40
0.5714285714285714
 40
0.7142857142857143
 40
0.7142857142857143
 40
0.7142857142857143
 40
0.7142857142857143
 40
1.0
 40
1.0
 40
1.0
 40
1.0
 10
11.1205
 20
-2.0194
 30
0.0
 10
11.1205
 20
-2.0194
 30
0.0
 10
10.3869
 20
-2.0194
 30
0.0
 10
10.3869
 20
-2.0194
 30
0.0
 10
10.3869
 20
-2.0194
 30
0.0
 10
10.3869
 20
-2.0194
 30
0.0
 10
-4.3759
 20
-2.0194
 30
0.0
 10
-4.3759
 20
-2.0194
 30
0.0
 10
-4.3759
 20
-2.0194
 30
0.0
 10
-4.3759
 20
-2.0194
 30
0.0
 10
-5.1095
 20
-2.0194
 30
0.0
 10
-5.1095
 20
-2.0194
 30
0.0
 10
-5.1095
 20
-2.0194
 30
0.0
 10
-5.1095
 20
-2.0194
 30
0.0
 10
-5.8054
 20
-1.7874
 30
0.0
 10
-5.8054
 20
-1.7874
 30
0.0
 10
-5.8054
 20
-1.7874
 30
0.0
 10
-5.8054
 20
-1.7874
 30
0.0
 10
-6.6142
 20
-1.5176
 30
0.0
 10
-6.6142
 20
-1.5176
 30
0.0
 10
-6.6142
 20
-1.5176
 30
0.0
 10
-6.6142
 20
-1.5176
 30
0.0
 10
-7.3102
 20
-1.2856
 30
0.0
 10
-7.3102
 20
-1.2856
 30
0.0
  0
SPLINE
  5
8E
330
1F
100
AcDbEntity
  8
VRSTVA_1
 62
   250
100
AcDbSpline
210
0.0
220
0.0
230
1.0
 70
     8
 71
     3
 72
     8
 73
     4
 74
     0
 42
0.0000000001
 43
0.0000000001
 40
0.0
 40
0.0
 40
0.0
 40
0.0
 40
1.0
 40
1.0
 40
1.0
 40
1.0
 10
14.6966
 20
-1.2856
 30
0.0
 10
13.963
 20
-1.5301
 30
0.0
 10
13.2295
 20
-1.7748
 30
0.0
 10
12.496
 20
-2.0194
 30
0.0
  0
SPLINE
  5
8F
330
1F
100
AcDbEntity
  8
VRSTVA_1
 62
   250
100
AcDbSpline
210
0.0
220
0.0
230
1.0
 70
    24
 71
     3
 72
     8
 73
     4
 74
     0
 42
0.0000000001
 43
0.0000000001
 40
0.0
 40
0.0
 40
0.0
 40
0.0
 40
1.0
 40
1.0
 40
1.0
 40
1.0
 10
12.496
 20
-2.0194
 30
0.0
 10
12.496
 20
-2.0194
 30
0.0
 10
-3.7341
 20
-2.0194
 30
0.0
 10
-3.7341
 20
-2.0194
 30
0.0
  0
SPLINE
  5
90
330
1F
100
AcDbEntity
  8
VRSTVA_1
 62
   250
100
AcDbSpline
210
0.0
220
0.0
230
1.0
 70
    24
 71
     3
 72
     8
 73
     4
 74
     0
 42
0.0000000001
 43
0.0000000001
 40
0.0
 40
0.0
 40
0.0
 40
0.0
 40
1.0
 40
1.0
 40
1.0
 40
1.0
 10
15.6135
 20
-3.1197
 30
0.0
 10
15.6135
 20
-3.1197
 30
0.0
 10
-8.2272
 20
-3.1197
 30
0.0
 10
-8.2272
 20
-3.1197
 30
0.0
  0
SPLINE
  5
91
330
1F
100
AcDbEntity
  8
VRSTVA_1
 62
   250
100
AcDbSpline
210
0.0
220
0.0
230
1.0
 70
    24
 71
     3
 72
     8
 73
     4
 74
     0
 42
0.0000000001
 43
0.0000000001
 40
0.0
 40
0.0
 40
0.0
 40
0.0
 40
1.0
 40
1.0
 40
1.0
 40
1.0
 10
-8.2272
 20
-3.8533
 30
0.0
 10
-8.2272
 20
-3.8533
 30
0.0
 10
-8.2272
 20
-3.1197
 30
0.0
 10
-8.2272
 20
-3.1197
 30
0.0
  0
SPLINE
  5
92
330
1F
100
AcDbEntity
  8
VRSTVA_1
 62
   250
100
AcDbSpline
210
0.0
220
0.0
230
1.0
 70
    24
 71
     3
 72
     8
 73
     4
 74
     0
 42
0.0000000001
 43
0.0000000001
 40
0.0
 40
0.0
 40
0.0
 40
0.0
 40
1.0
 40
1.0
 40
1.0
 40
1.0
 10
-8.2272
 20
-3.8533
 30
0.0
 10
-8.2272
 20
-3.8533
 30
0.0
 10
15.6135
 20
-3.8533
 30
0.0
 10
15.6135
 20
-3.8533
 30
0.0
  0
SPLINE
  5
93
330
1F
100
AcDbEntity
  8
VRSTVA_1
 62
   250
100
AcDbSpline
210
0.0
220
0.0
230
1.0
 70
    24
 71
     3
 72
     8
 73
     4
 74
     0
 42
0.0000000001
 43
0.0000000001
 40
0.0
 40
0.0
 40
0.0
 40
0.0
 40
1.0
 40
1.0
 40
1.0
 40
1.0
 10
15.6135
 20
-3.1197
 30
0.0
 10
15.6135
 20
-3.1197
 30
0.0
 10
15.6135
 20
-3.8533
 30
0.0
 10
15.6135
 20
-3.8533
 30
0.0
  0
SPLINE
  5
94
330
1F
100
AcDbEntity
  8
VRSTVA_1
100
AcDbSpline
210
0.0
220
0.0
230
1.0
 70
    24
 71
     3
 72
     8
 73
     4
 74
     0
 42
0.0000000001
 43
0.0000000001
 40
0.0
 40
0.0
 40
0.0
 40
0.0
 40
1.0
 40
1.0
 40
1.0
 40
1.0
 10
11.2777
 20
-10.4587
 30
0.0
 10
11.2777
 20
-10.4587
 30
0.0
 10
10.7071
 20
-10.4587
 30
0.0
 10
10.7071
 20
-10.4587
 30
0.0
  0
SPLINE
  5
95
330
1F
100
AcDbEntity
  8
VRSTVA_1
100
AcDbSpline
210
0.0
220
0.0
230
1.0
 70
    24
 71
     3
 72
     8
 73
     4
 74
     0
 42
0.0000000001
 43
0.0000000001
 40
0.0
 40
0.0
 40
0.0
 40
0.0
 40
1.0
 40
1.0
 40
1.0
 40
1.0
 10
-3.4653
 20
-10.4587
 30
0.0
 10
-3.4653
 20
-10.4587
 30
0.0
 10
-4.0359
 20
-10.4587
 30
0.0
 10
-4.0359
 20
-10.4587
 30
0.0
  0
SPLINE
  5
96
330
1F
100
AcDbEntity
  8
VRSTVA_1
100
AcDbSpline
210
0.0
220
0.0
230
1.0
 70
    24
 71
     3
 72
     8
 73
     4
 74
     0
 42
0.0000000001
 43
0.0000000001
 40
0.0
 40
0.0
 40
0.0
 40
0.0
 40
1.0
 40
1.0
 40
1.0
 40
1.0
 10
-4.0359
 20
-5.3651
 30
0.0
 10
-4.0359
 20
-5.3651
 30
0.0
 10
-4.0359
 20
-10.4587
 30
0.0
 10
-4.0359
 20
-10.4587
 30
0.0
  0
SPLINE
  5
97
330
1F
100
AcDbEntity
  8
VRSTVA_1
100
AcDbSpline
210
0.0
220
0.0
230
1.0
 70
    24
 71
     3
 72
     8
 73
     4
 74
     0
 42
0.0000000001
 43
0.0000000001
 40
0.0
 40
0.0
 40
0.0
 40
0.0
 40
1.0
 40
1.0
 40
1.0
 40
1.0
 10
11.2777
 20
-5.5106
 30
0.0
 10
11.2777
 20
-5.5106
 30
0.0
 10
11.2777
 20
-10.4587
 30
0.0
 10
11.2777
 20
-10.4587
 30
0.0
  0
SPLINE
  5
98
330
1F
100
AcDbEntity
  8
VRSTVA_1
100
AcDbSpline
210
0.0
220
0.0
230
1.0
 70
    24
 71
     3
 72
     8
 73
     4
 74
     0
 42
0.0000000001
 43
0.0000000001
 40
0.0
 40
0.0
 40
0.0
 40
0.0
 40
1.0
 40
1.0
 40
1.0
 40
1.0
 10
-4.0406
 20
-5.4939
 30
0.0
 10
-4.0406
 20
-5.4939
 30
0.0
 10
11.2557
 20
-5.4939
 30
0.0
 10
11.2557
 20
-5.4939
 30
0.0
  0
SPLINE
  5
99
330
1F
100
AcDbEntity
  8
VRSTVA_1
100
AcDbSpline
210
0.0
220
0.0
230
1.0
 70
    24
 71
     3
 72
     8
 73
     4
 74
     0
 42
0.0000000001
 43
0.0000000001
 40
0.0
 40
0.0
 40
0.0
 40
0.0
 40
1.0
 40
1.0
 40
1.0
 40
1.0
 10
-3.4641
 20
-10.4565
 30
0.0
 10
-3.4641
 20
-10.4565
 30
0.0
 10
10.7046
 20
-10.4565
 30
0.0
 10
10.7046
 20
-10.4565
 30
0.0
  0
SPLINE
  5
9A
330
1F
100
AcDbEntity
  8
VRSTVA_1
 62
   250
100
AcDbSpline
210
0.0
220
0.0
230
1.0
 70
    24
 71
     3
 72
     8
 73
     4
 74
     0
 42
0.0000000001
 43
0.0000000001
 40
0.0
 40
0.0
 40
0.0
 40
0.0
 40
1.0
 40
1.0
 40
1.0
 40
1.0
 10
-3.9455
 20
-10.2629
 30
0.0
 10
-3.9455
 20
-10.2629
 30
0.0
 10
11.2095
 20
-9.8688
 30
0.0
 10
11.2095
 20
-9.8688
 30
0.0
  0
SPLINE
  5
9B
330
1F
100
AcDbEntity
  8
VRSTVA_1
 62
   250
100
AcDbSpline
210
0.0
220
0.0
230
1.0
 70
    24
 71
     3
 72
     8
 73
     4
 74
     0
 42
0.0000000001
 43
0.0000000001
 40
0.0
 40
0.0
 40
0.0
 40
0.0
 40
1.0
 40
1.0
 40
1.0
 40
1.0
 10
-3.9691
 20
-9.461
 30
0.0
 10
-3.9691
 20
-9.461
 30
0.0
 10
11.1665
 20
-9.0674
 30
0.0
 10
11.1665
 20
-9.0674
 30
0.0
  0
SPLINE
  5
9C
330
1F
100
AcDbEntity
  8
VRSTVA_1
 62
   250
100
AcDbSpline
210
0.0
220
0.0
230
1.0
 70
    24
 71
     3
 72
     8
 73
     4
 74
     0
 42
0.0000000001
 43
0.0000000001
 40
0.0
 40
0.0
 40
0.0
 40
0.0
 40
1.0
 40
1.0
 40
1.0
 40
1.0
 10
-3.9455
 20
-8.7299
 30
0.0
 10
-3.9455
 20
-8.7299
 30
0.0
 10
11.188
 20
-8.3363
 30
0.0
 10
11.188
 20
-8.3363
 30
0.0
  0
SPLINE
  5
9D
330
1F
100
AcDbEntity
  8
VRSTVA_1
 62
   250
100
AcDbSpline
210
0.0
220
0.0
230
1.0
 70
    24
 71
     3
 72
     8
 73
     4
 74
     0
 42
0.0000000001
 43
0.0000000001
 40
0.0
 40
0.0
 40
0.0
 40
0.0
 40
1.0
 40
1.0
 40
1.0
 40
1.0
 10
-4.0397
 20
-7.9988
 30
0.0
 10
-4.0397
 20
-7.9988
 30
0.0
 10
11.3767
 20
-7.5979
 30
0.0
 10
11.3767
 20
-7.5979
 30
0.0
  0
SPLINE
  5
9E
330
1F
100
AcDbEntity
  8
VRSTVA_1
 62
   250
100
AcDbSpline
210
0.0
220
0.0
230
1.0
 70
    24
 71
     3
 72
     8
 73
     4
 74
     0
 42
0.0000000001
 43
0.0000000001
 40
0.0
 40
0.0
 40
0.0
 40
0.0
 40
1.0
 40
1.0
 40
1.0
 40
1.0
 10
-4.0632
 20
-7.3385
 30
0.0
 10
-4.0632
 20
-7.3385
 30
0.0
 10
11.3532
 20
-6.9375
 30
0.0
 10
11.3532
 20
-6.9375
 30
0.0
  0
SPLINE
  5
9F
330
1F
100
AcDbEntity
  8
VRSTVA_1
 62
   250
100
AcDbSpline
210
0.0
220
0.0
230
1.0
 70
    24
 71
     3
 72
     8
 73
     4
 74
     0
 42
0.0000000001
 43
0.0000000001
 40
0.0
 40
0.0
 40
0.0
 40
0.0
 40
1.0
 40
1.0
 40
1.0
 40
1.0
 10
-4.0953
 20
-6.5681
 30
0.0
 10
-4.0953
 20
-6.5681
 30
0.0
 10
11.3211
 20
-6.1671
 30
0.0
 10
11.3211
 20
-6.1671
 30
0.0
  0
SPLINE
  5
A0
330
1F
100
AcDbEntity
  8
VRSTVA_1
 62
   250
100
AcDbSpline
210
0.0
220
0.0
230
1.0
 70
    24
 71
     3
 72
     8
 73
     4
 74
     0
 42
0.0000000001
 43
0.0000000001
 40
0.0
 40
0.0
 40
0.0
 40
0.0
 40
1.0
 40
1.0
 40
1.0
 40
1.0
 10
2.6227
 20
-17.0064
 30
0.0
 10
2.6227
 20
-17.0064
 30
0.0
 10
4.8091
 20
-16.9495
 30
0.0
 10
4.8091
 20
-16.9495
 30
0.0
  0
SPLINE
  5
A1
330
1F
100
AcDbEntity
  8
VRSTVA_1
 62
   250
100
AcDbSpline
210
0.0
220
0.0
230
1.0
 70
    24
 71
     3
 72
     8
 73
     4
 74
     0
 42
0.0000000001
 43
0.0000000001
 40
0.0
 40
0.0
 40
0.0
 40
0.0
 40
1.0
 40
1.0
 40
1.0
 40
1.0
 10
2.6177
 20
-16.6146
 30
0.0
 10
2.6177
 20
-16.6146
 30
0.0
 10
4.8041
 20
-16.5577
 30
0.0
 10
4.8041
 20
-16.5577
 30
0.0
  0
SPLINE
  5
A2
330
1F
100
AcDbEntity
  8
VRSTVA_1
 62
   250
100
AcDbSpline
210
0.0
220
0.0
230
1.0
 70
    24
 71
     3
 72
     8
 73
     4
 74
     0
 42
0.0000000001
 43
0.0000000001
 40
0.0
 40
0.0
 40
0.0
 40
0.0
 40
1.0
 40
1.0
 40
1.0
 40
1.0
 10
2.6127
 20
-16.2228
 30
0.0
 10
2.6127
 20
-16.2228
 30
0.0
 10
4.7991
 20
-16.1659
 30
0.0
 10
4.7991
 20
-16.1659
 30
0.0
  0
SPLINE
  5
A3
330
1F
100
AcDbEntity
  8
VRSTVA_1
 62
   250
100
AcDbSpline
210
0.0
220
0.0
230
1.0
 70
    24
 71
     3
 72
     8
 73
     4
 74
     0
 42
0.0000000001
 43
0.0000000001
 40
0.0
 40
0.0
 40
0.0
 40
0.0
 40
1.0
 40
1.0
 40
1.0
 40
1.0
 10
2.6077
 20
-15.831
 30
0.0
 10
2.6077
 20
-15.831
 30
0.0
 10
4.7941
 20
-15.7741
 30
0.0
 10
4.7941
 20
-15.7741
 30
0.0
  0
SPLINE
  5
A4
330
1F
100
AcDbEntity
  8
VRSTVA_1
 62
   250
100
AcDbSpline
210
0.0
220
0.0
230
1.0
 70
    24
 71
     3
 72
     8
 73
     4
 74
     0
 42
0.0000000001
 43
0.0000000001
 40
0.0
 40
0.0
 40
0.0
 40
0.0
 40
1.0
 40
1.0
 40
1.0
 40
1.0
 10
2.6027
 20
-15.4392
 30
0.0
 10
2.6027
 20
-15.4392
 30
0.0
 10
4.7891
 20
-15.3823
 30
0.0
 10
4.7891
 20
-15.3823
 30
0.0
  0
SPLINE
  5
A5
330
1F
100
AcDbEntity
  8
VRSTVA_1
 62
   250
100
AcDbSpline
210
0.0
220
0.0
230
1.0
 70
    24
 71
     3
 72
     8
 73
     4
 74
     0
 42
0.0000000001
 43
0.0000000001
 40
0.0
 40
0.0
 40
0.0
 40
0.0
 40
1.0
 40
1.0
 40
1.0
 40
1.0
 10
2.5977
 20
-15.0474
 30
0.0
 10
2.5977
 20
-15.0474
 30
0.0
 10
4.7841
 20
-14.9905
 30
0.0
 10
4.7841
 20
-14.9905
 30
0.0
  0
SPLINE
  5
A6
330
1F
100
AcDbEntity
  8
VRSTVA_1
 62
   250
100
AcDbSpline
210
0.0
220
0.0
230
1.0
 70
    24
 71
     3
 72
     8
 73
     4
 74
     0
 42
0.0000000001
 43
0.0000000001
 40
0.0
 40
0.0
 40
0.0
 40
0.0
 40
1.0
 40
1.0
 40
1.0
 40
1.0
 10
2.5927
 20
-14.6556
 30
0.0
 10
2.5927
 20
-14.6556
 30
0.0
 10
4.7791
 20
-14.5987
 30
0.0
 10
4.7791
 20
-14.5987
 30
0.0
  0
SPLINE
  5
A7
330
1F
100
AcDbEntity
  8
VRSTVA_1
 62
   250
100
AcDbSpline
210
0.0
220
0.0
230
1.0
 70
    24
 71
     3
 72
     8
 73
     4
 74
     0
 42
0.0000000001
 43
0.0000000001
 40
0.0
 40
0.0
 40
0.0
 40
0.0
 40
1.0
 40
1.0
 40
1.0
 40
1.0
 10
2.5877
 20
-14.2638
 30
0.0
 10
2.5877
 20
-14.2638
 30
0.0
 10
4.7741
 20
-14.2069
 30
0.0
 10
4.7741
 20
-14.2069
 30
0.0
  0
SPLINE
  5
A8
330
1F
100
AcDbEntity
  8
VRSTVA_1
 62
   250
100
AcDbSpline
210
0.0
220
0.0
230
1.0
 70
    24
 71
     3
 72
     8
 73
     4
 74
     0
 42
0.0000000001
 43
0.0000000001
 40
0.0
 40
0.0
 40
0.0
 40
0.0
 40
1.0
 40
1.0
 40
1.0
 40
1.0
 10
2.5827
 20
-13.872
 30
0.0
 10
2.5827
 20
-13.872
 30
0.0
 10
4.7691
 20
-13.8151
 30
0.0
 10
4.7691
 20
-13.8151
 30
0.0
  0
SPLINE
  5
A9
330
1F
100
AcDbEntity
  8
VRSTVA_1
 62
   250
100
AcDbSpline
210
0.0
220
0.0
230
1.0
 70
    24
 71
     3
 72
     8
 73
     4
 74
     0
 42
0.0000000001
 43
0.0000000001
 40
0.0
 40
0.0
 40
0.0
 40
0.0
 40
1.0
 40
1.0
 40
1.0
 40
1.0
 10
2.5777
 20
-13.4802
 30
0.0
 10
2.5777
 20
-13.4802
 30
0.0
 10
4.7641
 20
-13.4233
 30
0.0
 10
4.7641
 20
-13.4233
 30
0.0
  0
SPLINE
  5
AA
330
1F
100
AcDbEntity
  8
VRSTVA_1
 62
   250
100
AcDbSpline
210
0.0
220
0.0
230
1.0
 70
    24
 71
     3
 72
     8
 73
     4
 74
     0
 42
0.0000000001
 43
0.0000000001
 40
0.0
 40
0.0
 40
0.0
 40
0.0
 40
1.0
 40
1.0
 40
1.0
 40
1.0
 10
2.5727
 20
-13.0884
 30
0.0
 10
2.5727
 20
-13.0884
 30
0.0
 10
4.7591
 20
-13.0315
 30
0.0
 10
4.7591
 20
-13.0315
 30
0.0
  0
SPLINE
  5
AB
330
1F
100
AcDbEntity
  8
VRSTVA_1
 62
   250
100
AcDbSpline
210
0.0
220
0.0
230
1.0
 70
    24
 71
     3
 72
     8
 73
     4
 74
     0
 42
0.0000000001
 43
0.0000000001
 40
0.0
 40
0.0
 40
0.0
 40
0.0
 40
1.0
 40
1.0
 40
1.0
 40
1.0
 10
2.5677
 20
-12.6966
 30
0.0
 10
2.5677
 20
-12.6966
 30
0.0
 10
4.7541
 20
-12.6397
 30
0.0
 10
4.7541
 20
-12.6397
 30
0.0
  0
SPLINE
  5
AC
330
1F
100
AcDbEntity
  8
VRSTVA_1
 62
   250
100
AcDbSpline
210
0.0
220
0.0
230
1.0
 70
    24
 71
     3
 72
     8
 73
     4
 74
     0
 42
0.0000000001
 43
0.0000000001
 40
0.0
 40
0.0
 40
0.0
 40
0.0
 40
1.0
 40
1.0
 40
1.0
 40
1.0
 10
2.5627
 20
-12.3048
 30
0.0
 10
2.5627
 20
-12.3048
 30
0.0
 10
4.7491
 20
-12.2479
 30
0.0
 10
4.7491
 20
-12.2479
 30
0.0
  0
SPLINE
  5
AD
330
1F
100
AcDbEntity
  8
VRSTVA_1
 62
   250
100
AcDbSpline
210
0.0
220
0.0
230
1.0
 70
    24
 71
     3
 72
     8
 73
     4
 74
     0
 42
0.0000000001
 43
0.0000000001
 40
0.0
 40
0.0
 40
0.0
 40
0.0
 40
1.0
 40
1.0
 40
1.0
 40
1.0
 10
2.5577
 20
-11.913
 30
0.0
 10
2.5577
 20
-11.913
 30
0.0
 10
4.7441
 20
-11.8561
 30
0.0
 10
4.7441
 20
-11.8561
 30
0.0
  0
SPLINE
  5
AE
330
1F
100
AcDbEntity
  8
VRSTVA_1
 62
   250
100
AcDbSpline
210
0.0
220
0.0
230
1.0
 70
    24
 71
     3
 72
     8
 73
     4
 74
     0
 42
0.0000000001
 43
0.0000000001
 40
0.0
 40
0.0
 40
0.0
 40
0.0
 40
1.0
 40
1.0
 40
1.0
 40
1.0
 10
2.5527
 20
-11.5212
 30
0.0
 10
2.5527
 20
-11.5212
 30
0.0
 10
4.7391
 20
-11.4643
 30
0.0
 10
4.7391
 20
-11.4643
 30
0.0
  0
SPLINE
  5
AF
330
1F
100
AcDbEntity
  8
VRSTVA_1
 62
   250
100
AcDbSpline
210
0.0
220
0.0
230
1.0
 70
    24
 71
     3
 72
     8
 73
     4
 74
     0
 42
0.0000000001
 43
0.0000000001
 40
0.0
 40
0.0
 40
0.0
 40
0.0
 40
1.0
 40
1.0
 40
1.0
 40
1.0
 10
2.6579
 20
-2.795
 30
0.0
 10
2.6579
 20
-2.795
 30
0.0
 10
4.8443
 20
-2.7381
 30
0.0
 10
4.8443
 20
-2.7381
 30
0.0
  0
SPLINE
  5
B0
330
1F
100
AcDbEntity
  8
VRSTVA_1
 62
   250
100
AcDbSpline
210
0.0
220
0.0
230
1.0
 70
    24
 71
     3
 72
     8
 73
     4
 74
     0
 42
0.0000000001
 43
0.0000000001
 40
0.0
 40
0.0
 40
0.0
 40
0.0
 40
1.0
 40
1.0
 40
1.0
 40
1.0
 10
2.5477
 20
-11.1294
 30
0.0
 10
2.5477
 20
-11.1294
 30
0.0
 10
4.7341
 20
-11.0725
 30
0.0
 10
4.7341
 20
-11.0725
 30
0.0
  0
SPLINE
  5
B1
330
1F
100
AcDbEntity
  8
VRSTVA_1
 62
   250
100
AcDbSpline
210
0.0
220
0.0
230
1.0
 70
    24
 71
     3
 72
     8
 73
     4
 74
     0
 42
0.0000000001
 43
0.0000000001
 40
0.0
 40
0.0
 40
0.0
 40
0.0
 40
1.0
 40
1.0
 40
1.0
 40
1.0
 10
2.6529
 20
-2.4032
 30
0.0
 10
2.6529
 20
-2.4032
 30
0.0
 10
4.8393
 20
-2.3463
 30
0.0
 10
4.8393
 20
-2.3463
 30
0.0
  0
SPLINE
  5
B2
330
1F
100
AcDbEntity
  8
VRSTVA_1
 62
   250
100
AcDbSpline
210
0.0
220
0.0
230
1.0
 70
    24
 71
     3
 72
     8
 73
     4
 74
     0
 42
0.0000000001
 43
0.0000000001
 40
0.0
 40
0.0
 40
0.0
 40
0.0
 40
1.0
 40
1.0
 40
1.0
 40
1.0
 10
2.5427
 20
-10.7376
 30
0.0
 10
2.5427
 20
-10.7376
 30
0.0
 10
4.7291
 20
-10.6807
 30
0.0
 10
4.7291
 20
-10.6807
 30
0.0
  0
SPLINE
  5
B3
330
1F
100
AcDbEntity
  8
VRSTVA_1
 62
   250
100
AcDbSpline
210
0.0
220
0.0
230
1.0
 70
     8
 71
     3
 72
    60
 73
    56
 74
     0
 42
0.0000000001
 43
0.0000000001
 40
0.0
 40
0.0
 40
0.0
 40
0.0
 40
0.0666666666666667
 40
0.0666666666666667
 40
0.0666666666666667
 40
0.0666666666666667
 40
0.1333333333333333
 40
0.1333333333333333
 40
0.1333333333333333
 40
0.1333333333333333
 40
0.2
 40
0.2
 40
0.2
 40
0.2
 40
0.2666666666666667
 40
0.2666666666666667
 40
0.2666666666666667
 40
0.2666666666666667
 40
0.3333333333333333
 40
0.3333333333333333
 40
0.3333333333333333
 40
0.3333333333333333
 40
0.4
 40
0.4
 40
0.4
 40
0.4
 40
0.4666666666666667
 40
0.4666666666666667
 40
0.4666666666666667
 40
0.4666666666666667
 40
0.5333333333333333
 40
0.5333333333333333
 40
0.5333333333333333
 40
0.5333333333333333
 40
0.6
 40
0.6
 40
0.6
 40
0.6
 40
0.6666666666666666
 40
0.6666666666666666
 40
0.6666666666666666
 40
0.6666666666666666
 40
0.7333333333333333
 40
0.7333333333333333
 40
0.7333333333333333
 40
0.7333333333333333
 40
0.8
 40
0.8
 40
0.8
 40
0.8
 40
0.8666666666666667
 40
0.8666666666666667
 40
0.8666666666666667
 40
0.8666666666666667
 40
1.0
 40
1.0
 40
1.0
 40
1.0
 10
2.2498
 20
12.2498
 30
0.0
 10
2.2498
 20
12.2498
 30
0.0
 10
2.2548
 20
13.8733
 30
0.0
 10
2.2548
 20
13.8733
 30
0.0
 10
2.2548
 20
13.8733
 30
0.0
 10
2.2548
 20
13.8733
 30
0.0
 10
2.2787
 20
14.1039
 30
0.0
 10
2.2787
 20
14.1039
 30
0.0
 10
2.2787
 20
14.1039
 30
0.0
 10
2.2787
 20
14.1039
 30
0.0
 10
2.3554
 20
14.3658
 30
0.0
 10
2.3554
 20
14.3658
 30
0.0
 10
2.3554
 20
14.3658
 30
0.0
 10
2.3554
 20
14.3658
 30
0.0
 10
2.4818
 20
14.6134
 30
0.0
 10
2.4818
 20
14.6134
 30
0.0
 10
2.4818
 20
14.6134
 30
0.0
 10
2.4818
 20
14.6134
 30
0.0
 10
2.6489
 20
14.8291
 30
0.0
 10
2.6489
 20
14.8291
 30
0.0
 10
2.6489
 20
14.8291
 30
0.0
 10
2.6489
 20
14.8291
 30
0.0
 10
2.8623
 20
15.0172
 30
0.0
 10
2.8623
 20
15.0172
 30
0.0
 10
2.8623
 20
15.0172
 30
0.0
 10
2.8623
 20
15.0172
 30
0.0
 10
3.1168
 20
15.165
 30
0.0
 10
3.1168
 20
15.165
 30
0.0
 10
3.1168
 20
15.165
 30
0.0
 10
3.1168
 20
15.165
 30
0.0
 10
3.4027
 20
15.261
 30
0.0
 10
3.4027
 20
15.261
 30
0.0
 10
3.4027
 20
15.261
 30
0.0
 10
3.4027
 20
15.261
 30
0.0
 10
3.727
 20
15.297
 30
0.0
 10
3.727
 20
15.297
 30
0.0
 10
3.727
 20
15.297
 30
0.0
 10
3.727
 20
15.297
 30
0.0
 10
4.3763
 20
15.1703
 30
0.0
 10
4.3763
 20
15.1703
 30
0.0
 10
4.3763
 20
15.1703
 30
0.0
 10
4.3763
 20
15.1703
 30
0.0
 10
4.7676
 20
14.9253
 30
0.0
 10
4.7676
 20
14.9253
 30
0.0
 10
4.7676
 20
14.9253
 30
0.0
 10
4.7676
 20
14.9253
 30
0.0
 10
5.0365
 20
14.5581
 30
0.0
 10
5.0365
 20
14.5581
 30
0.0
 10
5.0365
 20
14.5581
 30
0.0
 10
5.0365
 20
14.5581
 30
0.0
 10
5.1097
 20
14.1905
 30
0.0
 10
5.1097
 20
14.1905
 30
0.0
 10
5.1097
 20
14.1905
 30
0.0
 10
5.1097
 20
14.1905
 30
0.0
 10
5.1342
 20
12.3042
 30
0.0
 10
5.1342
 20
12.3042
 30
0.0
  0
SPLINE
  5
B4
330
1F
100
AcDbEntity
  8
VRSTVA_1
 62
   250
100
AcDbSpline
210
0.0
220
0.0
230
1.0
 70
    11
 71
     3
 72
    40
 73
    36
 74
     0
 42
0.0000000001
 43
0.0000000001
 40
0.0
 40
0.0
 40
0.0
 40
0.0
 40
0.1
 40
0.1
 40
0.1
 40
0.1
 40
0.2
 40
0.2
 40
0.2
 40
0.2
 40
0.3
 40
0.3
 40
0.3
 40
0.3
 40
0.4
 40
0.4
 40
0.4
 40
0.4
 40
0.5
 40
0.5
 40
0.5
 40
0.5
 40
0.6
 40
0.6
 40
0.6
 40
0.6
 40
0.7
 40
0.7
 40
0.7
 40
0.7
 40
0.8
 40
0.8
 40
0.8
 40
0.8
 40
1.0
 40
1.0
 40
1.0
 40
1.0
 10
2.2515
 20
12.2498
 30
0.0
 10
2.2509
 20
12.2498
 30
0.0
 10
2.2504
 20
12.2498
 30
0.0
 10
2.2498
 20
12.2498
 30
0.0
 10
2.2498
 20
12.2498
 30
0.0
 10
0.2827
 20
12.1506
 30
0.0
 10
-1.6691
 20
11.8542
 30
0.0
 10
-3.5765
 20
11.3649
 30
0.0
 10
-3.5765
 20
11.3649
 30
0.0
 10
-3.5765
 20
11.3649
 30
0.0
 10
-2.9787
 20
7.3178
 30
0.0
 10
-2.9787
 20
7.3178
 30
0.0
 10
-2.9787
 20
7.3178
 30
0.0
 10
-2.9787
 20
7.3178
 30
0.0
 10
10.3913
 20
7.3491
 30
0.0
 10
10.3913
 20
7.3491
 30
0.0
 10
10.3913
 20
7.3491
 30
0.0
 10
10.3913
 20
7.3491
 30
0.0
 10
11.0176
 20
11.5135
 30
0.0
 10
11.0176
 20
11.5135
 30
0.0
 10
11.0176
 20
11.5135
 30
0.0
 10
11.0176
 20
11.5135
 30
0.0
 10
7.3541
 20
12.0458
 30
0.0
 10
7.3541
 20
12.0458
 30
0.0
 10
7.3541
 20
12.0458
 30
0.0
 10
7.3541
 20
12.0458
 30
0.0
 10
5.4754
 20
12.2963
 30
0.0
 10
5.4754
 20
12.2963
 30
0.0
 10
5.4754
 20
12.2963
 30
0.0
 10
5.4754
 20
12.2963
 30
0.0
 10
4.8305
 20
12.287
 30
0.0
 10
4.8305
 20
12.287
 30
0.0
 10
4.8305
 20
12.287
 30
0.0
 10
4.8305
 20
12.287
 30
0.0
 10
2.2515
 20
12.2498
 30
0.0
 10
2.2515
 20
12.2498
 30
0.0
  0
SPLINE
  5
B5
330
1F
100
AcDbEntity
  8
VRSTVA_1
 62
   250
100
AcDbSpline
210
0.0
220
0.0
230
1.0
 70
     8
 71
     3
 72
    16
 73
    12
 74
     0
 42
0.0000000001
 43
0.0000000001
 40
0.0
 40
0.0
 40
0.0
 40
0.0
 40
0.25
 40
0.25
 40
0.25
 40
0.25
 40
0.5
 40
0.5
 40
0.5
 40
0.5
 40
1.0
 40
1.0
 40
1.0
 40
1.0
 10
6.3457
 20
14.0574
 30
0.0
 10
6.3457
 20
14.0574
 30
0.0
 10
7.4522
 20
14.0574
 30
0.0
 10
7.4522
 20
14.0574
 30
0.0
 10
7.4522
 20
14.0574
 30
0.0
 10
7.4522
 20
14.0574
 30
0.0
 10
7.465
 20
12.6393
 30
0.0
 10
7.465
 20
12.6393
 30
0.0
 10
7.465
 20
12.6393
 30
0.0
 10
7.465
 20
12.6393
 30
0.0
 10
6.3838
 20
12.6159
 30
0.0
 10
6.3838
 20
12.6159
 30
0.0
  0
SPLINE
  5
B6
330
1F
100
AcDbEntity
  8
VRSTVA_1
 62
   250
100
AcDbSpline
210
0.0
220
0.0
230
1.0
 70
     8
 71
     3
 72
    24
 73
    20
 74
     0
 42
0.0000000001
 43
0.0000000001
 40
0.0
 40
0.0
 40
0.0
 40
0.0
 40
0.1666666666666667
 40
0.1666666666666667
 40
0.1666666666666667
 40
0.1666666666666667
 40
0.3333333333333333
 40
0.3333333333333333
 40
0.3333333333333333
 40
0.3333333333333333
 40
0.5
 40
0.5
 40
0.5
 40
0.5
 40
0.6666666666666666
 40
0.6666666666666666
 40
0.6666666666666666
 40
0.6666666666666666
 40
1.0
 40
1.0
 40
1.0
 40
1.0
 10
1.0263
 20
13.8446
 30
0.0
 10
1.0263
 20
13.8446
 30
0.0
 10
0.2119
 20
13.6132
 30
0.0
 10
0.2119
 20
13.6132
 30
0.0
 10
0.2119
 20
13.6132
 30
0.0
 10
0.1311
 20
13.5915
 30
0.0
 10
0.0752
 20
13.5187
 30
0.0
 10
0.0752
 20
13.435
 30
0.0
 10
0.0752
 20
13.435
 30
0.0
 10
0.0752
 20
13.435
 30
0.0
 10
0.0773
 20
13.1148
 30
0.0
 10
0.0773
 20
13.1148
 30
0.0
 10
0.0773
 20
13.1148
 30
0.0
 10
0.0773
 20
13.1148
 30
0.0
 10
0.2207
 20
13.0264
 30
0.0
 10
0.2207
 20
13.0264
 30
0.0
 10
0.2207
 20
13.0264
 30
0.0
 10
0.2207
 20
13.0264
 30
0.0
 10
1.043
 20
12.761
 30
0.0
 10
1.043
 20
12.761
 30
0.0
  0
SPLINE
  5
B7
330
1F
100
AcDbEntity
  8
VRSTVA_1
 62
   250
100
AcDbSpline
210
0.0
220
0.0
230
1.0
 70
     8
 71
     3
 72
    36
 73
    32
 74
     0
 42
0.0000000001
 43
0.0000000001
 40
0.0
 40
0.0
 40
0.0
 40
0.0
 40
0.1111111111111111
 40
0.1111111111111111
 40
0.1111111111111111
 40
0.1111111111111111
 40
0.2222222222222222
 40
0.2222222222222222
 40
0.2222222222222222
 40
0.2222222222222222
 40
0.3333333333333333
 40
0.3333333333333333
 40
0.3333333333333333
 40
0.3333333333333333
 40
0.4444444444444444
 40
0.4444444444444444
 40
0.4444444444444444
 40
0.4444444444444444
 40
0.5555555555555556
 40
0.5555555555555556
 40
0.5555555555555556
 40
0.5555555555555556
 40
0.6666666666666666
 40
0.6666666666666666
 40
0.6666666666666666
 40
0.6666666666666666
 40
0.7777777777777778
 40
0.7777777777777778
 40
0.7777777777777778
 40
0.7777777777777778
 40
1.0
 40
1.0
 40
1.0
 40
1.0
 10
2.2272
 20
12.2917
 30
0.0
 10
2.2272
 20
12.2917
 30
0.0
 10
2.2272
 20
15.6165
 30
0.0
 10
2.2272
 20
15.6165
 30
0.0
 10
2.2272
 20
15.6165
 30
0.0
 10
2.2272
 20
15.6165
 30
0.0
 10
2.1471
 20
15.8217
 30
0.0
 10
2.1471
 20
15.8217
 30
0.0
 10
2.1471
 20
15.8217
 30
0.0
 10
1.3344
 20
16.4889
 30
0.0
 10
1.0283
 20
17.5947
 30
0.0
 10
1.3827
 20
18.585
 30
0.0
 10
1.3827
 20
18.585
 30
0.0
 10
1.7368
 20
19.5749
 30
0.0
 10
2.6753
 20
20.2357
 30
0.0
 10
3.7267
 20
20.2357
 30
0.0
 10
3.7267
 20
20.2357
 30
0.0
 10
4.7784
 20
20.2357
 30
0.0
 10
5.7166
 20
19.5749
 30
0.0
 10
6.0709
 20
18.585
 30
0.0
 10
6.0709
 20
18.585
 30
0.0
 10
6.4253
 20
17.5947
 30
0.0
 10
6.1192
 20
16.4889
 30
0.0
 10
5.3066
 20
15.8217
 30
0.0
 10
5.3066
 20
15.8217
 30
0.0
 10
5.3066
 20
15.8217
 30
0.0
 10
5.1925
 20
15.4989
 30
0.0
 10
5.1925
 20
15.4989
 30
0.0
 10
5.1925
 20
15.4989
 30
0.0
 10
5.1925
 20
15.4989
 30
0.0
 10
5.2159
 20
12.2682
 30
0.0
 10
5.2159
 20
12.2682
 30
0.0
  0
SPLINE
  5
B8
330
1F
100
AcDbEntity
  8
VRSTVA_1
 62
   250
100
AcDbSpline
210
0.0
220
0.0
230
1.0
 70
     8
 71
     3
 72
    24
 73
    20
 74
     0
 42
0.0000000001
 43
0.0000000001
 40
0.0
 40
0.0
 40
0.0
 40
0.0
 40
0.1666666666666667
 40
0.1666666666666667
 40
0.1666666666666667
 40
0.1666666666666667
 40
0.3333333333333333
 40
0.3333333333333333
 40
0.3333333333333333
 40
0.3333333333333333
 40
0.5
 40
0.5
 40
0.5
 40
0.5
 40
0.6666666666666666
 40
0.6666666666666666
 40
0.6666666666666666
 40
0.6666666666666666
 40
1.0
 40
1.0
 40
1.0
 40
1.0
 10
1.0977
 20
12.1737
 30
0.0
 10
1.0977
 20
12.1737
 30
0.0
 10
1.1079
 20
15.1486
 30
0.0
 10
1.1079
 20
15.1486
 30
0.0
 10
1.1079
 20
15.1486
 30
0.0
 10
-0.3239
 20
16.5922
 30
0.0
 10
-0.3175
 20
18.9221
 30
0.0
 10
1.1223
 20
20.3577
 30
0.0
 10
1.1223
 20
20.3577
 30
0.0
 10
2.5617
 20
21.7934
 30
0.0
 10
4.8919
 20
21.7934
 30
0.0
 10
6.3314
 20
20.3577
 30
0.0
 10
6.3314
 20
20.3577
 30
0.0
 10
7.7711
 20
18.9221
 30
0.0
 10
7.7773
 20
16.5922
 30
0.0
 10
6.3457
 20
15.1486
 30
0.0
 10
6.3457
 20
15.1486
 30
0.0
 10
6.3457
 20
15.1486
 30
0.0
 10
6.2983
 20
12.1974
 30
0.0
 10
6.2983
 20
12.1974
 30
0.0
  0
ENDSEC
  0
SECTION
  2
OBJECTS
  0
DICTIONARY
  5
C
330
0
100
AcDbDictionary
  3
ACAD_GROUP
350
D
  3
ACAD_LAYOUT
350
1A
  3
ACAD_MATERIAL
350
3B
  3
ACAD_MLEADERSTYLE
350
DB
  3
ACAD_MLINESTYLE
350
17
  3
ACAD_PLOTSETTINGS
350
19
  3
ACAD_VISUALSTYLE
350
2A
  3
ACDBHEADERROUNDTRIPXREC
350
B9
  3
ACDBVARIABLEDICTIONARY
350
D9
  0
DICTIONARY
  5
D
102
{ACAD_REACTORS
330
C
102
}
330
C
100
AcDbDictionary
  0
DICTIONARY
  5
1A
102
{ACAD_REACTORS
330
C
102
}
330
C
100
AcDbDictionary
  0
DICTIONARY
  5
3B
102
{ACAD_REACTORS
330
C
102
}
330
C
100
AcDbDictionary
  3
BYBLOCK
350
3D
  3
BYLAYER
350
3C
  3
GLOBAL
350
3E
  0
DICTIONARY
  5
DB
102
{ACAD_REACTORS
330
C
102
}
330
C
100
AcDbDictionary
  0
DICTIONARY
  5
17
102
{ACAD_REACTORS
330
C
102
}
330
C
100
AcDbDictionary
  3
STANDARD
350
18
  0
DICTIONARY
  5
19
102
{ACAD_REACTORS
330
C
102
}
330
C
100
AcDbDictionary
  0
DICTIONARY
  5
2A
102
{ACAD_REACTORS
330
C
102
}
330
C
100
AcDbDictionary
  3
2DWIREFRAME
350
2F
  3
3D_HIDDEN
350
31
  3
3DWIREFRAME
350
30
  3
BASIC
350
32
  3
BRIGHTEN
350
36
  3
COLORCHANGE
350
3A
  3
CONCEPTUAL
350
34
  3
DIM
350
35
  3
FACEPATTERN
350
39
  3
FLAT
350
2B
  3
FLATWITHEDGES
350
2C
  3
GOURAUD
350
2D
  3
GOURAUDWITHEDGES
350
2E
  3
LINEPATTERN
350
38
  3
REALISTIC
350
33
  3
THICKEN
350
37
  0
DICTIONARY
  5
B9
102
{ACAD_REACTORS
330
C
102
}
330
C
100
AcDbDictionary
  3
CEPSNTYPE
350
C2
  3
DIMSTYLEDATA
350
D8
  3
FINGERPRINTGUID
350
C3
  3
HYPERLINKBASE
350
BC
  3
INSUNITS
350
C1
  3
LAYOUTDICT
350
BE
  3
LWETCUNION
350
C0
  3
PLOTSETDICT
350
BF
  3
PSVPSCALE
350
C5
  3
PUCSBASE
350
C8
  3
PUCSORGBACK
350
CE
  3
PUCSORGBOTTOM
350
CA
  3
PUCSORGFRONT
350
CD
  3
PUCSORGLEFT
350
CB
  3
PUCSORGRIGHT
350
CC
  3
PUCSORGTOP
350
C9
  3
PUCSORTHOREF
350
C6
  3
PUCSORTHOVIEW
350
C7
  3
STYLESHEET
350
BD
  3
TSTACKALIGN
350
BA
  3
TSTACKSIZE
350
BB
  3
UCSBASE
350
D1
  3
UCSORGBACK
350
D7
  3
UCSORGBOTTOM
350
D3
  3
UCSORGFRONT
350
D6
  3
UCSORGLEFT
350
D4
  3
UCSORGRIGHT
350
D5
  3
UCSORGTOP
350
D2
  3
UCSORTHOREF
350
CF
  3
UCSORTHOVIEW
350
D0
  3
VERSIONGUID
350
C4
  0
DICTIONARY
  5
D9
102
{ACAD_REACTORS
330
C
102
}
330
C
100
AcDbDictionary
  3
DIMASSOC
350
DC
  3
HIDETEXT
350
DD
  0
MATERIAL
  5
3D
102
{ACAD_REACTORS
330
3B
102
}
102
{ACAD_XDICTIONARY
360
E0
102
}
330
3B
100
AcDbMaterial
  1
ByBlock
  0
MATERIAL
  5
3C
102
{ACAD_REACTORS
330
3B
102
}
102
{ACAD_XDICTIONARY
360
DE
102
}
330
3B
100
AcDbMaterial
  1
ByLayer
  0
MATERIAL
  5
3E
102
{ACAD_REACTORS
330
3B
102
}
102
{ACAD_XDICTIONARY
360
E2
102
}
330
3B
100
AcDbMaterial
  1
Global
  0
MLINESTYLE
  5
18
102
{ACAD_REACTORS
330
17
102
}
330
17
100
AcDbMlineStyle
  2
Standard
 70
     0
  3

 62
   256
 51
90.0
 52
90.0
 71
     2
 49
0.5
 62
   256
  6
BYLAYER
 49
-0.5
 62
   256
  6
BYLAYER
  0
ACAD_PROXY_OBJECT
  5
2F
102
{ACAD_REACTORS
330
2A
102
}
330
2A
100
AcDbProxyObject
 90
      499
 91
      501
 93
      436
310
42CC9915DA5C99599C985B595049028333333333333E3BF0000000000000FB0107901411070040501600405405064090741402480A0340
1001
ACAD
1000
AcDbSavedByObjectVersion
1070
     0
  0
ACAD_PROXY_OBJECT
  5
31
102
{ACAD_REACTORS
330
2A
102
}
330
2A
100
AcDbProxyObject
 90
      499
 91
      501
 93
      500
310
424CD108121A5919195B90640502408333333333333E3BF0000000000000FB01079024090700405020000000000001110200405405064090740C02480A0340
1001
ACAD
1000
AcDbSavedByObjectVersion
1070
     0
  0
ACAD_PROXY_OBJECT
  5
30
102
{ACAD_REACTORS
330
2A
102
}
330
2A
100
AcDbProxyObject
 90
      499
 91
      501
 93
      436
310
42CCD915DA5C99599C985B595059028333333333333E3BF0000000000000FB0107901411070040501600405405064090741402480A0340
1001
ACAD
1000
AcDbSavedByObjectVersion
1070
     0
  0
ACAD_PROXY_OBJECT
  5
32
102
{ACAD_REACTORS
330
2A
102
}
330
2A
100
AcDbProxyObject
 90
      499
 91
      501
 93
      388
310
4150985CDA58D07406404333333333333E3BF0000000000000FB0107A41107004050150841D405064090741402480A0350
1001
ACAD
1000
AcDbSavedByObjectVersion
1070
     0
  0
ACAD_PROXY_OBJECT
  5
36
102
{ACAD_REACTORS
330
2A
102
}
330
2A
100
AcDbProxyObject
 90
      499
 91
      501
 93
      428
310
42109C9A59DA1D195B90C409028333333333333E3BF0000000000000FB010790141107004050150841D405064090741402480A029950
1001
ACAD
1000
AcDbSavedByObjectVersion
1070
     0
  0
ACAD_PROXY_OBJECT
  5
3A
102
{ACAD_REACTORS
330
2A
102
}
330
2A
100
AcDbProxyObject
 90
      499
 91
      501
 93
      452
310
42D0DBDB1BDC90DA185B99D95104090240C333333333333E3BF0000000000000FB0108901411070040501508421405064090741402480A0350
1001
ACAD
1000
AcDbSavedByObjectVersion
1070
     0
  0
ACAD_PROXY_OBJECT
  5
34
102
{ACAD_REACTORS
330
2A
102
}
330
2A
100
AcDbProxyObject
 90
      499
 91
      501
 93
      500
310
4290DBDB98D95C1D1D585B10940D028333333333333E3BF0000000000000FB0107902409070040501000000000000111010841D405064090740C02480A0340
1001
ACAD
1000
AcDbSavedByObjectVersion
1070
     0
  0
ACAD_PROXY_OBJECT
  5
35
102
{ACAD_REACTORS
330
2A
102
}
330
2A
100
AcDbProxyObject
 90
      499
 91
      501
 93
      412
310
40D11A5B50B409028333333333333E3BF0000000000000FB010790141107004050150841D405064090741402480A02677FFFFFD0
1001
ACAD
1000
AcDbSavedByObjectVersion
1070
     0
  0
ACAD_PROXY_OBJECT
  5
39
102
{ACAD_REACTORS
330
2A
102
}
330
2A
100
AcDbProxyObject
 90
      499
 91
      501
 93
      444
310
42D19858D95C185D1D195C9B90F409028333333333333E3BF0000000000000FB010790141107004050150841D405064090741402480A0350
1001
ACAD
1000
AcDbSavedByObjectVersion
1070
     0
  0
ACAD_PROXY_OBJECT
  5
2B
102
{ACAD_REACTORS
330
2A
102
}
330
2A
100
AcDbProxyObject
 90
      499
 91
      501
 93
      388
310
41119B185D240901404333333333333E3BF0000000000000F9010740A41107004050150841D405064090741402480A1B50
1001
ACAD
1000
AcDbSavedByObjectVersion
1070
     0
  0
ACAD_PROXY_OBJECT
  5
2C
102
{ACAD_REACTORS
330
2A
102
}
330
2A
100
AcDbProxyObject
 90
      499
 91
      501
 93
      476
310
43519B185D15DA5D1A115919D95CD0140901404333333333333E3BF0000000000000F9010740901411070040501600405405064090741402480A1B50
1001
ACAD
1000
AcDbSavedByObjectVersion
1070
     0
  0
ACAD_PROXY_OBJECT
  5
2D
102
{ACAD_REACTORS
330
2A
102
}
330
2A
100
AcDbProxyObject
 90
      499
 91
      501
 93
      412
310
41D1DBDD5C985D5910240902404333333333333E3BF0000000000000F9010740A411070040501641D405064090741402480A1B50
1001
ACAD
1000
AcDbSavedByObjectVersion
1070
     0
  0
ACAD_PROXY_OBJECT
  5
2E
102
{ACAD_REACTORS
330
2A
102
}
330
2A
100
AcDbProxyObject
 90
      499
 91
      501
 93
      500
310
4411DBDD5C985D5915DA5D1A115919D95CD0340902404333333333333E3BF0000000000000F9010740901411070040501600405405064090741402480A1B50
1001
ACAD
1000
AcDbSavedByObjectVersion
1070
     0
  0
ACAD_PROXY_OBJECT
  5
38
102
{ACAD_REACTORS
330
2A
102
}
330
2A
100
AcDbProxyObject
 90
      499
 91
      501
 93
      444
310
42D31A5B995C185D1D195C9B90E409028333333333333E3BF0000000000000FB010790141107004050750841D405064090741402483A0350
1001
ACAD
1000
AcDbSavedByObjectVersion
1070
     0
  0
ACAD_PROXY_OBJECT
  5
33
102
{ACAD_REACTORS
330
2A
102
}
330
2A
100
AcDbProxyObject
 90
      499
 91
      501
 93
      420
310
425499585B1A5CDD1A58D08409028333333333333E3BF0000000000000FB01079019070040501508421405064090741402480A1B40
1001
ACAD
1000
AcDbSavedByObjectVersion
1070
     0
  0
ACAD_PROXY_OBJECT
  5
37
102
{ACAD_REACTORS
330
2A
102
}
330
2A
100
AcDbProxyObject
 90
      499
 91
      501
 93
      412
310
41D51A1A58DAD95B90D409028333333333333E3BF0000000000000FB010790141107004050150C41D405064090741402480A0350
1001
ACAD
1000
AcDbSavedByObjectVersion
1070
     0
  0
XRECORD
  5
C2
102
{ACAD_REACTORS
330
B9
102
}
330
B9
100
AcDbXrecord
 90
        0
  0
XRECORD
  5
D8
102
{ACAD_REACTORS
330
B9
102
}
330
B9
100
AcDbXrecord
1000
DSTYLE
1002
{
1070
   340
340
11
1002
}
  0
XRECORD
  5
C3
102
{ACAD_REACTORS
330
B9
102
}
330
B9
100
AcDbXrecord
  1
{852F5B23-0209-44B2-9347-8A3F3514FAC9}
  0
XRECORD
  5
BC
102
{ACAD_REACTORS
330
B9
102
}
330
B9
100
AcDbXrecord
  1

  0
XRECORD
  5
C1
102
{ACAD_REACTORS
330
B9
102
}
330
B9
100
AcDbXrecord
 90
        4
  0
XRECORD
  5
BE
102
{ACAD_REACTORS
330
B9
102
}
330
B9
100
AcDbXrecord
340
1A
  0
XRECORD
  5
C0
102
{ACAD_REACTORS
330
B9
102
}
330
B9
100
AcDbXrecord
 90
    10781
  0
XRECORD
  5
BF
102
{ACAD_REACTORS
330
B9
102
}
330
B9
100
AcDbXrecord
340
19
  0
XRECORD
  5
C5
102
{ACAD_REACTORS
330
B9
102
}
330
B9
100
AcDbXrecord
 40
0.0
  0
XRECORD
  5
C8
102
{ACAD_REACTORS
330
B9
102
}
330
B9
100
AcDbXrecord
340
0
  0
XRECORD
  5
CE
102
{ACAD_REACTORS
330
B9
102
}
330
B9
100
AcDbXrecord
 10
0.0
 20
0.0
 30
0.0
  0
XRECORD
  5
CA
102
{ACAD_REACTORS
330
B9
102
}
330
B9
100
AcDbXrecord
 10
0.0
 20
0.0
 30
0.0
  0
XRECORD
  5
CD
102
{ACAD_REACTORS
330
B9
102
}
330
B9
100
AcDbXrecord
 10
0.0
 20
0.0
 30
0.0
  0
XRECORD
  5
CB
102
{ACAD_REACTORS
330
B9
102
}
330
B9
100
AcDbXrecord
 10
0.0
 20
0.0
 30
0.0
  0
XRECORD
  5
CC
102
{ACAD_REACTORS
330
B9
102
}
330
B9
100
AcDbXrecord
 10
0.0
 20
0.0
 30
0.0
  0
XRECORD
  5
C9
102
{ACAD_REACTORS
330
B9
102
}
330
B9
100
AcDbXrecord
 10
0.0
 20
0.0
 30
0.0
  0
XRECORD
  5
C6
102
{ACAD_REACTORS
330
B9
102
}
330
B9
100
AcDbXrecord
340
0
  0
XRECORD
  5
C7
102
{ACAD_REACTORS
330
B9
102
}
330
B9
100
AcDbXrecord
 70
     0
  0
XRECORD
  5
BD
102
{ACAD_REACTORS
330
B9
102
}
330
B9
100
AcDbXrecord
  1

  0
XRECORD
  5
BA
102
{ACAD_REACTORS
330
B9
102
}
330
B9
100
AcDbXrecord
 90
        1
  0
XRECORD
  5
BB
102
{ACAD_REACTORS
330
B9
102
}
330
B9
100
AcDbXrecord
 90
       70
  0
XRECORD
  5
D1
102
{ACAD_REACTORS
330
B9
102
}
330
B9
100
AcDbXrecord
340
0
  0
XRECORD
  5
D7
102
{ACAD_REACTORS
330
B9
102
}
330
B9
100
AcDbXrecord
 10
0.0
 20
0.0
 30
0.0
  0
XRECORD
  5
D3
102
{ACAD_REACTORS
330
B9
102
}
330
B9
100
AcDbXrecord
 10
0.0
 20
0.0
 30
0.0
  0
XRECORD
  5
D6
102
{ACAD_REACTORS
330
B9
102
}
330
B9
100
AcDbXrecord
 10
0.0
 20
0.0
 30
0.0
  0
XRECORD
  5
D4
102
{ACAD_REACTORS
330
B9
102
}
330
B9
100
AcDbXrecord
 10
0.0
 20
0.0
 30
0.0
  0
XRECORD
  5
D5
102
{ACAD_REACTORS
330
B9
102
}
330
B9
100
AcDbXrecord
 10
0.0
 20
0.0
 30
0.0
  0
XRECORD
  5
D2
102
{ACAD_REACTORS
330
B9
102
}
330
B9
100
AcDbXrecord
 10
0.0
 20
0.0
 30
0.0
  0
XRECORD
  5
CF
102
{ACAD_REACTORS
330
B9
102
}
330
B9
100
AcDbXrecord
340
0
  0
XRECORD
  5
D0
102
{ACAD_REACTORS
330
B9
102
}
330
B9
100
AcDbXrecord
 70
     0
  0
XRECORD
  5
C4
102
{ACAD_REACTORS
330
B9
102
}
330
B9
100
AcDbXrecord
  1
{FAEB1C32-E019-11D5-929B-00C0DF256EC4}
  0
DICTIONARYVAR
  5
DC
102
{ACAD_REACTORS
330
D9
102
}
330
D9
100
DictionaryVariables
280
     0
  1
2
  0
DICTIONARYVAR
  5
DD
102
{ACAD_REACTORS
330
D9
102
}
330
D9
100
DictionaryVariables
280
     0
  1
1
  0
DICTIONARY
  5
E0
330
3D
100
AcDbDictionary
280
     1
  3
ACAD_XREC_ROUNDTRIP
360
E1
  0
DICTIONARY
  5
DE
330
3C
100
AcDbDictionary
280
     1
  3
ACAD_XREC_ROUNDTRIP
360
DF
  0
DICTIONARY
  5
E2
330
3E
100
AcDbDictionary
280
     1
  3
ACAD_XREC_ROUNDTRIP
360
E3
  0
XRECORD
  5
E1
102
{ACAD_REACTORS
330
E0
102
}
330
E0
100
AcDbXrecord
102
MATERIAL
148
0.0
149
0.0
149
0.0
 93
        0
 94
      127
282
     0
 72
     1
 77
     1
171
     1
175
     1
179
     1
273
     0
  0
XRECORD
  5
DF
102
{ACAD_REACTORS
330
DE
102
}
330
DE
100
AcDbXrecord
102
MATERIAL
148
0.0
149
0.0
149
0.0
 93
        0
 94
      127
282
     0
 72
     1
 77
     1
171
     1
175
     1
179
     1
273
     0
  0
XRECORD
  5
E3
102
{ACAD_REACTORS
330
E2
102
}
330
E2
100
AcDbXrecord
102
MATERIAL
148
0.0
149
0.0
149
0.0
 93
        0
 94
      127
282
     0
 72
     1
 77
     1
171
     1
175
     1
179
     1
273
     0
  0
ENDSEC
  0
EOF
