  0
SECTION
  2
HEADER
  9
$ACADVER
  1
AC1014
  9
$ACADMAINTVER
 70
     9
  9
$DWGCODEPAGE
  3
ANSI_1250
  9
$INSBASE
 10
0.0
 20
0.0
 30
0.0
  9
$EXTMIN
 10
-24.3454
 20
-24.7914
 30
0.0
  9
$EXTMAX
 10
24.3458
 20
24.7914
 30
0.0
  9
$LIMMIN
 10
0.0
 20
0.0
  9
$LIMMAX
 10
12.0
 20
9.0
  9
$ORTHOMODE
 70
     0
  9
$REGENMODE
 70
     1
  9
$FILLMODE
 70
     1
  9
$QTEXTMODE
 70
     0
  9
$MIRRTEXT
 70
     1
  9
$DRAGMODE
 70
     2
  9
$LTSCALE
 40
1.0
  9
$OSMODE
 70
    37
  9
$ATTMODE
 70
     1
  9
$TEXTSIZE
 40
0.2
  9
$TRACEWID
 40
0.05
  9
$TEXTSTYLE
  7
STANDARD
  9
$CLAYER
  8
0
  9
$CELTYPE
  6
BYLAYER
  9
$CECOLOR
 62
   256
  9
$CELTSCALE
 40
1.0
  9
$DELOBJ
 70
     1
  9
$DISPSILH
 70
     0
  9
$DIMSCALE
 40
1.0
  9
$DIMASZ
 40
0.18
  9
$DIMEXO
 40
0.0625
  9
$DIMDLI
 40
0.38
  9
$DIMRND
 40
0.0
  9
$DIMDLE
 40
0.0
  9
$DIMEXE
 40
0.18
  9
$DIMTP
 40
0.0
  9
$DIMTM
 40
0.0
  9
$DIMTXT
 40
0.18
  9
$DIMCEN
 40
0.09
  9
$DIMTSZ
 40
0.0
  9
$DIMTOL
 70
     0
  9
$DIMLIM
 70
     0
  9
$DIMTIH
 70
     1
  9
$DIMTOH
 70
     1
  9
$DIMSE1
 70
     0
  9
$DIMSE2
 70
     0
  9
$DIMTAD
 70
     0
  9
$DIMZIN
 70
     0
  9
$DIMBLK
  1

  9
$DIMASO
 70
     1
  9
$DIMSHO
 70
     1
  9
$DIMPOST
  1

  9
$DIMAPOST
  1

  9
$DIMALT
 70
     0
  9
$DIMALTD
 70
     2
  9
$DIMALTF
 40
25.4
  9
$DIMLFAC
 40
1.0
  9
$DIMTOFL
 70
     0
  9
$DIMTVP
 40
0.0
  9
$DIMTIX
 70
     0
  9
$DIMSOXD
 70
     0
  9
$DIMSAH
 70
     0
  9
$DIMBLK1
  1

  9
$DIMBLK2
  1

  9
$DIMSTYLE
  2
STANDARD
  9
$DIMCLRD
 70
     0
  9
$DIMCLRE
 70
     0
  9
$DIMCLRT
 70
     0
  9
$DIMTFAC
 40
1.0
  9
$DIMGAP
 40
0.09
  9
$DIMJUST
 70
     0
  9
$DIMSD1
 70
     0
  9
$DIMSD2
 70
     0
  9
$DIMTOLJ
 70
     1
  9
$DIMTZIN
 70
     0
  9
$DIMALTZ
 70
     0
  9
$DIMALTTZ
 70
     0
  9
$DIMFIT
 70
     3
  9
$DIMUPT
 70
     0
  9
$DIMUNIT
 70
     2
  9
$DIMDEC
 70
     4
  9
$DIMTDEC
 70
     4
  9
$DIMALTU
 70
     2
  9
$DIMALTTD
 70
     2
  9
$DIMTXSTY
  7
STANDARD
  9
$DIMAUNIT
 70
     0
  9
$LUNITS
 70
     2
  9
$LUPREC
 70
     4
  9
$SKETCHINC
 40
0.1
  9
$FILLETRAD
 40
0.5
  9
$AUNITS
 70
     0
  9
$AUPREC
 70
     0
  9
$MENU
  1
.
  9
$ELEVATION
 40
0.0
  9
$PELEVATION
 40
0.0
  9
$THICKNESS
 40
0.0
  9
$LIMCHECK
 70
     0
  9
$CHAMFERA
 40
0.5
  9
$CHAMFERB
 40
0.5
  9
$CHAMFERC
 40
1.0
  9
$CHAMFERD
 40
0.0
  9
$SKPOLY
 70
     0
  9
$TDCREATE
 40
2456266.384440035
  9
$TDUPDATE
 40
2456266.384440046
  9
$TDINDWG
 40
0.0000000116
  9
$TDUSRTIMER
 40
0.0000000116
  9
$USRTIMER
 70
     1
  9
$ANGBASE
 50
0.0
  9
$ANGDIR
 70
     0
  9
$PDMODE
 70
     0
  9
$PDSIZE
 40
0.0
  9
$PLINEWID
 40
0.0
  9
$COORDS
 70
     1
  9
$SPLFRAME
 70
     0
  9
$SPLINETYPE
 70
     6
  9
$SPLINESEGS
 70
     8
  9
$ATTDIA
 70
     0
  9
$ATTREQ
 70
     1
  9
$HANDLING
 70
     1
  9
$HANDSEED
  5
C2
  9
$SURFTAB1
 70
     6
  9
$SURFTAB2
 70
     6
  9
$SURFTYPE
 70
     6
  9
$SURFU
 70
     6
  9
$SURFV
 70
     6
  9
$UCSNAME
  2

  9
$UCSORG
 10
0.0
 20
0.0
 30
0.0
  9
$UCSXDIR
 10
1.0
 20
0.0
 30
0.0
  9
$UCSYDIR
 10
0.0
 20
1.0
 30
0.0
  9
$PUCSNAME
  2

  9
$PUCSORG
 10
0.0
 20
0.0
 30
0.0
  9
$PUCSXDIR
 10
1.0
 20
0.0
 30
0.0
  9
$PUCSYDIR
 10
0.0
 20
1.0
 30
0.0
  9
$USERI1
 70
     0
  9
$USERI2
 70
     0
  9
$USERI3
 70
     0
  9
$USERI4
 70
     0
  9
$USERI5
 70
     0
  9
$USERR1
 40
0.0
  9
$USERR2
 40
0.0
  9
$USERR3
 40
0.0
  9
$USERR4
 40
0.0
  9
$USERR5
 40
0.0
  9
$WORLDVIEW
 70
     1
  9
$SHADEDGE
 70
     3
  9
$SHADEDIF
 70
    70
  9
$TILEMODE
 70
     1
  9
$MAXACTVP
 70
    64
  9
$PINSBASE
 10
0.0
 20
0.0
 30
0.0
  9
$PLIMCHECK
 70
     0
  9
$PEXTMIN
 10
1.000000000000000E+20
 20
1.000000000000000E+20
 30
1.000000000000000E+20
  9
$PEXTMAX
 10
-1.000000000000000E+20
 20
-1.000000000000000E+20
 30
-1.000000000000000E+20
  9
$PLIMMIN
 10
0.0
 20
0.0
  9
$PLIMMAX
 10
12.0
 20
9.0
  9
$UNITMODE
 70
     0
  9
$VISRETAIN
 70
     1
  9
$PLINEGEN
 70
     0
  9
$PSLTSCALE
 70
     1
  9
$TREEDEPTH
 70
  3020
  9
$PICKSTYLE
 70
     1
  9
$CMLSTYLE
  2
STANDARD
  9
$CMLJUST
 70
     0
  9
$CMLSCALE
 40
1.0
  9
$PROXYGRAPHICS
 70
     1
  9
$MEASUREMENT
 70
     0
  0
ENDSEC
  0
SECTION
  2
CLASSES
  0
CLASS
  1
ACDBDICTIONARYWDFLT
  2
AcDbDictionaryWithDefault
  3
ObjectDBX Classes
 90
        0
280
     0
281
     0
  0
CLASS
  1
VISUALSTYLE
  2
AcDbVisualStyle
  3
ObjectDBX Classes
 90
     4095
280
     0
281
     0
  0
CLASS
  1
MATERIAL
  2
AcDbMaterial
  3
ObjectDBX Classes
 90
     1153
280
     0
281
     0
  0
CLASS
  1
DICTIONARYVAR
  2
AcDbDictionaryVar
  3
ObjectDBX Classes
 90
        0
280
     0
281
     0
  0
CLASS
  1
XRECORD
  2
AcDbXrecord
  3
AutoCAD 2000
 90
        0
280
     0
281
     0
  0
CLASS
  1
LWPOLYLINE
  2
AcDbPolyline
  3
AutoCAD 2000
 90
        0
280
     0
281
     1
  0
CLASS
  1
HATCH
  2
AcDbHatch
  3
AutoCAD 2000
 90
        0
280
     0
281
     1
  0
CLASS
  1
ACDBPLACEHOLDER
  2
AcDbPlaceHolder
  3
ObjectDBX Classes
 90
        0
280
     0
281
     0
  0
CLASS
  1
LAYOUT
  2
AcDbLayout
  3
ObjectDBX Classes
 90
        0
280
     0
281
     0
  0
ENDSEC
  0
SECTION
  2
TABLES
  0
TABLE
  2
VPORT
  5
8
330
0
100
AcDbSymbolTable
 70
     1
  0
VPORT
  5
29
330
8
100
AcDbSymbolTableRecord
100
AcDbViewportTableRecord
  2
*ACTIVE
 70
     0
 10
0.0
 20
0.0
 11
1.0
 21
1.0
 12
10.42990654205607
 22
4.5
 13
0.0
 23
0.0
 14
0.5
 24
0.5
 15
0.5
 25
0.5
 16
0.0
 26
0.0
 36
1.0
 17
0.0
 27
0.0
 37
0.0
 40
9.0
 41
1.972972972850329
 42
50.0
 43
0.0
 44
0.0
 50
0.0
 51
0.0
 71
     0
 72
   100
 73
     1
 74
     3
 75
     0
 76
     0
 77
     0
 78
     0
  0
ENDTAB
  0
TABLE
  2
LTYPE
  5
5
330
0
100
AcDbSymbolTable
 70
     4
  0
LTYPE
  5
14
330
5
100
AcDbSymbolTableRecord
100
AcDbLinetypeTableRecord
  2
BYBLOCK
 70
     0
  3

 72
    65
 73
     0
 40
0.0
  0
LTYPE
  5
15
330
5
100
AcDbSymbolTableRecord
100
AcDbLinetypeTableRecord
  2
BYLAYER
 70
     0
  3

 72
    65
 73
     0
 40
0.0
  0
LTYPE
  5
16
330
5
100
AcDbSymbolTableRecord
100
AcDbLinetypeTableRecord
  2
CONTINUOUS
 70
     0
  3
Solid line
 72
    65
 73
     0
 40
0.0
  0
LTYPE
  5
5E
330
5
100
AcDbSymbolTableRecord
100
AcDbLinetypeTableRecord
  2
NEW_LINE1
 70
     0
  3

 72
    65
 73
     4
 40
1.2
 49
0.5
 74
     4
 75
     0
340
0
 46
1.0
 50
0.0
 44
0.0
 45
0.0
 49
-0.3
 74
     4
 75
     0
340
0
 46
1.0
 50
0.0
 44
0.0
 45
0.0
 49
0.1
 74
     4
 75
     0
340
0
 46
1.0
 50
0.0
 44
0.0
 45
0.0
 49
-0.3
 74
     4
 75
     0
340
0
 46
1.0
 50
0.0
 44
0.0
 45
0.0
  0
LTYPE
  5
60
330
5
100
AcDbSymbolTableRecord
100
AcDbLinetypeTableRecord
  2
NEW_LINE2
 70
     0
  3

 72
    65
 73
     4
 40
1.2
 49
0.5
 74
     4
 75
     0
340
0
 46
1.0
 50
0.0
 44
0.0
 45
0.0
 49
-0.3
 74
     4
 75
     0
340
0
 46
1.0
 50
0.0
 44
0.0
 45
0.0
 49
0.1
 74
     4
 75
     0
340
0
 46
1.0
 50
0.0
 44
0.0
 45
0.0
 49
-0.3
 74
     4
 75
     0
340
0
 46
1.0
 50
0.0
 44
0.0
 45
0.0
  0
LTYPE
  5
62
330
5
100
AcDbSymbolTableRecord
100
AcDbLinetypeTableRecord
  2
NEW_LINE3
 70
     0
  3

 72
    65
 73
     4
 40
1.2
 49
0.5
 74
     4
 75
     0
340
0
 46
1.0
 50
0.0
 44
0.0
 45
0.0
 49
-0.3
 74
     4
 75
     0
340
0
 46
1.0
 50
0.0
 44
0.0
 45
0.0
 49
0.1
 74
     4
 75
     0
340
0
 46
1.0
 50
0.0
 44
0.0
 45
0.0
 49
-0.3
 74
     4
 75
     0
340
0
 46
1.0
 50
0.0
 44
0.0
 45
0.0
  0
ENDTAB
  0
TABLE
  2
LAYER
  5
2
330
0
100
AcDbSymbolTable
 70
     2
  0
LAYER
  5
10
330
2
100
AcDbSymbolTableRecord
100
AcDbLayerTableRecord
  2
0
 70
     0
 62
     7
  6
CONTINUOUS
  0
LAYER
  5
40
330
2
100
AcDbSymbolTableRecord
100
AcDbLayerTableRecord
  2
DEFAULT_1
 70
     0
 62
     7
  6
CONTINUOUS
  0
ENDTAB
  0
TABLE
  2
STYLE
  5
3
330
0
100
AcDbSymbolTable
 70
     1
  0
STYLE
  5
11
330
3
100
AcDbSymbolTableRecord
100
AcDbTextStyleTableRecord
  2
STANDARD
 70
     0
 40
0.0
 41
1.0
 50
0.0
 71
     0
 42
0.2
  3
txt
  4

  0
ENDTAB
  0
TABLE
  2
VIEW
  5
6
330
0
100
AcDbSymbolTable
 70
     0
  0
ENDTAB
  0
TABLE
  2
UCS
  5
7
330
0
100
AcDbSymbolTable
 70
     0
  0
ENDTAB
  0
TABLE
  2
APPID
  5
9
330
0
100
AcDbSymbolTable
 70
     2
  0
APPID
  5
12
330
9
100
AcDbSymbolTableRecord
100
AcDbRegAppTableRecord
  2
ACAD
 70
     0
  0
APPID
  5
3F
330
9
100
AcDbSymbolTableRecord
100
AcDbRegAppTableRecord
  2
ODA
 70
     0
  0
ENDTAB
  0
TABLE
  2
DIMSTYLE
  5
A
330
0
100
AcDbSymbolTable
 70
     1
  0
DIMSTYLE
105
27
330
A
100
AcDbSymbolTableRecord
100
AcDbDimStyleTableRecord
  2
STANDARD
 70
     0
  3

  4

  5

  6

  7

 40
1.0
 41
0.18
 42
0.0625
 43
0.38
 44
0.18
 45
0.0
 46
0.0
 47
0.0
 48
0.0
140
0.18
141
0.09
142
0.0
143
25.4
144
1.0
145
0.0
146
1.0
147
0.09
 71
     0
 72
     0
 73
     1
 74
     1
 75
     0
 76
     0
 77
     0
 78
     0
170
     0
171
     2
172
     0
173
     0
174
     0
175
     0
176
     0
177
     0
178
     0
270
     2
271
     4
272
     4
273
     2
274
     2
340
11
275
     0
280
     0
281
     0
282
     0
283
     1
284
     0
285
     0
286
     0
287
     3
288
     0
  0
ENDTAB
  0
TABLE
  2
BLOCK_RECORD
  5
1
330
0
100
AcDbSymbolTable
 70
     1
  0
BLOCK_RECORD
  5
1F
330
1
100
AcDbSymbolTableRecord
100
AcDbBlockTableRecord
  2
*MODEL_SPACE
  0
BLOCK_RECORD
  5
1B
330
1
100
AcDbSymbolTableRecord
100
AcDbBlockTableRecord
  2
*PAPER_SPACE
  0
ENDTAB
  0
ENDSEC
  0
SECTION
  2
BLOCKS
  0
BLOCK
  5
20
330
1F
100
AcDbEntity
  8
0
100
AcDbBlockBegin
  2
*MODEL_SPACE
 70
     0
 10
0.0
 20
0.0
 30
0.0
  3
*MODEL_SPACE
  1

  0
ENDBLK
  5
21
330
1F
100
AcDbEntity
  8
0
100
AcDbBlockEnd
  0
BLOCK
  5
1C
330
1B
100
AcDbEntity
 67
     1
  8
0
100
AcDbBlockBegin
  2
*PAPER_SPACE
 70
     0
 10
0.0
 20
0.0
 30
0.0
  3
*PAPER_SPACE
  1

  0
ENDBLK
  5
1D
330
1B
100
AcDbEntity
 67
     1
  8
0
100
AcDbBlockEnd
  0
ENDSEC
  0
SECTION
  2
ENTITIES
  0
SPLINE
  5
41
330
1F
100
AcDbEntity
  8
DEFAULT_1
 62
   250
100
AcDbSpline
210
0.0
220
0.0
230
1.0
 70
    11
 71
     3
 72
   120
 73
   116
 74
     0
 42
0.0000000001
 43
0.0000000001
 40
0.0
 40
0.0
 40
0.0
 40
0.0
 40
0.0333333333333333
 40
0.0333333333333333
 40
0.0333333333333333
 40
0.0333333333333333
 40
0.0666666666666667
 40
0.0666666666666667
 40
0.0666666666666667
 40
0.0666666666666667
 40
0.1
 40
0.1
 40
0.1
 40
0.1
 40
0.1333333333333333
 40
0.1333333333333333
 40
0.1333333333333333
 40
0.1333333333333333
 40
0.1666666666666667
 40
0.1666666666666667
 40
0.1666666666666667
 40
0.1666666666666667
 40
0.2
 40
0.2
 40
0.2
 40
0.2
 40
0.2333333333333333
 40
0.2333333333333333
 40
0.2333333333333333
 40
0.2333333333333333
 40
0.2666666666666667
 40
0.2666666666666667
 40
0.2666666666666667
 40
0.2666666666666667
 40
0.3
 40
0.3
 40
0.3
 40
0.3
 40
0.3333333333333333
 40
0.3333333333333333
 40
0.3333333333333333
 40
0.3333333333333333
 40
0.3666666666666666
 40
0.3666666666666666
 40
0.3666666666666666
 40
0.3666666666666666
 40
0.4
 40
0.4
 40
0.4
 40
0.4
 40
0.4333333333333333
 40
0.4333333333333333
 40
0.4333333333333333
 40
0.4333333333333333
 40
0.4666666666666667
 40
0.4666666666666667
 40
0.4666666666666667
 40
0.4666666666666667
 40
0.5
 40
0.5
 40
0.5
 40
0.5
 40
0.5333333333333333
 40
0.5333333333333333
 40
0.5333333333333333
 40
0.5333333333333333
 40
0.5666666666666667
 40
0.5666666666666667
 40
0.5666666666666667
 40
0.5666666666666667
 40
0.6
 40
0.6
 40
0.6
 40
0.6
 40
0.6333333333333333
 40
0.6333333333333333
 40
0.6333333333333333
 40
0.6333333333333333
 40
0.6666666666666666
 40
0.6666666666666666
 40
0.6666666666666666
 40
0.6666666666666666
 40
0.7
 40
0.7
 40
0.7
 40
0.7
 40
0.7333333333333333
 40
0.7333333333333333
 40
0.7333333333333333
 40
0.7333333333333333
 40
0.7666666666666667
 40
0.7666666666666667
 40
0.7666666666666667
 40
0.7666666666666667
 40
0.8
 40
0.8
 40
0.8
 40
0.8
 40
0.8333333333333334
 40
0.8333333333333334
 40
0.8333333333333334
 40
0.8333333333333334
 40
0.8666666666666667
 40
0.8666666666666667
 40
0.8666666666666667
 40
0.8666666666666667
 40
0.9
 40
0.9
 40
0.9
 40
0.9
 40
0.9333333333333333
 40
0.9333333333333333
 40
0.9333333333333333
 40
0.9333333333333333
 40
1.0
 40
1.0
 40
1.0
 40
1.0
 10
-10.049
 20
-15.599
 30
0.0
 10
-10.049
 20
-15.599
 30
0.0
 10
-10.049
 20
-15.3624
 30
0.0
 10
-10.049
 20
-15.3624
 30
0.0
 10
-10.049
 20
-15.3624
 30
0.0
 10
-10.049
 20
-15.3624
 30
0.0
 10
-9.1934
 20
-15.361
 30
0.0
 10
-9.1934
 20
-15.361
 30
0.0
 10
-9.1934
 20
-15.361
 30
0.0
 10
-9.1934
 20
-15.361
 30
0.0
 10
-9.1934
 20
-16.1103
 30
0.0
 10
-9.1934
 20
-16.1103
 30
0.0
 10
-9.1934
 20
-16.1103
 30
0.0
 10
-9.3246
 20
-16.2152
 30
0.0
 10
-9.4601
 20
-16.2938
 30
0.0
 10
-9.5998
 20
-16.3469
 30
0.0
 10
-9.5998
 20
-16.3469
 30
0.0
 10
-9.7395
 20
-16.3996
 30
0.0
 10
-9.8829
 20
-16.4259
 30
0.0
 10
-10.0297
 20
-16.4259
 30
0.0
 10
-10.0297
 20
-16.4259
 30
0.0
 10
-10.2282
 20
-16.4259
 30
0.0
 10
-10.4088
 20
-16.3836
 30
0.0
 10
-10.5706
 20
-16.2985
 30
0.0
 10
-10.5706
 20
-16.2985
 30
0.0
 10
-10.7329
 20
-16.2138
 30
0.0
 10
-10.8552
 20
-16.0906
 30
0.0
 10
-10.938
 20
-15.9302
 30
0.0
 10
-10.938
 20
-15.9302
 30
0.0
 10
-11.0208
 20
-15.7693
 30
0.0
 10
-11.0622
 20
-15.5896
 30
0.0
 10
-11.0622
 20
-15.3911
 30
0.0
 10
-11.0622
 20
-15.3911
 30
0.0
 10
-11.0622
 20
-15.1945
 30
0.0
 10
-11.0208
 20
-15.0111
 30
0.0
 10
-10.9384
 20
-14.8408
 30
0.0
 10
-10.9384
 20
-14.8408
 30
0.0
 10
-10.8566
 20
-14.6701
 30
0.0
 10
-10.7381
 20
-14.5435
 30
0.0
 10
-10.5838
 20
-14.4607
 30
0.0
 10
-10.5838
 20
-14.4607
 30
0.0
 10
-10.4295
 20
-14.3784
 30
0.0
 10
-10.2517
 20
-14.337
 30
0.0
 10
-10.0504
 20
-14.337
 30
0.0
 10
-10.0504
 20
-14.337
 30
0.0
 10
-9.9046
 20
-14.337
 30
0.0
 10
-9.7724
 20
-14.3606
 30
0.0
 10
-9.6543
 20
-14.4081
 30
0.0
 10
-9.6543
 20
-14.4081
 30
0.0
 10
-9.5363
 20
-14.4551
 30
0.0
 10
-9.4436
 20
-14.521
 30
0.0
 10
-9.3768
 20
-14.6056
 30
0.0
 10
-9.3768
 20
-14.6056
 30
0.0
 10
-9.3096
 20
-14.6903
 30
0.0
 10
-9.2588
 20
-14.8003
 30
0.0
 10
-9.2235
 20
-14.9363
 30
0.0
 10
-9.2235
 20
-14.9363
 30
0.0
 10
-9.2235
 20
-14.9363
 30
0.0
 10
-9.4648
 20
-15.0026
 30
0.0
 10
-9.4648
 20
-15.0026
 30
0.0
 10
-9.4648
 20
-15.0026
 30
0.0
 10
-9.4954
 20
-14.8996
 30
0.0
 10
-9.533
 20
-14.8187
 30
0.0
 10
-9.5777
 20
-14.7599
 30
0.0
 10
-9.5777
 20
-14.7599
 30
0.0
 10
-9.6228
 20
-14.7011
 30
0.0
 10
-9.6873
 20
-14.6541
 30
0.0
 10
-9.771
 20
-14.6188
 30
0.0
 10
-9.771
 20
-14.6188
 30
0.0
 10
-9.8543
 20
-14.5835
 30
0.0
 10
-9.9474
 20
-14.5656
 30
0.0
 10
-10.049
 20
-14.5656
 30
0.0
 10
-10.049
 20
-14.5656
 30
0.0
 10
-10.1713
 20
-14.5656
 30
0.0
 10
-10.2771
 20
-14.5845
 30
0.0
 10
-10.366
 20
-14.6216
 30
0.0
 10
-10.366
 20
-14.6216
 30
0.0
 10
-10.4554
 20
-14.6588
 30
0.0
 10
-10.5269
 20
-14.7077
 30
0.0
 10
-10.5819
 20
-14.7684
 30
0.0
 10
-10.5819
 20
-14.7684
 30
0.0
 10
-10.6365
 20
-14.829
 30
0.0
 10
-10.6788
 20
-14.8954
 30
0.0
 10
-10.7094
 20
-14.9683
 30
0.0
 10
-10.7094
 20
-14.9683
 30
0.0
 10
-10.7606
 20
-15.0929
 30
0.0
 10
-10.7865
 20
-15.2284
 30
0.0
 10
-10.7865
 20
-15.3747
 30
0.0
 10
-10.7865
 20
-15.3747
 30
0.0
 10
-10.7865
 20
-15.5548
 30
0.0
 10
-10.7555
 20
-15.7053
 30
0.0
 10
-10.6934
 20
-15.8267
 30
0.0
 10
-10.6934
 20
-15.8267
 30
0.0
 10
-10.6313
 20
-15.948
 30
0.0
 10
-10.541
 20
-16.0379
 30
0.0
 10
-10.4225
 20
-16.0967
 30
0.0
 10
-10.4225
 20
-16.0967
 30
0.0
 10
-10.3039
 20
-16.1555
 30
0.0
 10
-10.1783
 20
-16.1851
 30
0.0
 10
-10.0452
 20
-16.1851
 30
0.0
 10
-10.0452
 20
-16.1851
 30
0.0
 10
-9.929
 20
-16.1851
 30
0.0
 10
-9.8162
 20
-16.1625
 30
0.0
 10
-9.7061
 20
-16.1178
 30
0.0
 10
-9.7061
 20
-16.1178
 30
0.0
 10
-9.5955
 20
-16.0736
 30
0.0
 10
-9.5123
 20
-16.0261
 30
0.0
 10
-9.4554
 20
-15.9753
 30
0.0
 10
-9.4554
 20
-15.9753
 30
0.0
 10
-9.4554
 20
-15.9753
 30
0.0
 10
-9.4554
 20
-15.599
 30
0.0
 10
-9.4554
 20
-15.599
 30
0.0
 10
-9.4554
 20
-15.599
 30
0.0
 10
-9.4554
 20
-15.599
 30
0.0
 10
-10.049
 20
-15.599
 30
0.0
 10
-10.049
 20
-15.599
 30
0.0
  0
SPLINE
  5
42
330
1F
100
AcDbEntity
  8
DEFAULT_1
 62
   250
100
AcDbSpline
210
0.0
220
0.0
230
1.0
 70
    11
 71
     3
 72
    80
 73
    76
 74
     0
 42
0.0000000001
 43
0.0000000001
 40
0.0
 40
0.0
 40
0.0
 40
0.0
 40
0.05
 40
0.05
 40
0.05
 40
0.05
 40
0.1
 40
0.1
 40
0.1
 40
0.1
 40
0.15
 40
0.15
 40
0.15
 40
0.15
 40
0.2
 40
0.2
 40
0.2
 40
0.2
 40
0.25
 40
0.25
 40
0.25
 40
0.25
 40
0.3
 40
0.3
 40
0.3
 40
0.3
 40
0.35
 40
0.35
 40
0.35
 40
0.35
 40
0.4
 40
0.4
 40
0.4
 40
0.4
 40
0.45
 40
0.45
 40
0.45
 40
0.45
 40
0.5
 40
0.5
 40
0.5
 40
0.5
 40
0.55
 40
0.55
 40
0.55
 40
0.55
 40
0.6
 40
0.6
 40
0.6
 40
0.6
 40
0.65
 40
0.65
 40
0.65
 40
0.65
 40
0.7
 40
0.7
 40
0.7
 40
0.7
 40
0.75
 40
0.75
 40
0.75
 40
0.75
 40
0.8
 40
0.8
 40
0.8
 40
0.8
 40
0.85
 40
0.85
 40
0.85
 40
0.85
 40
0.9
 40
0.9
 40
0.9
 40
0.9
 40
1.0
 40
1.0
 40
1.0
 40
1.0
 10
-6.8289
 20
-14.8662
 30
0.0
 10
-6.8289
 20
-14.8662
 30
0.0
 10
-7.0753
 20
-14.8855
 30
0.0
 10
-7.0753
 20
-14.8855
 30
0.0
 10
-7.0753
 20
-14.8855
 30
0.0
 10
-7.0974
 20
-14.7881
 30
0.0
 10
-7.1285
 20
-14.7171
 30
0.0
 10
-7.1689
 20
-14.6734
 30
0.0
 10
-7.1689
 20
-14.6734
 30
0.0
 10
-7.2362
 20
-14.6023
 30
0.0
 10
-7.319
 20
-14.567
 30
0.0
 10
-7.4173
 20
-14.567
 30
0.0
 10
-7.4173
 20
-14.567
 30
0.0
 10
-7.4963
 20
-14.567
 30
0.0
 10
-7.5654
 20
-14.5892
 30
0.0
 10
-7.6252
 20
-14.6334
 30
0.0
 10
-7.6252
 20
-14.6334
 30
0.0
 10
-7.7033
 20
-14.6903
 30
0.0
 10
-7.7649
 20
-14.7735
 30
0.0
 10
-7.81
 20
-14.8827
 30
0.0
 10
-7.81
 20
-14.8827
 30
0.0
 10
-7.8547
 20
-14.9918
 30
0.0
 10
-7.8782
 20
-15.1475
 30
0.0
 10
-7.8801
 20
-15.3497
 30
0.0
 10
-7.8801
 20
-15.3497
 30
0.0
 10
-7.8204
 20
-15.259
 30
0.0
 10
-7.7475
 20
-15.1912
 30
0.0
 10
-7.6609
 20
-15.147
 30
0.0
 10
-7.6609
 20
-15.147
 30
0.0
 10
-7.5749
 20
-15.1033
 30
0.0
 10
-7.4841
 20
-15.0812
 30
0.0
 10
-7.3895
 20
-15.0812
 30
0.0
 10
-7.3895
 20
-15.0812
 30
0.0
 10
-7.224
 20
-15.0812
 30
0.0
 10
-7.0833
 20
-15.1418
 30
0.0
 10
-6.9671
 20
-15.2637
 30
0.0
 10
-6.9671
 20
-15.2637
 30
0.0
 10
-6.851
 20
-15.3855
 30
0.0
 10
-6.7926
 20
-15.5426
 30
0.0
 10
-6.7926
 20
-15.7354
 30
0.0
 10
-6.7926
 20
-15.7354
 30
0.0
 10
-6.7926
 20
-15.8624
 30
0.0
 10
-6.8204
 20
-15.98
 30
0.0
 10
-6.875
 20
-16.0892
 30
0.0
 10
-6.875
 20
-16.0892
 30
0.0
 10
-6.9295
 20
-16.1978
 30
0.0
 10
-7.0048
 20
-16.2815
 30
0.0
 10
-7.1003
 20
-16.3394
 30
0.0
 10
-7.1003
 20
-16.3394
 30
0.0
 10
-7.1957
 20
-16.3972
 30
0.0
 10
-7.3039
 20
-16.4259
 30
0.0
 10
-7.4253
 20
-16.4259
 30
0.0
 10
-7.4253
 20
-16.4259
 30
0.0
 10
-7.6322
 20
-16.4259
 30
0.0
 10
-7.8006
 20
-16.3502
 30
0.0
 10
-7.9309
 20
-16.1978
 30
0.0
 10
-7.9309
 20
-16.1978
 30
0.0
 10
-8.0617
 20
-16.0459
 30
0.0
 10
-8.1266
 20
-15.7952
 30
0.0
 10
-8.1266
 20
-15.4462
 30
0.0
 10
-8.1266
 20
-15.4462
 30
0.0
 10
-8.1266
 20
-15.0558
 30
0.0
 10
-8.0546
 20
-14.7721
 30
0.0
 10
-7.9102
 20
-14.5948
 30
0.0
 10
-7.9102
 20
-14.5948
 30
0.0
 10
-7.7846
 20
-14.4405
 30
0.0
 10
-7.6153
 20
-14.3629
 30
0.0
 10
-7.4018
 20
-14.3629
 30
0.0
 10
-7.4018
 20
-14.3629
 30
0.0
 10
-7.2432
 20
-14.3629
 30
0.0
 10
-7.113
 20
-14.4076
 30
0.0
 10
-7.0114
 20
-14.497
 30
0.0
 10
-7.0114
 20
-14.497
 30
0.0
 10
-6.9098
 20
-14.5859
 30
0.0
 10
-6.8491
 20
-14.7091
 30
0.0
 10
-6.8289
 20
-14.8662
 30
0.0
  0
SPLINE
  5
43
330
1F
100
AcDbEntity
  8
DEFAULT_1
 62
   250
100
AcDbSpline
210
0.0
220
0.0
230
1.0
 70
    11
 71
     3
 72
    40
 73
    36
 74
     0
 42
0.0000000001
 43
0.0000000001
 40
0.0
 40
0.0
 40
0.0
 40
0.0
 40
0.1
 40
0.1
 40
0.1
 40
0.1
 40
0.2
 40
0.2
 40
0.2
 40
0.2
 40
0.3
 40
0.3
 40
0.3
 40
0.3
 40
0.4
 40
0.4
 40
0.4
 40
0.4
 40
0.5
 40
0.5
 40
0.5
 40
0.5
 40
0.6
 40
0.6
 40
0.6
 40
0.6
 40
0.7
 40
0.7
 40
0.7
 40
0.7
 40
0.8
 40
0.8
 40
0.8
 40
0.8
 40
1.0
 40
1.0
 40
1.0
 40
1.0
 10
-7.8416
 20
-15.7368
 30
0.0
 10
-7.8416
 20
-15.8225
 30
0.0
 10
-7.8232
 20
-15.9043
 30
0.0
 10
-7.787
 20
-15.9824
 30
0.0
 10
-7.787
 20
-15.9824
 30
0.0
 10
-7.7508
 20
-16.0605
 30
0.0
 10
-7.7
 20
-16.1197
 30
0.0
 10
-7.6351
 20
-16.1606
 30
0.0
 10
-7.6351
 20
-16.1606
 30
0.0
 10
-7.5697
 20
-16.2016
 30
0.0
 10
-7.501
 20
-16.2223
 30
0.0
 10
-7.4295
 20
-16.2223
 30
0.0
 10
-7.4295
 20
-16.2223
 30
0.0
 10
-7.3246
 20
-16.2223
 30
0.0
 10
-7.2348
 20
-16.1799
 30
0.0
 10
-7.1595
 20
-16.0953
 30
0.0
 10
-7.1595
 20
-16.0953
 30
0.0
 10
-7.0843
 20
-16.0106
 30
0.0
 10
-7.0466
 20
-15.8958
 30
0.0
 10
-7.0466
 20
-15.751
 30
0.0
 10
-7.0466
 20
-15.751
 30
0.0
 10
-7.0466
 20
-15.6113
 30
0.0
 10
-7.0838
 20
-15.5012
 30
0.0
 10
-7.1581
 20
-15.4208
 30
0.0
 10
-7.1581
 20
-15.4208
 30
0.0
 10
-7.2324
 20
-15.3403
 30
0.0
 10
-7.326
 20
-15.3003
 30
0.0
 10
-7.4389
 20
-15.3003
 30
0.0
 10
-7.4389
 20
-15.3003
 30
0.0
 10
-7.5513
 20
-15.3003
 30
0.0
 10
-7.6464
 20
-15.3403
 30
0.0
 10
-7.7244
 20
-15.4208
 30
0.0
 10
-7.7244
 20
-15.4208
 30
0.0
 10
-7.8025
 20
-15.5012
 30
0.0
 10
-7.8416
 20
-15.6066
 30
0.0
 10
-7.8416
 20
-15.7368
 30
0.0
  0
SPLINE
  5
44
330
1F
100
AcDbEntity
  8
DEFAULT_1
 62
   250
100
AcDbSpline
210
0.0
220
0.0
230
1.0
 70
    11
 71
     3
 72
    20
 73
    16
 74
     0
 42
0.0000000001
 43
0.0000000001
 40
0.0
 40
0.0
 40
0.0
 40
0.0
 40
0.2
 40
0.2
 40
0.2
 40
0.2
 40
0.4
 40
0.4
 40
0.4
 40
0.4
 40
0.6
 40
0.6
 40
0.6
 40
0.6
 40
1.0
 40
1.0
 40
1.0
 40
1.0
 10
-6.6633
 20
-16.4259
 30
0.0
 10
-6.6633
 20
-16.4259
 30
0.0
 10
-6.0777
 20
-14.337
 30
0.0
 10
-6.0777
 20
-14.337
 30
0.0
 10
-6.0777
 20
-14.337
 30
0.0
 10
-6.0777
 20
-14.337
 30
0.0
 10
-5.8792
 20
-14.337
 30
0.0
 10
-5.8792
 20
-14.337
 30
0.0
 10
-5.8792
 20
-14.337
 30
0.0
 10
-5.8792
 20
-14.337
 30
0.0
 10
-6.4634
 20
-16.4259
 30
0.0
 10
-6.4634
 20
-16.4259
 30
0.0
 10
-6.4634
 20
-16.4259
 30
0.0
 10
-6.4634
 20
-16.4259
 30
0.0
 10
-6.6633
 20
-16.4259
 30
0.0
 10
-6.6633
 20
-16.4259
 30
0.0
  0
SPLINE
  5
45
330
1F
100
AcDbEntity
  8
DEFAULT_1
 62
   250
100
AcDbSpline
210
0.0
220
0.0
230
1.0
 70
    11
 71
     3
 72
    48
 73
    44
 74
     0
 42
0.0000000001
 43
0.0000000001
 40
0.0
 40
0.0
 40
0.0
 40
0.0
 40
0.0833333333333333
 40
0.0833333333333333
 40
0.0833333333333333
 40
0.0833333333333333
 40
0.1666666666666667
 40
0.1666666666666667
 40
0.1666666666666667
 40
0.1666666666666667
 40
0.25
 40
0.25
 40
0.25
 40
0.25
 40
0.3333333333333333
 40
0.3333333333333333
 40
0.3333333333333333
 40
0.3333333333333333
 40
0.4166666666666667
 40
0.4166666666666667
 40
0.4166666666666667
 40
0.4166666666666667
 40
0.5
 40
0.5
 40
0.5
 40
0.5
 40
0.5833333333333334
 40
0.5833333333333334
 40
0.5833333333333334
 40
0.5833333333333334
 40
0.6666666666666666
 40
0.6666666666666666
 40
0.6666666666666666
 40
0.6666666666666666
 40
0.75
 40
0.75
 40
0.75
 40
0.75
 40
0.8333333333333334
 40
0.8333333333333334
 40
0.8333333333333334
 40
0.8333333333333334
 40
1.0
 40
1.0
 40
1.0
 40
1.0
 10
-4.9672
 20
-16.3916
 30
0.0
 10
-4.9672
 20
-16.3916
 30
0.0
 10
-4.9672
 20
-15.9081
 30
0.0
 10
-4.9672
 20
-15.9081
 30
0.0
 10
-4.9672
 20
-15.9081
 30
0.0
 10
-4.9672
 20
-15.9081
 30
0.0
 10
-5.8435
 20
-15.9081
 30
0.0
 10
-5.8435
 20
-15.9081
 30
0.0
 10
-5.8435
 20
-15.9081
 30
0.0
 10
-5.8435
 20
-15.9081
 30
0.0
 10
-5.8435
 20
-15.6804
 30
0.0
 10
-5.8435
 20
-15.6804
 30
0.0
 10
-5.8435
 20
-15.6804
 30
0.0
 10
-5.8435
 20
-15.6804
 30
0.0
 10
-4.9215
 20
-14.3714
 30
0.0
 10
-4.9215
 20
-14.3714
 30
0.0
 10
-4.9215
 20
-14.3714
 30
0.0
 10
-4.9215
 20
-14.3714
 30
0.0
 10
-4.7188
 20
-14.3714
 30
0.0
 10
-4.7188
 20
-14.3714
 30
0.0
 10
-4.7188
 20
-14.3714
 30
0.0
 10
-4.7188
 20
-14.3714
 30
0.0
 10
-4.7188
 20
-15.6804
 30
0.0
 10
-4.7188
 20
-15.6804
 30
0.0
 10
-4.7188
 20
-15.6804
 30
0.0
 10
-4.7188
 20
-15.6804
 30
0.0
 10
-4.446
 20
-15.6804
 30
0.0
 10
-4.446
 20
-15.6804
 30
0.0
 10
-4.446
 20
-15.6804
 30
0.0
 10
-4.446
 20
-15.6804
 30
0.0
 10
-4.446
 20
-15.9081
 30
0.0
 10
-4.446
 20
-15.9081
 30
0.0
 10
-4.446
 20
-15.9081
 30
0.0
 10
-4.446
 20
-15.9081
 30
0.0
 10
-4.7188
 20
-15.9081
 30
0.0
 10
-4.7188
 20
-15.9081
 30
0.0
 10
-4.7188
 20
-15.9081
 30
0.0
 10
-4.7188
 20
-15.9081
 30
0.0
 10
-4.7188
 20
-16.3916
 30
0.0
 10
-4.7188
 20
-16.3916
 30
0.0
 10
-4.7188
 20
-16.3916
 30
0.0
 10
-4.7188
 20
-16.3916
 30
0.0
 10
-4.9672
 20
-16.3916
 30
0.0
 10
-4.9672
 20
-16.3916
 30
0.0
  0
SPLINE
  5
46
330
1F
100
AcDbEntity
  8
DEFAULT_1
 62
   250
100
AcDbSpline
210
0.0
220
0.0
230
1.0
 70
    11
 71
     3
 72
    16
 73
    12
 74
     0
 42
0.0000000001
 43
0.0000000001
 40
0.0
 40
0.0
 40
0.0
 40
0.0
 40
0.25
 40
0.25
 40
0.25
 40
0.25
 40
0.5
 40
0.5
 40
0.5
 40
0.5
 40
1.0
 40
1.0
 40
1.0
 40
1.0
 10
-4.9672
 20
-15.6804
 30
0.0
 10
-4.9672
 20
-15.6804
 30
0.0
 10
-4.9672
 20
-14.7698
 30
0.0
 10
-4.9672
 20
-14.7698
 30
0.0
 10
-4.9672
 20
-14.7698
 30
0.0
 10
-4.9672
 20
-14.7698
 30
0.0
 10
-5.5993
 20
-15.6804
 30
0.0
 10
-5.5993
 20
-15.6804
 30
0.0
 10
-5.5993
 20
-15.6804
 30
0.0
 10
-5.5993
 20
-15.6804
 30
0.0
 10
-4.9672
 20
-15.6804
 30
0.0
 10
-4.9672
 20
-15.6804
 30
0.0
  0
SPLINE
  5
47
330
1F
100
AcDbEntity
  8
DEFAULT_1
 62
   250
100
AcDbSpline
210
0.0
220
0.0
230
1.0
 70
    11
 71
     3
 72
    28
 73
    24
 74
     0
 42
0.0000000001
 43
0.0000000001
 40
0.0
 40
0.0
 40
0.0
 40
0.0
 40
0.1428571428571428
 40
0.1428571428571428
 40
0.1428571428571428
 40
0.1428571428571428
 40
0.2857142857142857
 40
0.2857142857142857
 40
0.2857142857142857
 40
0.2857142857142857
 40
0.4285714285714285
 40
0.4285714285714285
 40
0.4285714285714285
 40
0.4285714285714285
 40
0.5714285714285714
 40
0.5714285714285714
 40
0.5714285714285714
 40
0.5714285714285714
 40
0.7142857142857143
 40
0.7142857142857143
 40
0.7142857142857143
 40
0.7142857142857143
 40
1.0
 40
1.0
 40
1.0
 40
1.0
 10
-4.1111
 20
-15.0868
 30
0.0
 10
-4.1111
 20
-15.0868
 30
0.0
 10
-4.1802
 20
-14.702
 30
0.0
 10
-4.1802
 20
-14.702
 30
0.0
 10
-4.1802
 20
-14.702
 30
0.0
 10
-4.1802
 20
-14.702
 30
0.0
 10
-4.1802
 20
-14.3714
 30
0.0
 10
-4.1802
 20
-14.3714
 30
0.0
 10
-4.1802
 20
-14.3714
 30
0.0
 10
-4.1802
 20
-14.3714
 30
0.0
 10
-3.8976
 20
-14.3714
 30
0.0
 10
-3.8976
 20
-14.3714
 30
0.0
 10
-3.8976
 20
-14.3714
 30
0.0
 10
-3.8976
 20
-14.3714
 30
0.0
 10
-3.8976
 20
-14.702
 30
0.0
 10
-3.8976
 20
-14.702
 30
0.0
 10
-3.8976
 20
-14.702
 30
0.0
 10
-3.8976
 20
-14.702
 30
0.0
 10
-3.9596
 20
-15.0868
 30
0.0
 10
-3.9596
 20
-15.0868
 30
0.0
 10
-3.9596
 20
-15.0868
 30
0.0
 10
-3.9596
 20
-15.0868
 30
0.0
 10
-4.1111
 20
-15.0868
 30
0.0
 10
-4.1111
 20
-15.0868
 30
0.0
  0
SPLINE
  5
48
330
1F
100
AcDbEntity
  8
DEFAULT_1
 62
   250
100
AcDbSpline
210
0.0
220
0.0
230
1.0
 70
    11
 71
     3
 72
    28
 73
    24
 74
     0
 42
0.0000000001
 43
0.0000000001
 40
0.0
 40
0.0
 40
0.0
 40
0.0
 40
0.1428571428571428
 40
0.1428571428571428
 40
0.1428571428571428
 40
0.1428571428571428
 40
0.2857142857142857
 40
0.2857142857142857
 40
0.2857142857142857
 40
0.2857142857142857
 40
0.4285714285714285
 40
0.4285714285714285
 40
0.4285714285714285
 40
0.4285714285714285
 40
0.5714285714285714
 40
0.5714285714285714
 40
0.5714285714285714
 40
0.5714285714285714
 40
0.7142857142857143
 40
0.7142857142857143
 40
0.7142857142857143
 40
0.7142857142857143
 40
1.0
 40
1.0
 40
1.0
 40
1.0
 10
-3.6548
 20
-15.0868
 30
0.0
 10
-3.6548
 20
-15.0868
 30
0.0
 10
-3.7226
 20
-14.702
 30
0.0
 10
-3.7226
 20
-14.702
 30
0.0
 10
-3.7226
 20
-14.702
 30
0.0
 10
-3.7226
 20
-14.702
 30
0.0
 10
-3.7226
 20
-14.3714
 30
0.0
 10
-3.7226
 20
-14.3714
 30
0.0
 10
-3.7226
 20
-14.3714
 30
0.0
 10
-3.7226
 20
-14.3714
 30
0.0
 10
-3.4399
 20
-14.3714
 30
0.0
 10
-3.4399
 20
-14.3714
 30
0.0
 10
-3.4399
 20
-14.3714
 30
0.0
 10
-3.4399
 20
-14.3714
 30
0.0
 10
-3.4399
 20
-14.702
 30
0.0
 10
-3.4399
 20
-14.702
 30
0.0
 10
-3.4399
 20
-14.702
 30
0.0
 10
-3.4399
 20
-14.702
 30
0.0
 10
-3.5062
 20
-15.0868
 30
0.0
 10
-3.5062
 20
-15.0868
 30
0.0
 10
-3.5062
 20
-15.0868
 30
0.0
 10
-3.5062
 20
-15.0868
 30
0.0
 10
-3.6548
 20
-15.0868
 30
0.0
 10
-3.6548
 20
-15.0868
 30
0.0
  0
SPLINE
  5
49
330
1F
100
AcDbEntity
  8
DEFAULT_1
 62
   250
100
AcDbSpline
210
0.0
220
0.0
230
1.0
 70
    24
 71
     3
 72
     8
 73
     4
 74
     0
 42
0.0000000001
 43
0.0000000001
 40
0.0
 40
0.0
 40
0.0
 40
0.0
 40
1.0
 40
1.0
 40
1.0
 40
1.0
 10
-15.4438
 20
-17.5213
 30
0.0
 10
-15.4438
 20
-17.5213
 30
0.0
 10
-15.4438
 20
-12.6049
 30
0.0
 10
-15.4438
 20
-12.6049
 30
0.0
  0
SPLINE
  5
4A
330
1F
100
AcDbEntity
  8
DEFAULT_1
 62
   250
100
AcDbSpline
210
0.0
220
0.0
230
1.0
 70
    24
 71
     3
 72
     8
 73
     4
 74
     0
 42
0.0000000001
 43
0.0000000001
 40
0.0
 40
0.0
 40
0.0
 40
0.0
 40
1.0
 40
1.0
 40
1.0
 40
1.0
 10
0.5401
 20
-17.5617
 30
0.0
 10
0.5401
 20
-17.5617
 30
0.0
 10
0.5401
 20
-12.4034
 30
0.0
 10
0.5401
 20
-12.4034
 30
0.0
  0
SPLINE
  5
4B
330
1F
100
AcDbEntity
  8
DEFAULT_1
 62
   250
100
AcDbSpline
210
0.0
220
0.0
230
1.0
 70
    24
 71
     3
 72
     8
 73
     4
 74
     0
 42
0.0000000001
 43
0.0000000001
 40
0.0
 40
0.0
 40
0.0
 40
0.0
 40
1.0
 40
1.0
 40
1.0
 40
1.0
 10
0.0727
 20
-17.0118
 30
0.0
 10
0.0727
 20
-17.0118
 30
0.0
 10
-14.2224
 20
-17.0118
 30
0.0
 10
-14.2224
 20
-17.0118
 30
0.0
  0
SPLINE
  5
4C
330
1F
100
AcDbEntity
  8
DEFAULT_1
 62
   250
100
AcDbSpline
210
0.0
220
0.0
230
1.0
 70
    11
 71
     3
 72
    92
 73
    88
 74
     0
 42
0.0000000001
 43
0.0000000001
 40
0.0
 40
0.0
 40
0.0
 40
0.0
 40
0.0434782608695652
 40
0.0434782608695652
 40
0.0434782608695652
 40
0.0434782608695652
 40
0.0869565217391304
 40
0.0869565217391304
 40
0.0869565217391304
 40
0.0869565217391304
 40
0.1304347826086956
 40
0.1304347826086956
 40
0.1304347826086956
 40
0.1304347826086956
 40
0.1739130434782609
 40
0.1739130434782609
 40
0.1739130434782609
 40
0.1739130434782609
 40
0.2173913043478261
 40
0.2173913043478261
 40
0.2173913043478261
 40
0.2173913043478261
 40
0.2608695652173913
 40
0.2608695652173913
 40
0.2608695652173913
 40
0.2608695652173913
 40
0.3043478260869565
 40
0.3043478260869565
 40
0.3043478260869565
 40
0.3043478260869565
 40
0.3478260869565217
 40
0.3478260869565217
 40
0.3478260869565217
 40
0.3478260869565217
 40
0.391304347826087
 40
0.391304347826087
 40
0.391304347826087
 40
0.391304347826087
 40
0.4347826086956522
 40
0.4347826086956522
 40
0.4347826086956522
 40
0.4347826086956522
 40
0.4782608695652174
 40
0.4782608695652174
 40
0.4782608695652174
 40
0.4782608695652174
 40
0.5217391304347826
 40
0.5217391304347826
 40
0.5217391304347826
 40
0.5217391304347826
 40
0.5652173913043478
 40
0.5652173913043478
 40
0.5652173913043478
 40
0.5652173913043478
 40
0.6086956521739131
 40
0.6086956521739131
 40
0.6086956521739131
 40
0.6086956521739131
 40
0.6521739130434783
 40
0.6521739130434783
 40
0.6521739130434783
 40
0.6521739130434783
 40
0.6956521739130435
 40
0.6956521739130435
 40
0.6956521739130435
 40
0.6956521739130435
 40
0.7391304347826086
 40
0.7391304347826086
 40
0.7391304347826086
 40
0.7391304347826086
 40
0.782608695652174
 40
0.782608695652174
 40
0.782608695652174
 40
0.782608695652174
 40
0.8260869565217391
 40
0.8260869565217391
 40
0.8260869565217391
 40
0.8260869565217391
 40
0.8695652173913043
 40
0.8695652173913043
 40
0.8695652173913043
 40
0.8695652173913043
 40
0.9130434782608695
 40
0.9130434782608695
 40
0.9130434782608695
 40
0.9130434782608695
 40
1.0
 40
1.0
 40
1.0
 40
1.0
 10
-22.7838
 20
0.6807
 30
0.0
 10
-22.7838
 20
0.6807
 30
0.0
 10
-22.8059
 20
0.9192
 30
0.0
 10
-22.8059
 20
0.9192
 30
0.0
 10
-22.8059
 20
0.9192
 30
0.0
 10
-22.6939
 20
0.9394
 30
0.0
 10
-22.6126
 20
0.978
 30
0.0
 10
-22.5618
 20
1.0349
 30
0.0
 10
-22.5618
 20
1.0349
 30
0.0
 10
-22.5114
 20
1.0918
 30
0.0
 10
-22.486
 20
1.1647
 30
0.0
 10
-22.486
 20
1.2541
 30
0.0
 10
-22.486
 20
1.2541
 30
0.0
 10
-22.486
 20
1.3303
 30
0.0
 10
-22.5034
 20
1.397
 30
0.0
 10
-22.5387
 20
1.4544
 30
0.0
 10
-22.5387
 20
1.4544
 30
0.0
 10
-22.5735
 20
1.5118
 30
0.0
 10
-22.6201
 20
1.5589
 30
0.0
 10
-22.6784
 20
1.5955
 30
0.0
 10
-22.6784
 20
1.5955
 30
0.0
 10
-22.7367
 20
1.6327
 30
0.0
 10
-22.8158
 20
1.6633
 30
0.0
 10
-22.9145
 20
1.6882
 30
0.0
 10
-22.9145
 20
1.6882
 30
0.0
 10
-23.0138
 20
1.7127
 30
0.0
 10
-23.1149
 20
1.7254
 30
0.0
 10
-23.2179
 20
1.7254
 30
0.0
 10
-23.2179
 20
1.7254
 30
0.0
 10
-23.2287
 20
1.7254
 30
0.0
 10
-23.2457
 20
1.7249
 30
0.0
 10
-23.2673
 20
1.724
 30
0.0
 10
-23.2673
 20
1.724
 30
0.0
 10
-23.1888
 20
1.6741
 30
0.0
 10
-23.1243
 20
1.6064
 30
0.0
 10
-23.0754
 20
1.5208
 30
0.0
 10
-23.0754
 20
1.5208
 30
0.0
 10
-23.026
 20
1.4347
 30
0.0
 10
-23.0016
 20
1.3415
 30
0.0
 10
-23.0016
 20
1.2418
 30
0.0
 10
-23.0016
 20
1.2418
 30
0.0
 10
-23.0016
 20
1.0744
 30
0.0
 10
-23.0622
 20
0.9328
 30
0.0
 10
-23.1836
 20
0.8171
 30
0.0
 10
-23.1836
 20
0.8171
 30
0.0
 10
-23.3049
 20
0.7014
 30
0.0
 10
-23.4644
 20
0.6435
 30
0.0
 10
-23.6629
 20
0.6435
 30
0.0
 10
-23.6629
 20
0.6435
 30
0.0
 10
-23.868
 20
0.6435
 30
0.0
 10
-24.0326
 20
0.7037
 30
0.0
 10
-24.1577
 20
0.8246
 30
0.0
 10
-24.1577
 20
0.8246
 30
0.0
 10
-24.2828
 20
0.9455
 30
0.0
 10
-24.3454
 20
1.097
 30
0.0
 10
-24.3454
 20
1.279
 30
0.0
 10
-24.3454
 20
1.279
 30
0.0
 10
-24.3454
 20
1.4102
 30
0.0
 10
-24.3096
 20
1.5302
 30
0.0
 10
-24.2391
 20
1.6393
 30
0.0
 10
-24.2391
 20
1.6393
 30
0.0
 10
-24.1685
 20
1.7479
 30
0.0
 10
-24.0674
 20
1.8307
 30
0.0
 10
-23.9366
 20
1.8872
 30
0.0
 10
-23.9366
 20
1.8872
 30
0.0
 10
-23.8059
 20
1.9436
 30
0.0
 10
-23.6163
 20
1.9718
 30
0.0
 10
-23.368
 20
1.9718
 30
0.0
 10
-23.368
 20
1.9718
 30
0.0
 10
-23.1102
 20
1.9718
 30
0.0
 10
-22.9047
 20
1.9441
 30
0.0
 10
-22.7513
 20
1.8881
 30
0.0
 10
-22.7513
 20
1.8881
 30
0.0
 10
-22.5984
 20
1.8317
 30
0.0
 10
-22.4823
 20
1.7484
 30
0.0
 10
-22.4023
 20
1.6379
 30
0.0
 10
-22.4023
 20
1.6379
 30
0.0
 10
-22.3223
 20
1.5269
 30
0.0
 10
-22.2824
 20
1.3975
 30
0.0
 10
-22.2824
 20
1.2484
 30
0.0
 10
-22.2824
 20
1.2484
 30
0.0
 10
-22.2824
 20
1.0904
 30
0.0
 10
-22.3261
 20
0.9615
 30
0.0
 10
-22.4141
 20
0.8613
 30
0.0
 10
-22.4141
 20
0.8613
 30
0.0
 10
-22.5016
 20
0.7611
 30
0.0
 10
-22.6248
 20
0.7009
 30
0.0
 10
-22.7838
 20
0.6807
 30
0.0
  0
SPLINE
  5
4D
330
1F
100
AcDbEntity
  8
DEFAULT_1
 62
   250
100
AcDbSpline
210
0.0
220
0.0
230
1.0
 70
    11
 71
     3
 72
    36
 73
    32
 74
     0
 42
0.0000000001
 43
0.0000000001
 40
0.0
 40
0.0
 40
0.0
 40
0.0
 40
0.1111111111111111
 40
0.1111111111111111
 40
0.1111111111111111
 40
0.1111111111111111
 40
0.2222222222222222
 40
0.2222222222222222
 40
0.2222222222222222
 40
0.2222222222222222
 40
0.3333333333333333
 40
0.3333333333333333
 40
0.3333333333333333
 40
0.3333333333333333
 40
0.4444444444444444
 40
0.4444444444444444
 40
0.4444444444444444
 40
0.4444444444444444
 40
0.5555555555555556
 40
0.5555555555555556
 40
0.5555555555555556
 40
0.5555555555555556
 40
0.6666666666666666
 40
0.6666666666666666
 40
0.6666666666666666
 40
0.6666666666666666
 40
0.7777777777777778
 40
0.7777777777777778
 40
0.7777777777777778
 40
0.7777777777777778
 40
1.0
 40
1.0
 40
1.0
 40
1.0
 10
-23.6756
 20
1.6962
 30
0.0
 10
-23.8176
 20
1.6962
 30
0.0
 10
-23.931
 20
1.6586
 30
0.0
 10
-24.0143
 20
1.5828
 30
0.0
 10
-24.0143
 20
1.5828
 30
0.0
 10
-24.098
 20
1.5066
 30
0.0
 10
-24.1398
 20
1.4159
 30
0.0
 10
-24.1398
 20
1.3091
 30
0.0
 10
-24.1398
 20
1.3091
 30
0.0
 10
-24.1398
 20
1.199
 30
0.0
 10
-24.0947
 20
1.1031
 30
0.0
 10
-24.0048
 20
1.0212
 30
0.0
 10
-24.0048
 20
1.0212
 30
0.0
 10
-23.9145
 20
0.9394
 30
0.0
 10
-23.7979
 20
0.8985
 30
0.0
 10
-23.6549
 20
0.8985
 30
0.0
 10
-23.6549
 20
0.8985
 30
0.0
 10
-23.526
 20
0.8985
 30
0.0
 10
-23.4216
 20
0.9375
 30
0.0
 10
-23.3412
 20
1.0151
 30
0.0
 10
-23.3412
 20
1.0151
 30
0.0
 10
-23.2607
 20
1.0927
 30
0.0
 10
-23.2207
 20
1.1882
 30
0.0
 10
-23.2207
 20
1.302
 30
0.0
 10
-23.2207
 20
1.302
 30
0.0
 10
-23.2207
 20
1.4173
 30
0.0
 10
-23.2607
 20
1.5113
 30
0.0
 10
-23.3412
 20
1.5852
 30
0.0
 10
-23.3412
 20
1.5852
 30
0.0
 10
-23.4216
 20
1.6595
 30
0.0
 10
-23.5331
 20
1.6962
 30
0.0
 10
-23.6756
 20
1.6962
 30
0.0
  0
SPLINE
  5
4E
330
1F
100
AcDbEntity
  8
DEFAULT_1
 62
   250
100
AcDbSpline
210
0.0
220
0.0
230
1.0
 70
    11
 71
     3
 72
    92
 73
    88
 74
     0
 42
0.0000000001
 43
0.0000000001
 40
0.0
 40
0.0
 40
0.0
 40
0.0
 40
0.0434782608695652
 40
0.0434782608695652
 40
0.0434782608695652
 40
0.0434782608695652
 40
0.0869565217391304
 40
0.0869565217391304
 40
0.0869565217391304
 40
0.0869565217391304
 40
0.1304347826086956
 40
0.1304347826086956
 40
0.1304347826086956
 40
0.1304347826086956
 40
0.1739130434782609
 40
0.1739130434782609
 40
0.1739130434782609
 40
0.1739130434782609
 40
0.2173913043478261
 40
0.2173913043478261
 40
0.2173913043478261
 40
0.2173913043478261
 40
0.2608695652173913
 40
0.2608695652173913
 40
0.2608695652173913
 40
0.2608695652173913
 40
0.3043478260869565
 40
0.3043478260869565
 40
0.3043478260869565
 40
0.3043478260869565
 40
0.3478260869565217
 40
0.3478260869565217
 40
0.3478260869565217
 40
0.3478260869565217
 40
0.391304347826087
 40
0.391304347826087
 40
0.391304347826087
 40
0.391304347826087
 40
0.4347826086956522
 40
0.4347826086956522
 40
0.4347826086956522
 40
0.4347826086956522
 40
0.4782608695652174
 40
0.4782608695652174
 40
0.4782608695652174
 40
0.4782608695652174
 40
0.5217391304347826
 40
0.5217391304347826
 40
0.5217391304347826
 40
0.5217391304347826
 40
0.5652173913043478
 40
0.5652173913043478
 40
0.5652173913043478
 40
0.5652173913043478
 40
0.6086956521739131
 40
0.6086956521739131
 40
0.6086956521739131
 40
0.6086956521739131
 40
0.6521739130434783
 40
0.6521739130434783
 40
0.6521739130434783
 40
0.6521739130434783
 40
0.6956521739130435
 40
0.6956521739130435
 40
0.6956521739130435
 40
0.6956521739130435
 40
0.7391304347826086
 40
0.7391304347826086
 40
0.7391304347826086
 40
0.7391304347826086
 40
0.782608695652174
 40
0.782608695652174
 40
0.782608695652174
 40
0.782608695652174
 40
0.8260869565217391
 40
0.8260869565217391
 40
0.8260869565217391
 40
0.8260869565217391
 40
0.8695652173913043
 40
0.8695652173913043
 40
0.8695652173913043
 40
0.8695652173913043
 40
0.9130434782608695
 40
0.9130434782608695
 40
0.9130434782608695
 40
0.9130434782608695
 40
1.0
 40
1.0
 40
1.0
 40
1.0
 10
-22.5552
 20
3.517
 30
0.0
 10
-22.5552
 20
3.517
 30
0.0
 10
-22.3167
 20
3.517
 30
0.0
 10
-22.3167
 20
3.517
 30
0.0
 10
-22.3167
 20
3.517
 30
0.0
 10
-22.3167
 20
3.517
 30
0.0
 10
-22.3167
 20
2.1816
 30
0.0
 10
-22.3167
 20
2.1816
 30
0.0
 10
-22.3167
 20
2.1816
 30
0.0
 10
-22.3764
 20
2.1797
 30
0.0
 10
-22.4338
 20
2.1891
 30
0.0
 10
-22.4889
 20
2.2103
 30
0.0
 10
-22.4889
 20
2.2103
 30
0.0
 10
-22.5801
 20
2.2442
 30
0.0
 10
-22.6695
 20
2.2987
 30
0.0
 10
-22.7579
 20
2.3735
 30
0.0
 10
-22.7579
 20
2.3735
 30
0.0
 10
-22.8459
 20
2.4488
 30
0.0
 10
-22.9479
 20
2.557
 30
0.0
 10
-23.0636
 20
2.6981
 30
0.0
 10
-23.0636
 20
2.6981
 30
0.0
 10
-23.2438
 20
2.9177
 30
0.0
 10
-23.3863
 20
3.0664
 30
0.0
 10
-23.4917
 20
3.1435
 30
0.0
 10
-23.4917
 20
3.1435
 30
0.0
 10
-23.5966
 20
3.2206
 30
0.0
 10
-23.6963
 20
3.2592
 30
0.0
 10
-23.7899
 20
3.2592
 30
0.0
 10
-23.7899
 20
3.2592
 30
0.0
 10
-23.8882
 20
3.2592
 30
0.0
 10
-23.971
 20
3.2239
 30
0.0
 10
-24.0387
 20
3.1539
 30
0.0
 10
-24.0387
 20
3.1539
 30
0.0
 10
-24.106
 20
3.0833
 30
0.0
 10
-24.1398
 20
2.9916
 30
0.0
 10
-24.1398
 20
2.8787
 30
0.0
 10
-24.1398
 20
2.8787
 30
0.0
 10
-24.1398
 20
2.7592
 30
0.0
 10
-24.1041
 20
2.6637
 30
0.0
 10
-24.0321
 20
2.5922
 30
0.0
 10
-24.0321
 20
2.5922
 30
0.0
 10
-23.9606
 20
2.5203
 30
0.0
 10
-23.8614
 20
2.4841
 30
0.0
 10
-23.7349
 20
2.4831
 30
0.0
 10
-23.7349
 20
2.4831
 30
0.0
 10
-23.7349
 20
2.4831
 30
0.0
 10
-23.7607
 20
2.2282
 30
0.0
 10
-23.7607
 20
2.2282
 30
0.0
 10
-23.7607
 20
2.2282
 30
0.0
 10
-23.9512
 20
2.2456
 30
0.0
 10
-24.0961
 20
2.3114
 30
0.0
 10
-24.1958
 20
2.4253
 30
0.0
 10
-24.1958
 20
2.4253
 30
0.0
 10
-24.2955
 20
2.5391
 30
0.0
 10
-24.3454
 20
2.6924
 30
0.0
 10
-24.3454
 20
2.8843
 30
0.0
 10
-24.3454
 20
2.8843
 30
0.0
 10
-24.3454
 20
3.0781
 30
0.0
 10
-24.2913
 20
3.2315
 30
0.0
 10
-24.1841
 20
3.3444
 30
0.0
 10
-24.1841
 20
3.3444
 30
0.0
 10
-24.0763
 20
3.4577
 30
0.0
 10
-23.9432
 20
3.5142
 30
0.0
 10
-23.7842
 20
3.5142
 30
0.0
 10
-23.7842
 20
3.5142
 30
0.0
 10
-23.7033
 20
3.5142
 30
0.0
 10
-23.6238
 20
3.4977
 30
0.0
 10
-23.5458
 20
3.4643
 30
0.0
 10
-23.5458
 20
3.4643
 30
0.0
 10
-23.4677
 20
3.4314
 30
0.0
 10
-23.3854
 20
3.3763
 30
0.0
 10
-23.2993
 20
3.2997
 30
0.0
 10
-23.2993
 20
3.2997
 30
0.0
 10
-23.2127
 20
3.223
 30
0.0
 10
-23.0942
 20
3.0955
 30
0.0
 10
-22.9437
 20
2.9173
 30
0.0
 10
-22.9437
 20
2.9173
 30
0.0
 10
-22.8186
 20
2.7686
 30
0.0
 10
-22.7339
 20
2.6731
 30
0.0
 10
-22.6892
 20
2.6308
 30
0.0
 10
-22.6892
 20
2.6308
 30
0.0
 10
-22.645
 20
2.5885
 30
0.0
 10
-22.6003
 20
2.5537
 30
0.0
 10
-22.5552
 20
2.5259
 30
0.0
 10
-22.5552
 20
2.5259
 30
0.0
 10
-22.5552
 20
2.5259
 30
0.0
 10
-22.5552
 20
3.517
 30
0.0
 10
-22.5552
 20
3.517
 30
0.0
  0
SPLINE
  5
4F
330
1F
100
AcDbEntity
  8
DEFAULT_1
 62
   250
100
AcDbSpline
210
0.0
220
0.0
230
1.0
 70
    24
 71
     3
 72
     8
 73
     4
 74
     0
 42
0.0000000001
 43
0.0000000001
 40
0.0
 40
0.0
 40
0.0
 40
0.0
 40
1.0
 40
1.0
 40
1.0
 40
1.0
 10
-15.6662
 20
-12.3935
 30
0.0
 10
-15.6662
 20
-12.3935
 30
0.0
 10
-22.0982
 20
-12.3935
 30
0.0
 10
-22.0982
 20
-12.3935
 30
0.0
  0
SPLINE
  5
50
330
1F
100
AcDbEntity
  8
DEFAULT_1
 62
   250
100
AcDbSpline
210
0.0
220
0.0
230
1.0
 70
    24
 71
     3
 72
     8
 73
     4
 74
     0
 42
0.0000000001
 43
0.0000000001
 40
0.0
 40
0.0
 40
0.0
 40
0.0
 40
1.0
 40
1.0
 40
1.0
 40
1.0
 10
-17.1509
 20
18.2427
 30
0.0
 10
-17.1509
 20
18.2427
 30
0.0
 10
-22.0545
 20
18.2427
 30
0.0
 10
-22.0545
 20
18.2427
 30
0.0
  0
SPLINE
  5
51
330
1F
100
AcDbEntity
  8
DEFAULT_1
 62
   250
100
AcDbSpline
210
0.0
220
0.0
230
1.0
 70
    24
 71
     3
 72
     8
 73
     4
 74
     0
 42
0.0000000001
 43
0.0000000001
 40
0.0
 40
0.0
 40
0.0
 40
0.0
 40
1.0
 40
1.0
 40
1.0
 40
1.0
 10
-21.6319
 20
17.8021
 30
0.0
 10
-21.6319
 20
17.8021
 30
0.0
 10
-21.6319
 20
-10.9859
 30
0.0
 10
-21.6319
 20
-10.9859
 30
0.0
  0
SPLINE
  5
52
330
1F
100
AcDbEntity
  8
DEFAULT_1
 62
   250
100
AcDbSpline
210
0.0
220
0.0
230
1.0
 70
    11
 71
     3
 72
    84
 73
    80
 74
     0
 42
0.0000000001
 43
0.0000000001
 40
0.0
 40
0.0
 40
0.0
 40
0.0
 40
0.0476190476190476
 40
0.0476190476190476
 40
0.0476190476190476
 40
0.0476190476190476
 40
0.0952380952380952
 40
0.0952380952380952
 40
0.0952380952380952
 40
0.0952380952380952
 40
0.1428571428571428
 40
0.1428571428571428
 40
0.1428571428571428
 40
0.1428571428571428
 40
0.1904761904761905
 40
0.1904761904761905
 40
0.1904761904761905
 40
0.1904761904761905
 40
0.2380952380952381
 40
0.2380952380952381
 40
0.2380952380952381
 40
0.2380952380952381
 40
0.2857142857142857
 40
0.2857142857142857
 40
0.2857142857142857
 40
0.2857142857142857
 40
0.3333333333333333
 40
0.3333333333333333
 40
0.3333333333333333
 40
0.3333333333333333
 40
0.3809523809523809
 40
0.3809523809523809
 40
0.3809523809523809
 40
0.3809523809523809
 40
0.4285714285714285
 40
0.4285714285714285
 40
0.4285714285714285
 40
0.4285714285714285
 40
0.4761904761904762
 40
0.4761904761904762
 40
0.4761904761904762
 40
0.4761904761904762
 40
0.5238095238095238
 40
0.5238095238095238
 40
0.5238095238095238
 40
0.5238095238095238
 40
0.5714285714285714
 40
0.5714285714285714
 40
0.5714285714285714
 40
0.5714285714285714
 40
0.6190476190476191
 40
0.6190476190476191
 40
0.6190476190476191
 40
0.6190476190476191
 40
0.6666666666666666
 40
0.6666666666666666
 40
0.6666666666666666
 40
0.6666666666666666
 40
0.7142857142857143
 40
0.7142857142857143
 40
0.7142857142857143
 40
0.7142857142857143
 40
0.7619047619047619
 40
0.7619047619047619
 40
0.7619047619047619
 40
0.7619047619047619
 40
0.8095238095238095
 40
0.8095238095238095
 40
0.8095238095238095
 40
0.8095238095238095
 40
0.8571428571428571
 40
0.8571428571428571
 40
0.8571428571428571
 40
0.8571428571428571
 40
0.9047619047619048
 40
0.9047619047619048
 40
0.9047619047619048
 40
0.9047619047619048
 40
1.0
 40
1.0
 40
1.0
 40
1.0
 10
8.012
 20
-16.7727
 30
0.0
 10
8.012
 20
-16.7727
 30
0.0
 10
8.2434
 20
-16.5136
 30
0.0
 10
8.2434
 20
-16.5136
 30
0.0
 10
8.2434
 20
-16.5136
 30
0.0
 10
8.2434
 20
-16.5136
 30
0.0
 10
8.3798
 20
-16.6293
 30
0.0
 10
8.3798
 20
-16.6293
 30
0.0
 10
8.3798
 20
-16.6293
 30
0.0
 10
8.3798
 20
-16.6293
 30
0.0
 10
8.1376
 20
-16.9021
 30
0.0
 10
8.1376
 20
-16.9021
 30
0.0
 10
8.1376
 20
-16.9021
 30
0.0
 10
8.2166
 20
-17.0197
 30
0.0
 10
8.2697
 20
-17.1227
 30
0.0
 10
8.2975
 20
-17.2106
 30
0.0
 10
8.2975
 20
-17.2106
 30
0.0
 10
8.3342
 20
-17.3264
 30
0.0
 10
8.3525
 20
-17.4562
 30
0.0
 10
8.3525
 20
-17.5992
 30
0.0
 10
8.3525
 20
-17.5992
 30
0.0
 10
8.3525
 20
-17.8061
 30
0.0
 10
8.3107
 20
-17.9905
 30
0.0
 10
8.2269
 20
-18.1518
 30
0.0
 10
8.2269
 20
-18.1518
 30
0.0
 10
8.1432
 20
-18.3137
 30
0.0
 10
8.0261
 20
-18.4359
 30
0.0
 10
7.8751
 20
-18.5187
 30
0.0
 10
7.8751
 20
-18.5187
 30
0.0
 10
7.7236
 20
-18.601
 30
0.0
 10
7.5633
 20
-18.6424
 30
0.0
 10
7.3935
 20
-18.6424
 30
0.0
 10
7.3935
 20
-18.6424
 30
0.0
 10
7.2665
 20
-18.6424
 30
0.0
 10
7.1517
 20
-18.6246
 30
0.0
 10
7.0487
 20
-18.5888
 30
0.0
 10
7.0487
 20
-18.5888
 30
0.0
 10
6.9697
 20
-18.5611
 30
0.0
 10
6.8775
 20
-18.5084
 30
0.0
 10
6.7716
 20
-18.4303
 30
0.0
 10
6.7716
 20
-18.4303
 30
0.0
 10
6.7716
 20
-18.4303
 30
0.0
 10
6.5402
 20
-18.6895
 30
0.0
 10
6.5402
 20
-18.6895
 30
0.0
 10
6.5402
 20
-18.6895
 30
0.0
 10
6.5402
 20
-18.6895
 30
0.0
 10
6.4038
 20
-18.5738
 30
0.0
 10
6.4038
 20
-18.5738
 30
0.0
 10
6.4038
 20
-18.5738
 30
0.0
 10
6.4038
 20
-18.5738
 30
0.0
 10
6.6465
 20
-18.3024
 30
0.0
 10
6.6465
 20
-18.3024
 30
0.0
 10
6.6465
 20
-18.3024
 30
0.0
 10
6.5562
 20
-18.1655
 30
0.0
 10
6.496
 20
-18.0484
 30
0.0
 10
6.4659
 20
-17.9515
 30
0.0
 10
6.4659
 20
-17.9515
 30
0.0
 10
6.4358
 20
-17.8546
 30
0.0
 10
6.4203
 20
-17.7379
 30
0.0
 10
6.4203
 20
-17.602
 30
0.0
 10
6.4203
 20
-17.602
 30
0.0
 10
6.4203
 20
-17.3946
 30
0.0
 10
6.4617
 20
-17.2097
 30
0.0
 10
6.5444
 20
-17.0474
 30
0.0
 10
6.5444
 20
-17.0474
 30
0.0
 10
6.6272
 20
-16.8851
 30
0.0
 10
6.7429
 20
-16.7624
 30
0.0
 10
6.8925
 20
-16.6787
 30
0.0
 10
6.8925
 20
-16.6787
 30
0.0
 10
7.0416
 20
-16.5954
 30
0.0
 10
7.2077
 20
-16.5535
 30
0.0
 10
7.3906
 20
-16.5535
 30
0.0
 10
7.3906
 20
-16.5535
 30
0.0
 10
7.5139
 20
-16.5535
 30
0.0
 10
7.6216
 20
-16.5695
 30
0.0
 10
7.7138
 20
-16.6025
 30
0.0
 10
7.7138
 20
-16.6025
 30
0.0
 10
7.806
 20
-16.6349
 30
0.0
 10
7.9057
 20
-16.6918
 30
0.0
 10
8.012
 20
-16.7727
 30
0.0
  0
SPLINE
  5
53
330
1F
100
AcDbEntity
  8
DEFAULT_1
 62
   250
100
AcDbSpline
210
0.0
220
0.0
230
1.0
 70
    11
 71
     3
 72
    32
 73
    28
 74
     0
 42
0.0000000001
 43
0.0000000001
 40
0.0
 40
0.0
 40
0.0
 40
0.0
 40
0.125
 40
0.125
 40
0.125
 40
0.125
 40
0.25
 40
0.25
 40
0.25
 40
0.25
 40
0.375
 40
0.375
 40
0.375
 40
0.375
 40
0.5
 40
0.5
 40
0.5
 40
0.5
 40
0.625
 40
0.625
 40
0.625
 40
0.625
 40
0.75
 40
0.75
 40
0.75
 40
0.75
 40
1.0
 40
1.0
 40
1.0
 40
1.0
 10
7.8469
 20
-16.9585
 30
0.0
 10
7.7603
 20
-16.8908
 30
0.0
 10
7.6846
 20
-16.8442
 30
0.0
 10
7.6202
 20
-16.8193
 30
0.0
 10
7.6202
 20
-16.8193
 30
0.0
 10
7.5553
 20
-16.7948
 30
0.0
 10
7.4791
 20
-16.7821
 30
0.0
 10
7.392
 20
-16.7821
 30
0.0
 10
7.392
 20
-16.7821
 30
0.0
 10
7.1907
 20
-16.7821
 30
0.0
 10
7.0247
 20
-16.8503
 30
0.0
 10
6.893
 20
-16.9867
 30
0.0
 10
6.893
 20
-16.9867
 30
0.0
 10
6.7617
 20
-17.1232
 30
0.0
 10
6.6959
 20
-17.3268
 30
0.0
 10
6.6959
 20
-17.5982
 30
0.0
 10
6.6959
 20
-17.5982
 30
0.0
 10
6.6959
 20
-17.7045
 30
0.0
 10
6.7062
 20
-17.7991
 30
0.0
 10
6.7265
 20
-17.8819
 30
0.0
 10
6.7265
 20
-17.8819
 30
0.0
 10
6.7411
 20
-17.9435
 30
0.0
 10
6.7716
 20
-18.0192
 30
0.0
 10
6.8187
 20
-18.109
 30
0.0
 10
6.8187
 20
-18.109
 30
0.0
 10
6.8187
 20
-18.109
 30
0.0
 10
7.8469
 20
-16.9585
 30
0.0
 10
7.8469
 20
-16.9585
 30
0.0
  0
SPLINE
  5
54
330
1F
100
AcDbEntity
  8
DEFAULT_1
 62
   250
100
AcDbSpline
210
0.0
220
0.0
230
1.0
 70
    11
 71
     3
 72
    28
 73
    24
 74
     0
 42
0.0000000001
 43
0.0000000001
 40
0.0
 40
0.0
 40
0.0
 40
0.0
 40
0.1428571428571428
 40
0.1428571428571428
 40
0.1428571428571428
 40
0.1428571428571428
 40
0.2857142857142857
 40
0.2857142857142857
 40
0.2857142857142857
 40
0.2857142857142857
 40
0.4285714285714285
 40
0.4285714285714285
 40
0.4285714285714285
 40
0.4285714285714285
 40
0.5714285714285714
 40
0.5714285714285714
 40
0.5714285714285714
 40
0.5714285714285714
 40
0.7142857142857143
 40
0.7142857142857143
 40
0.7142857142857143
 40
0.7142857142857143
 40
1.0
 40
1.0
 40
1.0
 40
1.0
 10
7.9598
 20
-17.1006
 30
0.0
 10
7.9598
 20
-17.1006
 30
0.0
 10
6.9358
 20
-18.2469
 30
0.0
 10
6.9358
 20
-18.2469
 30
0.0
 10
6.9358
 20
-18.2469
 30
0.0
 10
7.0063
 20
-18.3047
 30
0.0
 10
7.0717
 20
-18.3452
 30
0.0
 10
7.1315
 20
-18.3682
 30
0.0
 10
7.1315
 20
-18.3682
 30
0.0
 10
7.2095
 20
-18.3988
 30
0.0
 10
7.2942
 20
-18.4138
 30
0.0
 10
7.385
 20
-18.4138
 30
0.0
 10
7.385
 20
-18.4138
 30
0.0
 10
7.5854
 20
-18.4138
 30
0.0
 10
7.7505
 20
-18.3433
 30
0.0
 10
7.8812
 20
-18.2017
 30
0.0
 10
7.8812
 20
-18.2017
 30
0.0
 10
8.0115
 20
-18.0601
 30
0.0
 10
8.0769
 20
-17.8616
 30
0.0
 10
8.0769
 20
-17.6062
 30
0.0
 10
8.0769
 20
-17.6062
 30
0.0
 10
8.0769
 20
-17.4153
 30
0.0
 10
8.0379
 20
-17.2464
 30
0.0
 10
7.9598
 20
-17.1006
 30
0.0
  0
SPLINE
  5
55
330
1F
100
AcDbEntity
  8
DEFAULT_1
 62
   250
100
AcDbSpline
210
0.0
220
0.0
230
1.0
 70
    11
 71
     3
 72
    40
 73
    36
 74
     0
 42
0.0000000001
 43
0.0000000001
 40
0.0
 40
0.0
 40
0.0
 40
0.0
 40
0.1
 40
0.1
 40
0.1
 40
0.1
 40
0.2
 40
0.2
 40
0.2
 40
0.2
 40
0.3
 40
0.3
 40
0.3
 40
0.3
 40
0.4
 40
0.4
 40
0.4
 40
0.4
 40
0.5
 40
0.5
 40
0.5
 40
0.5
 40
0.6
 40
0.6
 40
0.6
 40
0.6
 40
0.7
 40
0.7
 40
0.7
 40
0.7
 40
0.8
 40
0.8
 40
0.8
 40
0.8
 40
1.0
 40
1.0
 40
1.0
 40
1.0
 10
9.536
 20
-18.6081
 30
0.0
 10
9.536
 20
-18.6081
 30
0.0
 10
9.2881
 20
-18.6081
 30
0.0
 10
9.2881
 20
-18.6081
 30
0.0
 10
9.2881
 20
-18.6081
 30
0.0
 10
9.2881
 20
-18.6081
 30
0.0
 10
9.2881
 20
-17.0277
 30
0.0
 10
9.2881
 20
-17.0277
 30
0.0
 10
9.2881
 20
-17.0277
 30
0.0
 10
9.2283
 20
-17.0846
 30
0.0
 10
9.1503
 20
-17.1415
 30
0.0
 10
9.0534
 20
-17.1984
 30
0.0
 10
9.0534
 20
-17.1984
 30
0.0
 10
8.956
 20
-17.2553
 30
0.0
 10
8.869
 20
-17.2981
 30
0.0
 10
8.7918
 20
-17.3264
 30
0.0
 10
8.7918
 20
-17.3264
 30
0.0
 10
8.7918
 20
-17.3264
 30
0.0
 10
8.7918
 20
-17.0869
 30
0.0
 10
8.7918
 20
-17.0869
 30
0.0
 10
8.7918
 20
-17.0869
 30
0.0
 10
8.9306
 20
-17.0216
 30
0.0
 10
9.052
 20
-16.9425
 30
0.0
 10
9.1559
 20
-16.8499
 30
0.0
 10
9.1559
 20
-16.8499
 30
0.0
 10
9.2594
 20
-16.7567
 30
0.0
 10
9.3332
 20
-16.6669
 30
0.0
 10
9.3765
 20
-16.5794
 30
0.0
 10
9.3765
 20
-16.5794
 30
0.0
 10
9.3765
 20
-16.5794
 30
0.0
 10
9.536
 20
-16.5794
 30
0.0
 10
9.536
 20
-16.5794
 30
0.0
 10
9.536
 20
-16.5794
 30
0.0
 10
9.536
 20
-16.5794
 30
0.0
 10
9.536
 20
-18.6081
 30
0.0
 10
9.536
 20
-18.6081
 30
0.0
  0
SPLINE
  5
56
330
1F
100
AcDbEntity
  8
DEFAULT_1
 62
   250
100
AcDbSpline
210
0.0
220
0.0
230
1.0
 70
    11
 71
     3
 72
    48
 73
    44
 74
     0
 42
0.0000000001
 43
0.0000000001
 40
0.0
 40
0.0
 40
0.0
 40
0.0
 40
0.0833333333333333
 40
0.0833333333333333
 40
0.0833333333333333
 40
0.0833333333333333
 40
0.1666666666666667
 40
0.1666666666666667
 40
0.1666666666666667
 40
0.1666666666666667
 40
0.25
 40
0.25
 40
0.25
 40
0.25
 40
0.3333333333333333
 40
0.3333333333333333
 40
0.3333333333333333
 40
0.3333333333333333
 40
0.4166666666666667
 40
0.4166666666666667
 40
0.4166666666666667
 40
0.4166666666666667
 40
0.5
 40
0.5
 40
0.5
 40
0.5
 40
0.5833333333333334
 40
0.5833333333333334
 40
0.5833333333333334
 40
0.5833333333333334
 40
0.6666666666666666
 40
0.6666666666666666
 40
0.6666666666666666
 40
0.6666666666666666
 40
0.75
 40
0.75
 40
0.75
 40
0.75
 40
0.8333333333333334
 40
0.8333333333333334
 40
0.8333333333333334
 40
0.8333333333333334
 40
1.0
 40
1.0
 40
1.0
 40
1.0
 10
10.1879
 20
-16.8527
 30
0.0
 10
10.1879
 20
-16.8527
 30
0.0
 10
10.1879
 20
-16.6142
 30
0.0
 10
10.1879
 20
-16.6142
 30
0.0
 10
10.1879
 20
-16.6142
 30
0.0
 10
10.1879
 20
-16.6142
 30
0.0
 10
11.4955
 20
-16.6142
 30
0.0
 10
11.4955
 20
-16.6142
 30
0.0
 10
11.4955
 20
-16.6142
 30
0.0
 10
11.4955
 20
-16.6142
 30
0.0
 10
11.4955
 20
-16.8071
 30
0.0
 10
11.4955
 20
-16.8071
 30
0.0
 10
11.4955
 20
-16.8071
 30
0.0
 10
11.3671
 20
-16.9439
 30
0.0
 10
11.2396
 20
-17.126
 30
0.0
 10
11.1131
 20
-17.3527
 30
0.0
 10
11.1131
 20
-17.3527
 30
0.0
 10
10.987
 20
-17.5794
 30
0.0
 10
10.8892
 20
-17.8132
 30
0.0
 10
10.8205
 20
-18.0526
 30
0.0
 10
10.8205
 20
-18.0526
 30
0.0
 10
10.7707
 20
-18.2219
 30
0.0
 10
10.7392
 20
-18.4068
 30
0.0
 10
10.7255
 20
-18.6081
 30
0.0
 10
10.7255
 20
-18.6081
 30
0.0
 10
10.7255
 20
-18.6081
 30
0.0
 10
10.4706
 20
-18.6081
 30
0.0
 10
10.4706
 20
-18.6081
 30
0.0
 10
10.4706
 20
-18.6081
 30
0.0
 10
10.4734
 20
-18.4491
 30
0.0
 10
10.5044
 20
-18.2572
 30
0.0
 10
10.5642
 20
-18.0319
 30
0.0
 10
10.5642
 20
-18.0319
 30
0.0
 10
10.6239
 20
-17.8071
 30
0.0
 10
10.7095
 20
-17.5898
 30
0.0
 10
10.821
 20
-17.3809
 30
0.0
 10
10.821
 20
-17.3809
 30
0.0
 10
10.9329
 20
-17.1721
 30
0.0
 10
11.0515
 20
-16.9957
 30
0.0
 10
11.1775
 20
-16.8527
 30
0.0
 10
11.1775
 20
-16.8527
 30
0.0
 10
11.1775
 20
-16.8527
 30
0.0
 10
10.1879
 20
-16.8527
 30
0.0
 10
10.1879
 20
-16.8527
 30
0.0
  0
SPLINE
  5
57
330
1F
100
AcDbEntity
  8
DEFAULT_1
 62
   250
100
AcDbSpline
210
0.0
220
0.0
230
1.0
 70
    24
 71
     3
 72
     8
 73
     4
 74
     0
 42
0.0000000001
 43
0.0000000001
 40
0.0
 40
0.0
 40
0.0
 40
0.0
 40
1.0
 40
1.0
 40
1.0
 40
1.0
 10
19.883
 20
-17.1724
 30
0.0
 10
19.883
 20
-17.1724
 30
0.0
 10
19.883
 20
-20.1605
 30
0.0
 10
19.883
 20
-20.1605
 30
0.0
  0
SPLINE
  5
58
330
1F
100
AcDbEntity
  8
DEFAULT_1
 62
   250
100
AcDbSpline
210
0.0
220
0.0
230
1.0
 70
    24
 71
     3
 72
     8
 73
     4
 74
     0
 42
0.0000000001
 43
0.0000000001
 40
0.0
 40
0.0
 40
0.0
 40
0.0
 40
1.0
 40
1.0
 40
1.0
 40
1.0
 10
14.1227
 20
-17.2022
 30
0.0
 10
14.1227
 20
-17.2022
 30
0.0
 10
14.1227
 20
-20.3126
 30
0.0
 10
14.1227
 20
-20.3126
 30
0.0
  0
SPLINE
  5
59
330
1F
100
AcDbEntity
  8
DEFAULT_1
 62
   250
100
AcDbSpline
210
0.0
220
0.0
230
1.0
 70
    11
 71
     3
 72
    48
 73
    44
 74
     0
 42
0.0000000001
 43
0.0000000001
 40
0.0
 40
0.0
 40
0.0
 40
0.0
 40
0.0833333333333333
 40
0.0833333333333333
 40
0.0833333333333333
 40
0.0833333333333333
 40
0.1666666666666667
 40
0.1666666666666667
 40
0.1666666666666667
 40
0.1666666666666667
 40
0.25
 40
0.25
 40
0.25
 40
0.25
 40
0.3333333333333333
 40
0.3333333333333333
 40
0.3333333333333333
 40
0.3333333333333333
 40
0.4166666666666667
 40
0.4166666666666667
 40
0.4166666666666667
 40
0.4166666666666667
 40
0.5
 40
0.5
 40
0.5
 40
0.5
 40
0.5833333333333334
 40
0.5833333333333334
 40
0.5833333333333334
 40
0.5833333333333334
 40
0.6666666666666666
 40
0.6666666666666666
 40
0.6666666666666666
 40
0.6666666666666666
 40
0.75
 40
0.75
 40
0.75
 40
0.75
 40
0.8333333333333334
 40
0.8333333333333334
 40
0.8333333333333334
 40
0.8333333333333334
 40
1.0
 40
1.0
 40
1.0
 40
1.0
 10
1.718
 20
-21.4133
 30
0.0
 10
1.718
 20
-21.4133
 30
0.0
 10
1.718
 20
-21.1748
 30
0.0
 10
1.718
 20
-21.1748
 30
0.0
 10
1.718
 20
-21.1748
 30
0.0
 10
1.718
 20
-21.1748
 30
0.0
 10
3.0256
 20
-21.1748
 30
0.0
 10
3.0256
 20
-21.1748
 30
0.0
 10
3.0256
 20
-21.1748
 30
0.0
 10
3.0256
 20
-21.1748
 30
0.0
 10
3.0256
 20
-21.3677
 30
0.0
 10
3.0256
 20
-21.3677
 30
0.0
 10
3.0256
 20
-21.3677
 30
0.0
 10
2.8972
 20
-21.5045
 30
0.0
 10
2.7697
 20
-21.6866
 30
0.0
 10
2.6432
 20
-21.9133
 30
0.0
 10
2.6432
 20
-21.9133
 30
0.0
 10
2.5171
 20
-22.14
 30
0.0
 10
2.4193
 20
-22.3738
 30
0.0
 10
2.3506
 20
-22.6132
 30
0.0
 10
2.3506
 20
-22.6132
 30
0.0
 10
2.3008
 20
-22.7825
 30
0.0
 10
2.2693
 20
-22.9674
 30
0.0
 10
2.2556
 20
-23.1687
 30
0.0
 10
2.2556
 20
-23.1687
 30
0.0
 10
2.2556
 20
-23.1687
 30
0.0
 10
2.0007
 20
-23.1687
 30
0.0
 10
2.0007
 20
-23.1687
 30
0.0
 10
2.0007
 20
-23.1687
 30
0.0
 10
2.0035
 20
-23.0097
 30
0.0
 10
2.0345
 20
-22.8178
 30
0.0
 10
2.0943
 20
-22.5925
 30
0.0
 10
2.0943
 20
-22.5925
 30
0.0
 10
2.154
 20
-22.3677
 30
0.0
 10
2.2396
 20
-22.1504
 30
0.0
 10
2.3511
 20
-21.9415
 30
0.0
 10
2.3511
 20
-21.9415
 30
0.0
 10
2.463
 20
-21.7327
 30
0.0
 10
2.5816
 20
-21.5563
 30
0.0
 10
2.7076
 20
-21.4133
 30
0.0
 10
2.7076
 20
-21.4133
 30
0.0
 10
2.7076
 20
-21.4133
 30
0.0
 10
1.718
 20
-21.4133
 30
0.0
 10
1.718
 20
-21.4133
 30
0.0
  0
SPLINE
  5
5A
330
1F
100
AcDbEntity
  8
DEFAULT_1
 62
   250
100
AcDbSpline
210
0.0
220
0.0
230
1.0
 70
    11
 71
     3
 72
   124
 73
   120
 74
     0
 42
0.0000000001
 43
0.0000000001
 40
0.0
 40
0.0
 40
0.0
 40
0.0
 40
0.032258064516129
 40
0.032258064516129
 40
0.032258064516129
 40
0.032258064516129
 40
0.0645161290322581
 40
0.0645161290322581
 40
0.0645161290322581
 40
0.0645161290322581
 40
0.0967741935483871
 40
0.0967741935483871
 40
0.0967741935483871
 40
0.0967741935483871
 40
0.1290322580645161
 40
0.1290322580645161
 40
0.1290322580645161
 40
0.1290322580645161
 40
0.1612903225806452
 40
0.1612903225806452
 40
0.1612903225806452
 40
0.1612903225806452
 40
0.1935483870967742
 40
0.1935483870967742
 40
0.1935483870967742
 40
0.1935483870967742
 40
0.2258064516129032
 40
0.2258064516129032
 40
0.2258064516129032
 40
0.2258064516129032
 40
0.2580645161290323
 40
0.2580645161290323
 40
0.2580645161290323
 40
0.2580645161290323
 40
0.2903225806451613
 40
0.2903225806451613
 40
0.2903225806451613
 40
0.2903225806451613
 40
0.3225806451612903
 40
0.3225806451612903
 40
0.3225806451612903
 40
0.3225806451612903
 40
0.3548387096774194
 40
0.3548387096774194
 40
0.3548387096774194
 40
0.3548387096774194
 40
0.3870967741935484
 40
0.3870967741935484
 40
0.3870967741935484
 40
0.3870967741935484
 40
0.4193548387096774
 40
0.4193548387096774
 40
0.4193548387096774
 40
0.4193548387096774
 40
0.4516129032258064
 40
0.4516129032258064
 40
0.4516129032258064
 40
0.4516129032258064
 40
0.4838709677419355
 40
0.4838709677419355
 40
0.4838709677419355
 40
0.4838709677419355
 40
0.5161290322580645
 40
0.5161290322580645
 40
0.5161290322580645
 40
0.5161290322580645
 40
0.5483870967741935
 40
0.5483870967741935
 40
0.5483870967741935
 40
0.5483870967741935
 40
0.5806451612903226
 40
0.5806451612903226
 40
0.5806451612903226
 40
0.5806451612903226
 40
0.6129032258064516
 40
0.6129032258064516
 40
0.6129032258064516
 40
0.6129032258064516
 40
0.6451612903225806
 40
0.6451612903225806
 40
0.6451612903225806
 40
0.6451612903225806
 40
0.6774193548387096
 40
0.6774193548387096
 40
0.6774193548387096
 40
0.6774193548387096
 40
0.7096774193548387
 40
0.7096774193548387
 40
0.7096774193548387
 40
0.7096774193548387
 40
0.7419354838709677
 40
0.7419354838709677
 40
0.7419354838709677
 40
0.7419354838709677
 40
0.7741935483870968
 40
0.7741935483870968
 40
0.7741935483870968
 40
0.7741935483870968
 40
0.8064516129032258
 40
0.8064516129032258
 40
0.8064516129032258
 40
0.8064516129032258
 40
0.8387096774193549
 40
0.8387096774193549
 40
0.8387096774193549
 40
0.8387096774193549
 40
0.8709677419354839
 40
0.8709677419354839
 40
0.8709677419354839
 40
0.8709677419354839
 40
0.9032258064516129
 40
0.9032258064516129
 40
0.9032258064516129
 40
0.9032258064516129
 40
0.9354838709677419
 40
0.9354838709677419
 40
0.9354838709677419
 40
0.9354838709677419
 40
1.0
 40
1.0
 40
1.0
 40
1.0
 10
3.2725
 20
-22.6353
 30
0.0
 10
3.2725
 20
-22.6353
 30
0.0
 10
3.5204
 20
-22.6024
 30
0.0
 10
3.5204
 20
-22.6024
 30
0.0
 10
3.5204
 20
-22.6024
 30
0.0
 10
3.5491
 20
-22.743
 30
0.0
 10
3.5976
 20
-22.8441
 30
0.0
 10
3.6658
 20
-22.9062
 30
0.0
 10
3.6658
 20
-22.9062
 30
0.0
 10
3.7344
 20
-22.9683
 30
0.0
 10
3.8177
 20
-22.9994
 30
0.0
 10
3.916
 20
-22.9994
 30
0.0
 10
3.916
 20
-22.9994
 30
0.0
 10
4.0326
 20
-22.9994
 30
0.0
 10
4.1314
 20
-22.9589
 30
0.0
 10
4.2119
 20
-22.878
 30
0.0
 10
4.2119
 20
-22.878
 30
0.0
 10
4.2918
 20
-22.7971
 30
0.0
 10
4.3323
 20
-22.6969
 30
0.0
 10
4.3323
 20
-22.5774
 30
0.0
 10
4.3323
 20
-22.5774
 30
0.0
 10
4.3323
 20
-22.4636
 30
0.0
 10
4.2951
 20
-22.3695
 30
0.0
 10
4.2208
 20
-22.2957
 30
0.0
 10
4.2208
 20
-22.2957
 30
0.0
 10
4.146
 20
-22.2219
 30
0.0
 10
4.0515
 20
-22.1847
 30
0.0
 10
3.9367
 20
-22.1847
 30
0.0
 10
3.9367
 20
-22.1847
 30
0.0
 10
3.8897
 20
-22.1847
 30
0.0
 10
3.8313
 20
-22.1941
 30
0.0
 10
3.7617
 20
-22.2124
 30
0.0
 10
3.7617
 20
-22.2124
 30
0.0
 10
3.7617
 20
-22.2124
 30
0.0
 10
3.7895
 20
-21.9947
 30
0.0
 10
3.7895
 20
-21.9947
 30
0.0
 10
3.7895
 20
-21.9947
 30
0.0
 10
3.8059
 20
-21.9965
 30
0.0
 10
3.8191
 20
-21.9975
 30
0.0
 10
3.8294
 20
-21.9975
 30
0.0
 10
3.8294
 20
-21.9975
 30
0.0
 10
3.9348
 20
-21.9975
 30
0.0
 10
4.0298
 20
-21.9697
 30
0.0
 10
4.1145
 20
-21.9147
 30
0.0
 10
4.1145
 20
-21.9147
 30
0.0
 10
4.1992
 20
-21.8597
 30
0.0
 10
4.2415
 20
-21.7745
 30
0.0
 10
4.2415
 20
-21.6598
 30
0.0
 10
4.2415
 20
-21.6598
 30
0.0
 10
4.2415
 20
-21.569
 30
0.0
 10
4.2104
 20
-21.4933
 30
0.0
 10
4.1488
 20
-21.434
 30
0.0
 10
4.1488
 20
-21.434
 30
0.0
 10
4.0872
 20
-21.3743
 30
0.0
 10
4.0077
 20
-21.3441
 30
0.0
 10
3.9103
 20
-21.3441
 30
0.0
 10
3.9103
 20
-21.3441
 30
0.0
 10
3.8139
 20
-21.3441
 30
0.0
 10
3.7335
 20
-21.3747
 30
0.0
 10
3.6695
 20
-21.4349
 30
0.0
 10
3.6695
 20
-21.4349
 30
0.0
 10
3.6051
 20
-21.4956
 30
0.0
 10
3.5637
 20
-21.5869
 30
0.0
 10
3.5453
 20
-21.7082
 30
0.0
 10
3.5453
 20
-21.7082
 30
0.0
 10
3.5453
 20
-21.7082
 30
0.0
 10
3.2975
 20
-21.664
 30
0.0
 10
3.2975
 20
-21.664
 30
0.0
 10
3.2975
 20
-21.664
 30
0.0
 10
3.3276
 20
-21.4975
 30
0.0
 10
3.3967
 20
-21.3686
 30
0.0
 10
3.504
 20
-21.2774
 30
0.0
 10
3.504
 20
-21.2774
 30
0.0
 10
3.6117
 20
-21.1861
 30
0.0
 10
3.7453
 20
-21.14
 30
0.0
 10
3.9052
 20
-21.14
 30
0.0
 10
3.9052
 20
-21.14
 30
0.0
 10
4.0152
 20
-21.14
 30
0.0
 10
4.1168
 20
-21.164
 30
0.0
 10
4.2095
 20
-21.211
 30
0.0
 10
4.2095
 20
-21.211
 30
0.0
 10
4.3022
 20
-21.2585
 30
0.0
 10
4.3732
 20
-21.323
 30
0.0
 10
4.4226
 20
-21.4048
 30
0.0
 10
4.4226
 20
-21.4048
 30
0.0
 10
4.4715
 20
-21.4867
 30
0.0
 10
4.4964
 20
-21.5732
 30
0.0
 10
4.4964
 20
-21.6654
 30
0.0
 10
4.4964
 20
-21.6654
 30
0.0
 10
4.4964
 20
-21.7524
 30
0.0
 10
4.4729
 20
-21.8319
 30
0.0
 10
4.4259
 20
-21.9039
 30
0.0
 10
4.4259
 20
-21.9039
 30
0.0
 10
4.3788
 20
-21.9754
 30
0.0
 10
4.3097
 20
-22.0323
 30
0.0
 10
4.218
 20
-22.0746
 30
0.0
 10
4.218
 20
-22.0746
 30
0.0
 10
4.3374
 20
-22.1019
 30
0.0
 10
4.4301
 20
-22.1593
 30
0.0
 10
4.4964
 20
-22.2463
 30
0.0
 10
4.4964
 20
-22.2463
 30
0.0
 10
4.5623
 20
-22.3329
 30
0.0
 10
4.5952
 20
-22.4415
 30
0.0
 10
4.5952
 20
-22.5718
 30
0.0
 10
4.5952
 20
-22.5718
 30
0.0
 10
4.5952
 20
-22.7482
 30
0.0
 10
4.5312
 20
-22.8978
 30
0.0
 10
4.4024
 20
-23.0205
 30
0.0
 10
4.4024
 20
-23.0205
 30
0.0
 10
4.2739
 20
-23.1433
 30
0.0
 10
4.1112
 20
-23.2044
 30
0.0
 10
3.9146
 20
-23.2044
 30
0.0
 10
3.9146
 20
-23.2044
 30
0.0
 10
3.7373
 20
-23.2044
 30
0.0
 10
3.59
 20
-23.1518
 30
0.0
 10
3.4729
 20
-23.0459
 30
0.0
 10
3.4729
 20
-23.0459
 30
0.0
 10
3.3558
 20
-22.9406
 30
0.0
 10
3.289
 20
-22.8037
 30
0.0
 10
3.2725
 20
-22.6353
 30
0.0
  0
SPLINE
  5
5B
330
1F
100
AcDbEntity
  8
DEFAULT_1
 62
   250
100
AcDbSpline
210
0.0
220
0.0
230
1.0
 70
    24
 71
     3
 72
     8
 73
     4
 74
     0
 42
0.0000000001
 43
0.0000000001
 40
0.0
 40
0.0
 40
0.0
 40
0.0
 40
1.0
 40
1.0
 40
1.0
 40
1.0
 10
-7.4517
 20
-18.5816
 30
0.0
 10
-7.4517
 20
-18.5816
 30
0.0
 10
-7.4517
 20
-24.4523
 30
0.0
 10
-7.4517
 20
-24.4523
 30
0.0
  0
SPLINE
  5
5C
330
1F
100
AcDbEntity
  8
DEFAULT_1
 62
   250
100
AcDbSpline
210
0.0
220
0.0
230
1.0
 70
    24
 71
     3
 72
     8
 73
     4
 74
     0
 42
0.0000000001
 43
0.0000000001
 40
0.0
 40
0.0
 40
0.0
 40
0.0
 40
1.0
 40
1.0
 40
1.0
 40
1.0
 10
15.1715
 20
-23.7205
 30
0.0
 10
15.1715
 20
-23.7205
 30
0.0
 10
-6.9139
 20
-23.7205
 30
0.0
 10
-6.9139
 20
-23.7205
 30
0.0
  0
SPLINE
  5
5D
330
1F
100
AcDbEntity
  8
DEFAULT_1
  6
NEW_LINE1
 62
   250
100
AcDbSpline
210
0.0
220
0.0
230
1.0
 70
    24
 71
     3
 72
     8
 73
     4
 74
     0
 42
0.0000000001
 43
0.0000000001
 40
0.0
 40
0.0
 40
0.0
 40
0.0
 40
1.0
 40
1.0
 40
1.0
 40
1.0
 10
-7.4518
 20
-13.3304
 30
0.0
 10
-7.4518
 20
-13.3304
 30
0.0
 10
-7.4518
 20
20.266
 30
0.0
 10
-7.4518
 20
20.266
 30
0.0
  0
SPLINE
  5
5F
330
1F
100
AcDbEntity
  8
DEFAULT_1
  6
NEW_LINE2
 62
   250
100
AcDbSpline
210
0.0
220
0.0
230
1.0
 70
    24
 71
     3
 72
     8
 73
     4
 74
     0
 42
0.0000000001
 43
0.0000000001
 40
0.0
 40
0.0
 40
0.0
 40
0.0
 40
1.0
 40
1.0
 40
1.0
 40
1.0
 10
-7.7729
 20
0.9266
 30
0.0
 10
-7.7729
 20
0.9266
 30
0.0
 10
18.446
 20
0.9266
 30
0.0
 10
18.446
 20
0.9266
 30
0.0
  0
SPLINE
  5
61
330
1F
100
AcDbEntity
  8
DEFAULT_1
  6
NEW_LINE3
 62
   250
100
AcDbSpline
210
0.0
220
0.0
230
1.0
 70
    24
 71
     3
 72
     8
 73
     4
 74
     0
 42
0.0000000001
 43
0.0000000001
 40
0.0
 40
0.0
 40
0.0
 40
0.0
 40
1.0
 40
1.0
 40
1.0
 40
1.0
 10
17.0023
 20
1.298
 30
0.0
 10
17.0023
 20
1.298
 30
0.0
 10
17.0023
 20
-17.7121
 30
0.0
 10
17.0023
 20
-17.7121
 30
0.0
  0
SPLINE
  5
63
330
1F
100
AcDbEntity
  8
DEFAULT_1
 62
   250
100
AcDbSpline
210
0.0
220
0.0
230
1.0
 70
    24
 71
     3
 72
     8
 73
     4
 74
     0
 42
0.0000000001
 43
0.0000000001
 40
0.0
 40
0.0
 40
0.0
 40
0.0
 40
1.0
 40
1.0
 40
1.0
 40
1.0
 10
17.0107
 20
-20.2074
 30
0.0
 10
17.0107
 20
-20.2074
 30
0.0
 10
17.0107
 20
-24.7914
 30
0.0
 10
17.0107
 20
-24.7914
 30
0.0
  0
SPLINE
  5
64
330
1F
100
AcDbEntity
  8
DEFAULT_1
 62
   250
100
AcDbSpline
210
0.0
220
0.0
230
1.0
 70
    24
 71
     3
 72
     8
 73
     4
 74
     0
 42
0.0000000001
 43
0.0000000001
 40
0.0
 40
0.0
 40
0.0
 40
0.0
 40
1.0
 40
1.0
 40
1.0
 40
1.0
 10
-14.9111
 20
-12.0604
 30
0.0
 10
-14.9111
 20
-12.0604
 30
0.0
 10
0.0074
 20
-12.0604
 30
0.0
 10
0.0074
 20
-12.0604
 30
0.0
  0
SPLINE
  5
65
330
1F
100
AcDbEntity
  8
DEFAULT_1
 62
   250
100
AcDbSpline
210
0.0
220
0.0
230
1.0
 70
    24
 71
     3
 72
     8
 73
     4
 74
     0
 42
0.0000000001
 43
0.0000000001
 40
0.0
 40
0.0
 40
0.0
 40
0.0
 40
1.0
 40
1.0
 40
1.0
 40
1.0
 10
-15.431
 20
-8.5583
 30
0.0
 10
-15.431
 20
-8.5583
 30
0.0
 10
0.4739
 20
-8.355
 30
0.0
 10
0.4739
 20
-8.355
 30
0.0
  0
SPLINE
  5
66
330
1F
100
AcDbEntity
  8
DEFAULT_1
 62
   250
100
AcDbSpline
210
0.0
220
0.0
230
1.0
 70
    24
 71
     3
 72
     8
 73
     4
 74
     0
 42
0.0000000001
 43
0.0000000001
 40
0.0
 40
0.0
 40
0.0
 40
0.0
 40
1.0
 40
1.0
 40
1.0
 40
1.0
 10
-15.4577
 20
-9.6315
 30
0.0
 10
-15.4577
 20
-9.6315
 30
0.0
 10
0.4472
 20
-9.4282
 30
0.0
 10
0.4472
 20
-9.4282
 30
0.0
  0
SPLINE
  5
67
330
1F
100
AcDbEntity
  8
DEFAULT_1
 62
   250
100
AcDbSpline
210
0.0
220
0.0
230
1.0
 70
    24
 71
     3
 72
     8
 73
     4
 74
     0
 42
0.0000000001
 43
0.0000000001
 40
0.0
 40
0.0
 40
0.0
 40
0.0
 40
1.0
 40
1.0
 40
1.0
 40
1.0
 10
-15.4579
 20
-10.7714
 30
0.0
 10
-15.4579
 20
-10.7714
 30
0.0
 10
0.447
 20
-10.568
 30
0.0
 10
0.447
 20
-10.568
 30
0.0
  0
SPLINE
  5
68
330
1F
100
AcDbEntity
  8
DEFAULT_1
 62
   250
100
AcDbSpline
210
0.0
220
0.0
230
1.0
 70
    24
 71
     3
 72
     8
 73
     4
 74
     0
 42
0.0000000001
 43
0.0000000001
 40
0.0
 40
0.0
 40
0.0
 40
0.0
 40
1.0
 40
1.0
 40
1.0
 40
1.0
 10
-15.4042
 20
-11.6707
 30
0.0
 10
-15.4042
 20
-11.6707
 30
0.0
 10
0.5007
 20
-11.4674
 30
0.0
 10
0.5007
 20
-11.4674
 30
0.0
  0
SPLINE
  5
69
330
1F
100
AcDbEntity
  8
DEFAULT_1
 62
   250
100
AcDbSpline
210
0.0
220
0.0
230
1.0
 70
     8
 71
     3
 72
   268
 73
   264
 74
     0
 42
0.0000000001
 43
0.0000000001
 40
0.0
 40
0.0
 40
0.0
 40
0.0
 40
0.0149253731343284
 40
0.0149253731343284
 40
0.0149253731343284
 40
0.0149253731343284
 40
0.0298507462686567
 40
0.0298507462686567
 40
0.0298507462686567
 40
0.0298507462686567
 40
0.0447761194029851
 40
0.0447761194029851
 40
0.0447761194029851
 40
0.0447761194029851
 40
0.0597014925373134
 40
0.0597014925373134
 40
0.0597014925373134
 40
0.0597014925373134
 40
0.0746268656716418
 40
0.0746268656716418
 40
0.0746268656716418
 40
0.0746268656716418
 40
0.0895522388059701
 40
0.0895522388059701
 40
0.0895522388059701
 40
0.0895522388059701
 40
0.1044776119402985
 40
0.1044776119402985
 40
0.1044776119402985
 40
0.1044776119402985
 40
0.1194029850746269
 40
0.1194029850746269
 40
0.1194029850746269
 40
0.1194029850746269
 40
0.1343283582089552
 40
0.1343283582089552
 40
0.1343283582089552
 40
0.1343283582089552
 40
0.1492537313432836
 40
0.1492537313432836
 40
0.1492537313432836
 40
0.1492537313432836
 40
0.1641791044776119
 40
0.1641791044776119
 40
0.1641791044776119
 40
0.1641791044776119
 40
0.1791044776119403
 40
0.1791044776119403
 40
0.1791044776119403
 40
0.1791044776119403
 40
0.1940298507462687
 40
0.1940298507462687
 40
0.1940298507462687
 40
0.1940298507462687
 40
0.208955223880597
 40
0.208955223880597
 40
0.208955223880597
 40
0.208955223880597
 40
0.2238805970149254
 40
0.2238805970149254
 40
0.2238805970149254
 40
0.2238805970149254
 40
0.2388059701492537
 40
0.2388059701492537
 40
0.2388059701492537
 40
0.2388059701492537
 40
0.2537313432835821
 40
0.2537313432835821
 40
0.2537313432835821
 40
0.2537313432835821
 40
0.2686567164179104
 40
0.2686567164179104
 40
0.2686567164179104
 40
0.2686567164179104
 40
0.2835820895522388
 40
0.2835820895522388
 40
0.2835820895522388
 40
0.2835820895522388
 40
0.2985074626865671
 40
0.2985074626865671
 40
0.2985074626865671
 40
0.2985074626865671
 40
0.3134328358208955
 40
0.3134328358208955
 40
0.3134328358208955
 40
0.3134328358208955
 40
0.3283582089552239
 40
0.3283582089552239
 40
0.3283582089552239
 40
0.3283582089552239
 40
0.3432835820895522
 40
0.3432835820895522
 40
0.3432835820895522
 40
0.3432835820895522
 40
0.3582089552238806
 40
0.3582089552238806
 40
0.3582089552238806
 40
0.3582089552238806
 40
0.373134328358209
 40
0.373134328358209
 40
0.373134328358209
 40
0.373134328358209
 40
0.3880597014925373
 40
0.3880597014925373
 40
0.3880597014925373
 40
0.3880597014925373
 40
0.4029850746268657
 40
0.4029850746268657
 40
0.4029850746268657
 40
0.4029850746268657
 40
0.417910447761194
 40
0.417910447761194
 40
0.417910447761194
 40
0.417910447761194
 40
0.4328358208955224
 40
0.4328358208955224
 40
0.4328358208955224
 40
0.4328358208955224
 40
0.4477611940298508
 40
0.4477611940298508
 40
0.4477611940298508
 40
0.4477611940298508
 40
0.4626865671641791
 40
0.4626865671641791
 40
0.4626865671641791
 40
0.4626865671641791
 40
0.4776119402985075
 40
0.4776119402985075
 40
0.4776119402985075
 40
0.4776119402985075
 40
0.4925373134328358
 40
0.4925373134328358
 40
0.4925373134328358
 40
0.4925373134328358
 40
0.5074626865671642
 40
0.5074626865671642
 40
0.5074626865671642
 40
0.5074626865671642
 40
0.5223880597014925
 40
0.5223880597014925
 40
0.5223880597014925
 40
0.5223880597014925
 40
0.5373134328358209
 40
0.5373134328358209
 40
0.5373134328358209
 40
0.5373134328358209
 40
0.5522388059701493
 40
0.5522388059701493
 40
0.5522388059701493
 40
0.5522388059701493
 40
0.5671641791044776
 40
0.5671641791044776
 40
0.5671641791044776
 40
0.5671641791044776
 40
0.582089552238806
 40
0.582089552238806
 40
0.582089552238806
 40
0.582089552238806
 40
0.5970149253731343
 40
0.5970149253731343
 40
0.5970149253731343
 40
0.5970149253731343
 40
0.6119402985074627
 40
0.6119402985074627
 40
0.6119402985074627
 40
0.6119402985074627
 40
0.6268656716417911
 40
0.6268656716417911
 40
0.6268656716417911
 40
0.6268656716417911
 40
0.6417910447761194
 40
0.6417910447761194
 40
0.6417910447761194
 40
0.6417910447761194
 40
0.6567164179104478
 40
0.6567164179104478
 40
0.6567164179104478
 40
0.6567164179104478
 40
0.6716417910447762
 40
0.6716417910447762
 40
0.6716417910447762
 40
0.6716417910447762
 40
0.6865671641791045
 40
0.6865671641791045
 40
0.6865671641791045
 40
0.6865671641791045
 40
0.7014925373134329
 40
0.7014925373134329
 40
0.7014925373134329
 40
0.7014925373134329
 40
0.7164179104477612
 40
0.7164179104477612
 40
0.7164179104477612
 40
0.7164179104477612
 40
0.7313432835820896
 40
0.7313432835820896
 40
0.7313432835820896
 40
0.7313432835820896
 40
0.746268656716418
 40
0.746268656716418
 40
0.746268656716418
 40
0.746268656716418
 40
0.7611940298507462
 40
0.7611940298507462
 40
0.7611940298507462
 40
0.7611940298507462
 40
0.7761194029850746
 40
0.7761194029850746
 40
0.7761194029850746
 40
0.7761194029850746
 40
0.7910447761194029
 40
0.7910447761194029
 40
0.7910447761194029
 40
0.7910447761194029
 40
0.8059701492537313
 40
0.8059701492537313
 40
0.8059701492537313
 40
0.8059701492537313
 40
0.8208955223880597
 40
0.8208955223880597
 40
0.8208955223880597
 40
0.8208955223880597
 40
0.835820895522388
 40
0.835820895522388
 40
0.835820895522388
 40
0.835820895522388
 40
0.8507462686567164
 40
0.8507462686567164
 40
0.8507462686567164
 40
0.8507462686567164
 40
0.8656716417910447
 40
0.8656716417910447
 40
0.8656716417910447
 40
0.8656716417910447
 40
0.8805970149253731
 40
0.8805970149253731
 40
0.8805970149253731
 40
0.8805970149253731
 40
0.8955223880597015
 40
0.8955223880597015
 40
0.8955223880597015
 40
0.8955223880597015
 40
0.9104477611940298
 40
0.9104477611940298
 40
0.9104477611940298
 40
0.9104477611940298
 40
0.9253731343283582
 40
0.9253731343283582
 40
0.9253731343283582
 40
0.9253731343283582
 40
0.9402985074626866
 40
0.9402985074626866
 40
0.9402985074626866
 40
0.9402985074626866
 40
0.9552238805970149
 40
0.9552238805970149
 40
0.9552238805970149
 40
0.9552238805970149
 40
0.9701492537313433
 40
0.9701492537313433
 40
0.9701492537313433
 40
0.9701492537313433
 40
1.0
 40
1.0
 40
1.0
 40
1.0
 10
-14.1048
 20
12.6247
 30
0.0
 10
-14.1048
 20
12.6247
 30
0.0
 10
-14.0604
 20
-4.4372
 30
0.0
 10
-14.0604
 20
-4.4372
 30
0.0
 10
-14.0604
 20
-4.4372
 30
0.0
 10
-14.0604
 20
-4.4372
 30
0.0
 10
-14.8497
 20
-4.5745
 30
0.0
 10
-14.8497
 20
-4.5745
 30
0.0
 10
-14.8497
 20
-4.5745
 30
0.0
 10
-14.8497
 20
-4.5745
 30
0.0
 10
-14.8729
 20
-7.7152
 30
0.0
 10
-14.8729
 20
-7.7152
 30
0.0
 10
-14.8729
 20
-7.7152
 30
0.0
 10
-14.8729
 20
-7.7152
 30
0.0
 10
-15.3915
 20
-8.0096
 30
0.0
 10
-15.3915
 20
-8.0096
 30
0.0
 10
-15.3915
 20
-8.0096
 30
0.0
 10
-15.3915
 20
-8.0096
 30
0.0
 10
-15.3915
 20
-11.8081
 30
0.0
 10
-15.3915
 20
-11.8081
 30
0.0
 10
-15.3915
 20
-11.8081
 30
0.0
 10
-15.3915
 20
-11.8081
 30
0.0
 10
-14.9149
 20
-12.0745
 30
0.0
 10
-14.9149
 20
-12.0745
 30
0.0
 10
-14.9149
 20
-12.0745
 30
0.0
 10
-14.9149
 20
-12.0745
 30
0.0
 10
-14.9111
 20
-12.3935
 30
0.0
 10
-14.9111
 20
-12.3935
 30
0.0
 10
-14.9111
 20
-12.3935
 30
0.0
 10
-14.9111
 20
-12.3935
 30
0.0
 10
0.0074
 20
-12.3935
 30
0.0
 10
0.0074
 20
-12.3935
 30
0.0
 10
0.0074
 20
-12.3935
 30
0.0
 10
0.0074
 20
-12.3935
 30
0.0
 10
-0.0207
 20
-12.087
 30
0.0
 10
-0.0207
 20
-12.087
 30
0.0
 10
-0.0207
 20
-12.087
 30
0.0
 10
-0.0207
 20
-12.087
 30
0.0
 10
0.4957
 20
-11.8067
 30
0.0
 10
0.4957
 20
-11.8067
 30
0.0
 10
0.4957
 20
-11.8067
 30
0.0
 10
0.4957
 20
-11.8067
 30
0.0
 10
0.5173
 20
-8.0336
 30
0.0
 10
0.5173
 20
-8.0336
 30
0.0
 10
0.5173
 20
-8.0336
 30
0.0
 10
0.5173
 20
-8.0336
 30
0.0
 10
-0.0207
 20
-7.7102
 30
0.0
 10
-0.0207
 20
-7.7102
 30
0.0
 10
-0.0207
 20
-7.7102
 30
0.0
 10
-0.0207
 20
-7.7102
 30
0.0
 10
-0.0207
 20
-4.627
 30
0.0
 10
-0.0207
 20
-4.627
 30
0.0
 10
-0.0207
 20
-4.627
 30
0.0
 10
-0.0207
 20
-4.627
 30
0.0
 10
-0.79
 20
-4.3881
 30
0.0
 10
-0.79
 20
-4.3881
 30
0.0
 10
-0.79
 20
-4.3881
 30
0.0
 10
-0.79
 20
-4.3881
 30
0.0
 10
-0.7918
 20
-3.9018
 30
0.0
 10
-0.7918
 20
-3.9018
 30
0.0
 10
-0.7918
 20
-3.9018
 30
0.0
 10
-0.7918
 20
-3.9018
 30
0.0
 10
-0.7958
 20
-3.8964
 30
0.0
 10
-0.7958
 20
-3.8964
 30
0.0
 10
-0.7958
 20
-3.8964
 30
0.0
 10
-0.7958
 20
-3.8964
 30
0.0
 10
-0.8079
 20
-3.8798
 30
0.0
 10
-0.8079
 20
-3.8798
 30
0.0
 10
-0.8079
 20
-3.8798
 30
0.0
 10
-0.8079
 20
-3.8798
 30
0.0
 10
-0.8278
 20
-3.8521
 30
0.0
 10
-0.8278
 20
-3.8521
 30
0.0
 10
-0.8278
 20
-3.8521
 30
0.0
 10
-0.8278
 20
-3.8521
 30
0.0
 10
-0.8552
 20
-3.8139
 30
0.0
 10
-0.8552
 20
-3.8139
 30
0.0
 10
-0.8552
 20
-3.8139
 30
0.0
 10
-0.8552
 20
-3.8139
 30
0.0
 10
-0.8904
 20
-3.7651
 30
0.0
 10
-0.8904
 20
-3.7651
 30
0.0
 10
-0.8904
 20
-3.7651
 30
0.0
 10
-0.8904
 20
-3.7651
 30
0.0
 10
-0.9355
 20
-3.7017
 30
0.0
 10
-0.9355
 20
-3.7017
 30
0.0
 10
-0.9355
 20
-3.7017
 30
0.0
 10
-0.9355
 20
-3.7017
 30
0.0
 10
-0.9946
 20
-3.6181
 30
0.0
 10
-0.9946
 20
-3.6181
 30
0.0
 10
-0.9946
 20
-3.6181
 30
0.0
 10
-0.9946
 20
-3.6181
 30
0.0
 10
-1.07
 20
-3.5103
 30
0.0
 10
-1.07
 20
-3.5103
 30
0.0
 10
-1.07
 20
-3.5103
 30
0.0
 10
-1.07
 20
-3.5103
 30
0.0
 10
-1.1612
 20
-3.3781
 30
0.0
 10
-1.1612
 20
-3.3781
 30
0.0
 10
-1.1612
 20
-3.3781
 30
0.0
 10
-1.1612
 20
-3.3781
 30
0.0
 10
-1.2688
 20
-3.2192
 30
0.0
 10
-1.2688
 20
-3.2192
 30
0.0
 10
-1.2688
 20
-3.2192
 30
0.0
 10
-1.2688
 20
-3.2192
 30
0.0
 10
-1.3943
 20
-3.0297
 30
0.0
 10
-1.3943
 20
-3.0297
 30
0.0
 10
-1.3943
 20
-3.0297
 30
0.0
 10
-1.3943
 20
-3.0297
 30
0.0
 10
-1.5343
 20
-2.8117
 30
0.0
 10
-1.5343
 20
-2.8117
 30
0.0
 10
-1.5343
 20
-2.8117
 30
0.0
 10
-1.5343
 20
-2.8117
 30
0.0
 10
-1.6843
 20
-2.5694
 30
0.0
 10
-1.6843
 20
-2.5694
 30
0.0
 10
-1.6843
 20
-2.5694
 30
0.0
 10
-1.6843
 20
-2.5694
 30
0.0
 10
-1.8414
 20
-2.3039
 30
0.0
 10
-1.8414
 20
-2.3039
 30
0.0
 10
-1.8414
 20
-2.3039
 30
0.0
 10
-1.8414
 20
-2.3039
 30
0.0
 10
-2.0019
 20
-2.0163
 30
0.0
 10
-2.0019
 20
-2.0163
 30
0.0
 10
-2.0019
 20
-2.0163
 30
0.0
 10
-2.0019
 20
-2.0163
 30
0.0
 10
-2.1583
 20
-1.7154
 30
0.0
 10
-2.1583
 20
-1.7154
 30
0.0
 10
-2.1583
 20
-1.7154
 30
0.0
 10
-2.1583
 20
-1.7154
 30
0.0
 10
-2.3043
 20
-1.4093
 30
0.0
 10
-2.3043
 20
-1.4093
 30
0.0
 10
-2.3043
 20
-1.4093
 30
0.0
 10
-2.3043
 20
-1.4093
 30
0.0
 10
-2.4362
 20
-1.1019
 30
0.0
 10
-2.4362
 20
-1.1019
 30
0.0
 10
-2.4362
 20
-1.1019
 30
0.0
 10
-2.4362
 20
-1.1019
 30
0.0
 10
-2.5518
 20
-0.7967
 30
0.0
 10
-2.5518
 20
-0.7967
 30
0.0
 10
-2.5518
 20
-0.7967
 30
0.0
 10
-2.5518
 20
-0.7967
 30
0.0
 10
-2.6491
 20
-0.4962
 30
0.0
 10
-2.6491
 20
-0.4962
 30
0.0
 10
-2.6491
 20
-0.4962
 30
0.0
 10
-2.6491
 20
-0.4962
 30
0.0
 10
-2.7282
 20
-0.2009
 30
0.0
 10
-2.7282
 20
-0.2009
 30
0.0
 10
-2.7282
 20
-0.2009
 30
0.0
 10
-2.7282
 20
-0.2009
 30
0.0
 10
-2.7888
 20
0.0886
 30
0.0
 10
-2.7888
 20
0.0886
 30
0.0
 10
-2.7888
 20
0.0886
 30
0.0
 10
-2.7888
 20
0.0886
 30
0.0
 10
-2.8314
 20
0.373
 30
0.0
 10
-2.8314
 20
0.373
 30
0.0
 10
-2.8314
 20
0.373
 30
0.0
 10
-2.8314
 20
0.373
 30
0.0
 10
-2.8566
 20
0.6523
 30
0.0
 10
-2.8566
 20
0.6523
 30
0.0
 10
-2.8566
 20
0.6523
 30
0.0
 10
-2.8566
 20
0.6523
 30
0.0
 10
-2.8648
 20
0.9266
 30
0.0
 10
-2.8648
 20
0.9266
 30
0.0
 10
-2.8648
 20
0.9266
 30
0.0
 10
-2.8648
 20
0.9266
 30
0.0
 10
-2.8566
 20
1.2008
 30
0.0
 10
-2.8566
 20
1.2008
 30
0.0
 10
-2.8566
 20
1.2008
 30
0.0
 10
-2.8566
 20
1.2008
 30
0.0
 10
-2.8314
 20
1.4803
 30
0.0
 10
-2.8314
 20
1.4803
 30
0.0
 10
-2.8314
 20
1.4803
 30
0.0
 10
-2.8314
 20
1.4803
 30
0.0
 10
-2.7888
 20
1.7647
 30
0.0
 10
-2.7888
 20
1.7647
 30
0.0
 10
-2.7888
 20
1.7647
 30
0.0
 10
-2.7888
 20
1.7647
 30
0.0
 10
-2.7282
 20
2.0542
 30
0.0
 10
-2.7282
 20
2.0542
 30
0.0
 10
-2.7282
 20
2.0542
 30
0.0
 10
-2.7282
 20
2.0542
 30
0.0
 10
-2.6491
 20
2.3498
 30
0.0
 10
-2.6491
 20
2.3498
 30
0.0
 10
-2.6491
 20
2.3498
 30
0.0
 10
-2.6491
 20
2.3498
 30
0.0
 10
-2.5516
 20
2.6503
 30
0.0
 10
-2.5516
 20
2.6503
 30
0.0
 10
-2.5516
 20
2.6503
 30
0.0
 10
-2.5516
 20
2.6503
 30
0.0
 10
-2.4361
 20
2.9555
 30
0.0
 10
-2.4361
 20
2.9555
 30
0.0
 10
-2.4361
 20
2.9555
 30
0.0
 10
-2.4361
 20
2.9555
 30
0.0
 10
-2.304
 20
3.2629
 30
0.0
 10
-2.304
 20
3.2629
 30
0.0
 10
-2.304
 20
3.2629
 30
0.0
 10
-2.304
 20
3.2629
 30
0.0
 10
-2.158
 20
3.5691
 30
0.0
 10
-2.158
 20
3.5691
 30
0.0
 10
-2.158
 20
3.5691
 30
0.0
 10
-2.158
 20
3.5691
 30
0.0
 10
-2.0016
 20
3.8701
 30
0.0
 10
-2.0016
 20
3.8701
 30
0.0
 10
-2.0016
 20
3.8701
 30
0.0
 10
-2.0016
 20
3.8701
 30
0.0
 10
-1.8409
 20
4.1577
 30
0.0
 10
-1.8409
 20
4.1577
 30
0.0
 10
-1.8409
 20
4.1577
 30
0.0
 10
-1.8409
 20
4.1577
 30
0.0
 10
-1.684
 20
4.4232
 30
0.0
 10
-1.684
 20
4.4232
 30
0.0
 10
-1.684
 20
4.4232
 30
0.0
 10
-1.684
 20
4.4232
 30
0.0
 10
-1.534
 20
4.6655
 30
0.0
 10
-1.534
 20
4.6655
 30
0.0
 10
-1.534
 20
4.6655
 30
0.0
 10
-1.534
 20
4.6655
 30
0.0
 10
-1.3938
 20
4.8835
 30
0.0
 10
-1.3938
 20
4.8835
 30
0.0
 10
-1.3938
 20
4.8835
 30
0.0
 10
-1.3938
 20
4.8835
 30
0.0
 10
-1.2685
 20
5.073
 30
0.0
 10
-1.2685
 20
5.073
 30
0.0
 10
-1.2685
 20
5.073
 30
0.0
 10
-1.2685
 20
5.073
 30
0.0
 10
-1.1609
 20
5.2318
 30
0.0
 10
-1.1609
 20
5.2318
 30
0.0
 10
-1.1609
 20
5.2318
 30
0.0
 10
-1.1609
 20
5.2318
 30
0.0
 10
-1.0697
 20
5.3641
 30
0.0
 10
-1.0697
 20
5.3641
 30
0.0
 10
-1.0697
 20
5.3641
 30
0.0
 10
-1.0697
 20
5.3641
 30
0.0
 10
-0.9943
 20
5.4717
 30
0.0
 10
-0.9943
 20
5.4717
 30
0.0
 10
-0.9943
 20
5.4717
 30
0.0
 10
-0.9943
 20
5.4717
 30
0.0
 10
-0.9353
 20
5.5552
 30
0.0
 10
-0.9353
 20
5.5552
 30
0.0
 10
-0.9353
 20
5.5552
 30
0.0
 10
-0.9353
 20
5.5552
 30
0.0
 10
-0.8902
 20
5.6185
 30
0.0
 10
-0.8902
 20
5.6185
 30
0.0
 10
-0.8902
 20
5.6185
 30
0.0
 10
-0.8902
 20
5.6185
 30
0.0
 10
-0.8552
 20
5.6673
 30
0.0
 10
-0.8552
 20
5.6673
 30
0.0
 10
-0.8552
 20
5.6673
 30
0.0
 10
-0.8552
 20
5.6673
 30
0.0
 10
-0.8278
 20
5.7053
 30
0.0
 10
-0.8278
 20
5.7053
 30
0.0
 10
-0.8278
 20
5.7053
 30
0.0
 10
-0.8278
 20
5.7053
 30
0.0
 10
-0.8079
 20
5.7329
 30
0.0
 10
-0.8079
 20
5.7329
 30
0.0
 10
-0.8079
 20
5.7329
 30
0.0
 10
-0.8079
 20
5.7329
 30
0.0
 10
-0.7958
 20
5.7496
 30
0.0
 10
-0.7958
 20
5.7496
 30
0.0
 10
-0.7958
 20
5.7496
 30
0.0
 10
-0.7958
 20
5.7496
 30
0.0
 10
-0.7918
 20
5.7551
 30
0.0
 10
-0.7918
 20
5.7551
 30
0.0
 10
-0.7918
 20
5.7551
 30
0.0
 10
-0.7918
 20
5.7551
 30
0.0
 10
-0.7901
 20
12.5655
 30
0.0
 10
-0.7901
 20
12.5655
 30
0.0
  0
SPLINE
  5
6A
330
1F
100
AcDbEntity
  8
DEFAULT_1
 62
   250
100
AcDbSpline
210
0.0
220
0.0
230
1.0
 70
     8
 71
     3
 72
    12
 73
     8
 74
     0
 42
0.0000000001
 43
0.0000000001
 40
0.0
 40
0.0
 40
0.0
 40
0.0
 40
0.3333333333333333
 40
0.3333333333333333
 40
0.3333333333333333
 40
0.3333333333333333
 40
1.0
 40
1.0
 40
1.0
 40
1.0
 10
-0.7918
 20
5.7551
 30
0.0
 10
-0.7918
 20
5.7551
 30
0.0
 10
5.2021
 20
5.7551
 30
0.0
 10
5.2021
 20
5.7551
 30
0.0
 10
5.2021
 20
5.7551
 30
0.0
 10
5.2021
 20
5.7551
 30
0.0
 10
5.5264
 20
6.3915
 30
0.0
 10
5.5264
 20
6.3915
 30
0.0
  0
SPLINE
  5
6B
330
1F
100
AcDbEntity
  8
DEFAULT_1
 62
   250
100
AcDbSpline
210
0.0
220
0.0
230
1.0
 70
    24
 71
     3
 72
     8
 73
     4
 74
     0
 42
0.0000000001
 43
0.0000000001
 40
0.0
 40
0.0
 40
0.0
 40
0.0
 40
1.0
 40
1.0
 40
1.0
 40
1.0
 10
5.2141
 20
5.7933
 30
0.0
 10
5.2141
 20
5.7933
 30
0.0
 10
5.2141
 20
-3.8633
 30
0.0
 10
5.2141
 20
-3.8633
 30
0.0
  0
SPLINE
  5
6C
330
1F
100
AcDbEntity
  8
DEFAULT_1
 62
   250
100
AcDbSpline
210
0.0
220
0.0
230
1.0
 70
     8
 71
     3
 72
    12
 73
     8
 74
     0
 42
0.0000000001
 43
0.0000000001
 40
0.0
 40
0.0
 40
0.0
 40
0.0
 40
0.3333333333333333
 40
0.3333333333333333
 40
0.3333333333333333
 40
0.3333333333333333
 40
1.0
 40
1.0
 40
1.0
 40
1.0
 10
-0.7918
 20
-3.9018
 30
0.0
 10
-0.7918
 20
-3.9018
 30
0.0
 10
5.2021
 20
-3.9018
 30
0.0
 10
5.2021
 20
-3.9018
 30
0.0
 10
5.2021
 20
-3.9018
 30
0.0
 10
5.2021
 20
-3.9018
 30
0.0
 10
5.5537
 20
-4.5632
 30
0.0
 10
5.5537
 20
-4.5632
 30
0.0
  0
SPLINE
  5
6D
330
1F
100
AcDbEntity
  8
DEFAULT_1
 62
   250
100
AcDbSpline
210
0.0
220
0.0
230
1.0
 70
    24
 71
     3
 72
     8
 73
     4
 74
     0
 42
0.0000000001
 43
0.0000000001
 40
0.0
 40
0.0
 40
0.0
 40
0.0
 40
1.0
 40
1.0
 40
1.0
 40
1.0
 10
-0.7918
 20
-4.4014
 30
0.0
 10
-0.7918
 20
-4.4014
 30
0.0
 10
-14.1118
 20
-4.4014
 30
0.0
 10
-14.1118
 20
-4.4014
 30
0.0
  0
SPLINE
  5
6E
330
1F
100
AcDbEntity
  8
DEFAULT_1
 62
   250
100
AcDbSpline
210
0.0
220
0.0
230
1.0
 70
    24
 71
     3
 72
     8
 73
     4
 74
     0
 42
0.0000000001
 43
0.0000000001
 40
0.0
 40
0.0
 40
0.0
 40
0.0
 40
1.0
 40
1.0
 40
1.0
 40
1.0
 10
-14.8611
 20
-7.7315
 30
0.0
 10
-14.8611
 20
-7.7315
 30
0.0
 10
-0.0426
 20
-7.7315
 30
0.0
 10
-0.0426
 20
-7.7315
 30
0.0
  0
SPLINE
  5
6F
330
1F
100
AcDbEntity
  8
DEFAULT_1
 62
   250
100
AcDbSpline
210
0.0
220
0.0
230
1.0
 70
     8
 71
     3
 72
    16
 73
    12
 74
     0
 42
0.0000000001
 43
0.0000000001
 40
0.0
 40
0.0
 40
0.0
 40
0.0
 40
0.25
 40
0.25
 40
0.25
 40
0.25
 40
0.5
 40
0.5
 40
0.5
 40
0.5
 40
1.0
 40
1.0
 40
1.0
 40
1.0
 10
-16.6759
 20
14.3023
 30
0.0
 10
-16.6759
 20
14.3023
 30
0.0
 10
-16.5639
 20
18.3535
 30
0.0
 10
-16.5639
 20
18.3535
 30
0.0
 10
-16.5639
 20
18.3535
 30
0.0
 10
-16.5639
 20
18.3535
 30
0.0
 10
1.5865
 20
18.3535
 30
0.0
 10
1.5865
 20
18.3535
 30
0.0
 10
1.5865
 20
18.3535
 30
0.0
 10
1.5865
 20
18.3535
 30
0.0
 10
1.6391
 20
14.3282
 30
0.0
 10
1.6391
 20
14.3282
 30
0.0
  0
SPLINE
  5
70
330
1F
100
AcDbEntity
  8
DEFAULT_1
 62
   250
100
AcDbSpline
210
0.0
220
0.0
230
1.0
 70
     8
 71
     3
 72
    96
 73
    92
 74
     0
 42
0.0000000001
 43
0.0000000001
 40
0.0
 40
0.0
 40
0.0
 40
0.0
 40
0.0416666666666667
 40
0.0416666666666667
 40
0.0416666666666667
 40
0.0416666666666667
 40
0.0833333333333333
 40
0.0833333333333333
 40
0.0833333333333333
 40
0.0833333333333333
 40
0.125
 40
0.125
 40
0.125
 40
0.125
 40
0.1666666666666667
 40
0.1666666666666667
 40
0.1666666666666667
 40
0.1666666666666667
 40
0.2083333333333333
 40
0.2083333333333333
 40
0.2083333333333333
 40
0.2083333333333333
 40
0.25
 40
0.25
 40
0.25
 40
0.25
 40
0.2916666666666667
 40
0.2916666666666667
 40
0.2916666666666667
 40
0.2916666666666667
 40
0.3333333333333333
 40
0.3333333333333333
 40
0.3333333333333333
 40
0.3333333333333333
 40
0.375
 40
0.375
 40
0.375
 40
0.375
 40
0.4166666666666667
 40
0.4166666666666667
 40
0.4166666666666667
 40
0.4166666666666667
 40
0.4583333333333333
 40
0.4583333333333333
 40
0.4583333333333333
 40
0.4583333333333333
 40
0.5
 40
0.5
 40
0.5
 40
0.5
 40
0.5416666666666666
 40
0.5416666666666666
 40
0.5416666666666666
 40
0.5416666666666666
 40
0.5833333333333334
 40
0.5833333333333334
 40
0.5833333333333334
 40
0.5833333333333334
 40
0.625
 40
0.625
 40
0.625
 40
0.625
 40
0.6666666666666666
 40
0.6666666666666666
 40
0.6666666666666666
 40
0.6666666666666666
 40
0.7083333333333334
 40
0.7083333333333334
 40
0.7083333333333334
 40
0.7083333333333334
 40
0.75
 40
0.75
 40
0.75
 40
0.75
 40
0.7916666666666666
 40
0.7916666666666666
 40
0.7916666666666666
 40
0.7916666666666666
 40
0.8333333333333334
 40
0.8333333333333334
 40
0.8333333333333334
 40
0.8333333333333334
 40
0.875
 40
0.875
 40
0.875
 40
0.875
 40
0.9166666666666666
 40
0.9166666666666666
 40
0.9166666666666666
 40
0.9166666666666666
 40
1.0
 40
1.0
 40
1.0
 40
1.0
 10
-16.4947
 20
17.4107
 30
0.0
 10
-16.4947
 20
17.4107
 30
0.0
 10
-14.4025
 20
17.3847
 30
0.0
 10
-14.4025
 20
17.3847
 30
0.0
 10
-14.4025
 20
17.3847
 30
0.0
 10
-14.4025
 20
17.3847
 30
0.0
 10
-14.4025
 20
15.0599
 30
0.0
 10
-14.4025
 20
15.0599
 30
0.0
 10
-14.4025
 20
15.0599
 30
0.0
 10
-14.4025
 20
15.0599
 30
0.0
 10
-14.351
 20
14.7985
 30
0.0
 10
-14.351
 20
14.7985
 30
0.0
 10
-14.351
 20
14.7985
 30
0.0
 10
-14.351
 20
14.7985
 30
0.0
 10
-14.2733
 20
14.5637
 30
0.0
 10
-14.2733
 20
14.5637
 30
0.0
 10
-14.2733
 20
14.5637
 30
0.0
 10
-14.2733
 20
14.5637
 30
0.0
 10
-13.9891
 20
14.3548
 30
0.0
 10
-13.9891
 20
14.3548
 30
0.0
 10
-13.9891
 20
14.3548
 30
0.0
 10
-13.9891
 20
14.3548
 30
0.0
 10
-13.6014
 20
14.3808
 30
0.0
 10
-13.6014
 20
14.3808
 30
0.0
 10
-13.6014
 20
14.3808
 30
0.0
 10
-13.6014
 20
14.3808
 30
0.0
 10
-13.4465
 20
14.5377
 30
0.0
 10
-13.4465
 20
14.5377
 30
0.0
 10
-13.4465
 20
14.5377
 30
0.0
 10
-13.4465
 20
14.5377
 30
0.0
 10
-13.3435
 20
14.877
 30
0.0
 10
-13.3435
 20
14.877
 30
0.0
 10
-13.3435
 20
14.877
 30
0.0
 10
-13.3435
 20
14.877
 30
0.0
 10
-13.3435
 20
17.3847
 30
0.0
 10
-13.3435
 20
17.3847
 30
0.0
 10
-13.3435
 20
17.3847
 30
0.0
 10
-13.3435
 20
17.3847
 30
0.0
 10
-8.1511
 20
17.3847
 30
0.0
 10
-8.1511
 20
17.3847
 30
0.0
 10
-8.1511
 20
17.3847
 30
0.0
 10
-8.1511
 20
17.3847
 30
0.0
 10
-8.1488
 20
15.0235
 30
0.0
 10
-8.1488
 20
15.0235
 30
0.0
 10
-8.1488
 20
15.0235
 30
0.0
 10
-8.1488
 20
14.6554
 30
0.0
 10
-7.8532
 20
14.3571
 30
0.0
 10
-7.489
 20
14.3571
 30
0.0
 10
-7.489
 20
14.3571
 30
0.0
 10
-7.1242
 20
14.3571
 30
0.0
 10
-6.8286
 20
14.6554
 30
0.0
 10
-6.8286
 20
15.0235
 30
0.0
 10
-6.8286
 20
15.0235
 30
0.0
 10
-6.8286
 20
15.0235
 30
0.0
 10
-6.8337
 20
17.3847
 30
0.0
 10
-6.8337
 20
17.3847
 30
0.0
 10
-6.8337
 20
17.3847
 30
0.0
 10
-6.8337
 20
17.3847
 30
0.0
 10
-1.5378
 20
17.3847
 30
0.0
 10
-1.5378
 20
17.3847
 30
0.0
 10
-1.5378
 20
17.3847
 30
0.0
 10
-1.5378
 20
17.3847
 30
0.0
 10
-1.5641
 20
14.877
 30
0.0
 10
-1.5641
 20
14.877
 30
0.0
 10
-1.5641
 20
14.877
 30
0.0
 10
-1.5641
 20
14.877
 30
0.0
 10
-1.4091
 20
14.5637
 30
0.0
 10
-1.4091
 20
14.5637
 30
0.0
 10
-1.4091
 20
14.5637
 30
0.0
 10
-1.4091
 20
14.5637
 30
0.0
 10
-1.1507
 20
14.3808
 30
0.0
 10
-1.1507
 20
14.3808
 30
0.0
 10
-1.1507
 20
14.3808
 30
0.0
 10
-1.1507
 20
14.3808
 30
0.0
 10
-0.8408
 20
14.3808
 30
0.0
 10
-0.8408
 20
14.3808
 30
0.0
 10
-0.8408
 20
14.3808
 30
0.0
 10
-0.8408
 20
14.3808
 30
0.0
 10
-0.6595
 20
14.6681
 30
0.0
 10
-0.6595
 20
14.6681
 30
0.0
 10
-0.6595
 20
14.6681
 30
0.0
 10
-0.6595
 20
14.6681
 30
0.0
 10
-0.608
 20
15.0074
 30
0.0
 10
-0.608
 20
15.0074
 30
0.0
 10
-0.608
 20
15.0074
 30
0.0
 10
-0.608
 20
15.0074
 30
0.0
 10
-0.608
 20
17.4107
 30
0.0
 10
-0.608
 20
17.4107
 30
0.0
 10
-0.608
 20
17.4107
 30
0.0
 10
-0.608
 20
17.4107
 30
0.0
 10
1.5099
 20
17.3847
 30
0.0
 10
1.5099
 20
17.3847
 30
0.0
  0
SPLINE
  5
71
330
1F
100
AcDbEntity
  8
DEFAULT_1
 62
   250
100
AcDbSpline
210
0.0
220
0.0
230
1.0
 70
     8
 71
     3
 72
    32
 73
    28
 74
     0
 42
0.0000000001
 43
0.0000000001
 40
0.0
 40
0.0
 40
0.0
 40
0.0
 40
0.125
 40
0.125
 40
0.125
 40
0.125
 40
0.25
 40
0.25
 40
0.25
 40
0.25
 40
0.375
 40
0.375
 40
0.375
 40
0.375
 40
0.5
 40
0.5
 40
0.5
 40
0.5
 40
0.625
 40
0.625
 40
0.625
 40
0.625
 40
0.75
 40
0.75
 40
0.75
 40
0.75
 40
1.0
 40
1.0
 40
1.0
 40
1.0
 10
-16.3312
 20
17.4776
 30
0.0
 10
-16.3312
 20
17.4776
 30
0.0
 10
-16.3992
 20
13.3583
 30
0.0
 10
-16.3992
 20
13.3583
 30
0.0
 10
-16.3992
 20
13.3583
 30
0.0
 10
-16.3992
 20
12.9901
 30
0.0
 10
-16.1036
 20
12.6918
 30
0.0
 10
-15.7388
 20
12.6918
 30
0.0
 10
-15.7388
 20
12.6918
 30
0.0
 10
-15.7388
 20
12.6918
 30
0.0
 10
0.6945
 20
12.6953
 30
0.0
 10
0.6945
 20
12.6953
 30
0.0
 10
0.6945
 20
12.6953
 30
0.0
 10
0.6945
 20
12.6953
 30
0.0
 10
1.1394
 20
12.8078
 30
0.0
 10
1.1394
 20
12.8078
 30
0.0
 10
1.1394
 20
12.8078
 30
0.0
 10
1.1394
 20
12.8078
 30
0.0
 10
1.3343
 20
13.1454
 30
0.0
 10
1.3343
 20
13.1454
 30
0.0
 10
1.3343
 20
13.1454
 30
0.0
 10
1.3343
 20
13.1454
 30
0.0
 10
1.4178
 20
13.652
 30
0.0
 10
1.4178
 20
13.652
 30
0.0
 10
1.4178
 20
13.652
 30
0.0
 10
1.4178
 20
13.652
 30
0.0
 10
1.3898
 20
17.4493
 30
0.0
 10
1.3898
 20
17.4493
 30
0.0
  0
SPLINE
  5
72
330
1F
100
AcDbEntity
  8
DEFAULT_1
 62
   250
100
AcDbSpline
210
0.0
220
0.0
230
1.0
 70
    11
 71
     3
 72
    24
 73
    20
 74
     0
 42
0.0000000001
 43
0.0000000001
 40
0.0
 40
0.0
 40
0.0
 40
0.0
 40
0.1666666666666667
 40
0.1666666666666667
 40
0.1666666666666667
 40
0.1666666666666667
 40
0.3333333333333333
 40
0.3333333333333333
 40
0.3333333333333333
 40
0.3333333333333333
 40
0.5
 40
0.5
 40
0.5
 40
0.5
 40
0.6666666666666666
 40
0.6666666666666666
 40
0.6666666666666666
 40
0.6666666666666666
 40
1.0
 40
1.0
 40
1.0
 40
1.0
 10
13.923
 20
-16.9474
 30
0.0
 10
13.923
 20
-16.9474
 30
0.0
 10
13.9201
 20
-16.4463
 30
0.0
 10
13.9201
 20
-16.4463
 30
0.0
 10
13.9201
 20
-16.4463
 30
0.0
 10
13.9201
 20
-16.4463
 30
0.0
 10
19.9223
 20
-16.426
 30
0.0
 10
19.9223
 20
-16.426
 30
0.0
 10
19.9223
 20
-16.426
 30
0.0
 10
19.9223
 20
-16.426
 30
0.0
 10
20.1775
 20
-16.4251
 30
0.0
 10
20.1775
 20
-16.4251
 30
0.0
 10
20.1775
 20
-16.4251
 30
0.0
 10
20.1775
 20
-16.4251
 30
0.0
 10
20.1836
 20
-16.9474
 30
0.0
 10
20.1836
 20
-16.9474
 30
0.0
 10
20.1836
 20
-16.9474
 30
0.0
 10
20.1836
 20
-16.9474
 30
0.0
 10
13.923
 20
-16.9474
 30
0.0
 10
13.923
 20
-16.9474
 30
0.0
  0
SPLINE
  5
73
330
1F
100
AcDbEntity
  8
DEFAULT_1
 62
   250
100
AcDbSpline
210
0.0
220
0.0
230
1.0
 70
    11
 71
     3
 72
   140
 73
   136
 74
     0
 42
0.0000000001
 43
0.0000000001
 40
0.0
 40
0.0
 40
0.0
 40
0.0
 40
0.0285714285714286
 40
0.0285714285714286
 40
0.0285714285714286
 40
0.0285714285714286
 40
0.0571428571428571
 40
0.0571428571428571
 40
0.0571428571428571
 40
0.0571428571428571
 40
0.0857142857142857
 40
0.0857142857142857
 40
0.0857142857142857
 40
0.0857142857142857
 40
0.1142857142857143
 40
0.1142857142857143
 40
0.1142857142857143
 40
0.1142857142857143
 40
0.1428571428571428
 40
0.1428571428571428
 40
0.1428571428571428
 40
0.1428571428571428
 40
0.1714285714285714
 40
0.1714285714285714
 40
0.1714285714285714
 40
0.1714285714285714
 40
0.2
 40
0.2
 40
0.2
 40
0.2
 40
0.2285714285714286
 40
0.2285714285714286
 40
0.2285714285714286
 40
0.2285714285714286
 40
0.2571428571428571
 40
0.2571428571428571
 40
0.2571428571428571
 40
0.2571428571428571
 40
0.2857142857142857
 40
0.2857142857142857
 40
0.2857142857142857
 40
0.2857142857142857
 40
0.3142857142857143
 40
0.3142857142857143
 40
0.3142857142857143
 40
0.3142857142857143
 40
0.3428571428571429
 40
0.3428571428571429
 40
0.3428571428571429
 40
0.3428571428571429
 40
0.3714285714285714
 40
0.3714285714285714
 40
0.3714285714285714
 40
0.3714285714285714
 40
0.4
 40
0.4
 40
0.4
 40
0.4
 40
0.4285714285714285
 40
0.4285714285714285
 40
0.4285714285714285
 40
0.4285714285714285
 40
0.4571428571428571
 40
0.4571428571428571
 40
0.4571428571428571
 40
0.4571428571428571
 40
0.4857142857142857
 40
0.4857142857142857
 40
0.4857142857142857
 40
0.4857142857142857
 40
0.5142857142857142
 40
0.5142857142857142
 40
0.5142857142857142
 40
0.5142857142857142
 40
0.5428571428571428
 40
0.5428571428571428
 40
0.5428571428571428
 40
0.5428571428571428
 40
0.5714285714285714
 40
0.5714285714285714
 40
0.5714285714285714
 40
0.5714285714285714
 40
0.6
 40
0.6
 40
0.6
 40
0.6
 40
0.6285714285714286
 40
0.6285714285714286
 40
0.6285714285714286
 40
0.6285714285714286
 40
0.6571428571428571
 40
0.6571428571428571
 40
0.6571428571428571
 40
0.6571428571428571
 40
0.6857142857142857
 40
0.6857142857142857
 40
0.6857142857142857
 40
0.6857142857142857
 40
0.7142857142857143
 40
0.7142857142857143
 40
0.7142857142857143
 40
0.7142857142857143
 40
0.7428571428571429
 40
0.7428571428571429
 40
0.7428571428571429
 40
0.7428571428571429
 40
0.7714285714285715
 40
0.7714285714285715
 40
0.7714285714285715
 40
0.7714285714285715
 40
0.8
 40
0.8
 40
0.8
 40
0.8
 40
0.8285714285714286
 40
0.8285714285714286
 40
0.8285714285714286
 40
0.8285714285714286
 40
0.8571428571428571
 40
0.8571428571428571
 40
0.8571428571428571
 40
0.8571428571428571
 40
0.8857142857142857
 40
0.8857142857142857
 40
0.8857142857142857
 40
0.8857142857142857
 40
0.9142857142857143
 40
0.9142857142857143
 40
0.9142857142857143
 40
0.9142857142857143
 40
0.9428571428571428
 40
0.9428571428571428
 40
0.9428571428571428
 40
0.9428571428571428
 40
1.0
 40
1.0
 40
1.0
 40
1.0
 10
13.69
 20
-2.881
 30
0.0
 10
13.69
 20
-2.881
 30
0.0
 10
13.7207
 20
-2.8538
 30
0.0
 10
13.7207
 20
-2.8538
 30
0.0
 10
13.7207
 20
-2.8538
 30
0.0
 10
13.7207
 20
-2.8538
 30
0.0
 10
13.8143
 20
-2.7704
 30
0.0
 10
13.8143
 20
-2.7704
 30
0.0
 10
13.8143
 20
-2.7704
 30
0.0
 10
13.8143
 20
-2.7704
 30
0.0
 10
13.9628
 20
-2.6395
 30
0.0
 10
13.9628
 20
-2.6395
 30
0.0
 10
13.9628
 20
-2.6395
 30
0.0
 10
13.9628
 20
-2.6395
 30
0.0
 10
14.1532
 20
-2.4742
 30
0.0
 10
14.1532
 20
-2.4742
 30
0.0
 10
14.1532
 20
-2.4742
 30
0.0
 10
14.1532
 20
-2.4742
 30
0.0
 10
14.365
 20
-2.2942
 30
0.0
 10
14.365
 20
-2.2942
 30
0.0
 10
14.365
 20
-2.2942
 30
0.0
 10
14.365
 20
-2.2942
 30
0.0
 10
14.5803
 20
-2.1152
 30
0.0
 10
14.5803
 20
-2.1152
 30
0.0
 10
14.5803
 20
-2.1152
 30
0.0
 10
14.5803
 20
-2.1152
 30
0.0
 10
14.7886
 20
-1.9476
 30
0.0
 10
14.7886
 20
-1.9476
 30
0.0
 10
14.7886
 20
-1.9476
 30
0.0
 10
14.7886
 20
-1.9476
 30
0.0
 10
14.9856
 20
-1.7945
 30
0.0
 10
14.9856
 20
-1.7945
 30
0.0
 10
14.9856
 20
-1.7945
 30
0.0
 10
14.9856
 20
-1.7945
 30
0.0
 10
15.1694
 20
-1.6573
 30
0.0
 10
15.1694
 20
-1.6573
 30
0.0
 10
15.1694
 20
-1.6573
 30
0.0
 10
15.1694
 20
-1.6573
 30
0.0
 10
15.3408
 20
-1.5353
 30
0.0
 10
15.3408
 20
-1.5353
 30
0.0
 10
15.3408
 20
-1.5353
 30
0.0
 10
15.3408
 20
-1.5353
 30
0.0
 10
15.5019
 20
-1.4261
 30
0.0
 10
15.5019
 20
-1.4261
 30
0.0
 10
15.5019
 20
-1.4261
 30
0.0
 10
15.5019
 20
-1.4261
 30
0.0
 10
15.6548
 20
-1.3284
 30
0.0
 10
15.6548
 20
-1.3284
 30
0.0
 10
15.6548
 20
-1.3284
 30
0.0
 10
15.6548
 20
-1.3284
 30
0.0
 10
15.8033
 20
-1.24
 30
0.0
 10
15.8033
 20
-1.24
 30
0.0
 10
15.8033
 20
-1.24
 30
0.0
 10
15.8033
 20
-1.24
 30
0.0
 10
15.9508
 20
-1.1588
 30
0.0
 10
15.9508
 20
-1.1588
 30
0.0
 10
15.9508
 20
-1.1588
 30
0.0
 10
15.9508
 20
-1.1588
 30
0.0
 10
16.1019
 20
-1.0836
 30
0.0
 10
16.1019
 20
-1.0836
 30
0.0
 10
16.1019
 20
-1.0836
 30
0.0
 10
16.1019
 20
-1.0836
 30
0.0
 10
16.2586
 20
-1.015
 30
0.0
 10
16.2586
 20
-1.015
 30
0.0
 10
16.2586
 20
-1.015
 30
0.0
 10
16.2586
 20
-1.015
 30
0.0
 10
16.4207
 20
-0.9551
 30
0.0
 10
16.4207
 20
-0.9551
 30
0.0
 10
16.4207
 20
-0.9551
 30
0.0
 10
16.4207
 20
-0.9551
 30
0.0
 10
16.5872
 20
-0.9067
 30
0.0
 10
16.5872
 20
-0.9067
 30
0.0
 10
16.5872
 20
-0.9067
 30
0.0
 10
16.5872
 20
-0.9067
 30
0.0
 10
17.6298
 20
-0.669
 30
0.0
 10
17.6298
 20
-0.669
 30
0.0
 10
17.6298
 20
-0.669
 30
0.0
 10
17.6298
 20
-0.669
 30
0.0
 10
18.9176
 20
-0.2115
 30
0.0
 10
18.9176
 20
-0.2115
 30
0.0
 10
18.9176
 20
-0.2115
 30
0.0
 10
18.9176
 20
-0.2115
 30
0.0
 10
19.7038
 20
0.1807
 30
0.0
 10
19.7038
 20
0.1807
 30
0.0
 10
19.7038
 20
0.1807
 30
0.0
 10
19.7038
 20
0.1807
 30
0.0
 10
20.2419
 20
0.5506
 30
0.0
 10
20.2419
 20
0.5506
 30
0.0
 10
20.2419
 20
0.5506
 30
0.0
 10
20.2419
 20
0.5506
 30
0.0
 10
20.4168
 20
0.7518
 30
0.0
 10
20.4168
 20
0.7518
 30
0.0
 10
20.4168
 20
0.7518
 30
0.0
 10
20.4168
 20
0.7518
 30
0.0
 10
20.4631
 20
0.8049
 30
0.0
 10
20.4631
 20
0.8049
 30
0.0
 10
20.4631
 20
0.8049
 30
0.0
 10
20.4631
 20
0.8049
 30
0.0
 10
20.3414
 20
1.8492
 30
0.0
 10
20.3414
 20
1.8492
 30
0.0
 10
20.3414
 20
1.8492
 30
0.0
 10
20.3414
 20
1.8492
 30
0.0
 10
19.966
 20
2.8502
 30
0.0
 10
19.966
 20
2.8502
 30
0.0
 10
19.966
 20
2.8502
 30
0.0
 10
19.966
 20
2.8502
 30
0.0
 10
19.3863
 20
3.66
 30
0.0
 10
19.3863
 20
3.66
 30
0.0
 10
19.3863
 20
3.66
 30
0.0
 10
19.3863
 20
3.66
 30
0.0
 10
18.7513
 20
4.26
 30
0.0
 10
18.7513
 20
4.26
 30
0.0
 10
18.7513
 20
4.26
 30
0.0
 10
18.7513
 20
4.26
 30
0.0
 10
17.861
 20
4.7274
 30
0.0
 10
17.861
 20
4.7274
 30
0.0
 10
17.861
 20
4.7274
 30
0.0
 10
17.861
 20
4.7274
 30
0.0
 10
17.2799
 20
4.8633
 30
0.0
 10
17.2799
 20
4.8633
 30
0.0
 10
17.2799
 20
4.8633
 30
0.0
 10
17.2799
 20
4.8633
 30
0.0
 10
11.8857
 20
4.874
 30
0.0
 10
11.8857
 20
4.874
 30
0.0
 10
11.8857
 20
4.874
 30
0.0
 10
11.8857
 20
4.874
 30
0.0
 10
11.8865
 20
4.7452
 30
0.0
 10
11.8865
 20
4.7452
 30
0.0
 10
11.8865
 20
4.7452
 30
0.0
 10
11.8865
 20
4.7452
 30
0.0
 10
11.9437
 20
-2.9379
 30
0.0
 10
11.9437
 20
-2.9379
 30
0.0
 10
11.9437
 20
-2.9379
 30
0.0
 10
11.9437
 20
-2.9379
 30
0.0
 10
13.69
 20
-2.881
 30
0.0
 10
13.69
 20
-2.881
 30
0.0
  0
SPLINE
  5
74
330
1F
100
AcDbEntity
  8
DEFAULT_1
 62
   250
100
AcDbSpline
210
0.0
220
0.0
230
1.0
 70
    11
 71
     3
 72
    44
 73
    40
 74
     0
 42
0.0000000001
 43
0.0000000001
 40
0.0
 40
0.0
 40
0.0
 40
0.0
 40
0.0909090909090909
 40
0.0909090909090909
 40
0.0909090909090909
 40
0.0909090909090909
 40
0.1818181818181818
 40
0.1818181818181818
 40
0.1818181818181818
 40
0.1818181818181818
 40
0.2727272727272727
 40
0.2727272727272727
 40
0.2727272727272727
 40
0.2727272727272727
 40
0.3636363636363636
 40
0.3636363636363636
 40
0.3636363636363636
 40
0.3636363636363636
 40
0.4545454545454545
 40
0.4545454545454545
 40
0.4545454545454545
 40
0.4545454545454545
 40
0.5454545454545454
 40
0.5454545454545454
 40
0.5454545454545454
 40
0.5454545454545454
 40
0.6363636363636364
 40
0.6363636363636364
 40
0.6363636363636364
 40
0.6363636363636364
 40
0.7272727272727273
 40
0.7272727272727273
 40
0.7272727272727273
 40
0.7272727272727273
 40
0.8181818181818182
 40
0.8181818181818182
 40
0.8181818181818182
 40
0.8181818181818182
 40
1.0
 40
1.0
 40
1.0
 40
1.0
 10
13.3733
 20
-6.6095
 30
0.0
 10
13.3733
 20
-6.6095
 30
0.0
 10
13.7199
 20
-6.6096
 30
0.0
 10
13.7199
 20
-6.6096
 30
0.0
 10
13.7199
 20
-6.6096
 30
0.0
 10
13.7199
 20
-6.6096
 30
0.0
 10
13.2409
 20
-4.3189
 30
0.0
 10
13.2409
 20
-4.3189
 30
0.0
 10
13.2409
 20
-4.3189
 30
0.0
 10
13.2409
 20
-4.3189
 30
0.0
 10
13.7199
 20
-6.6096
 30
0.0
 10
13.7199
 20
-6.6096
 30
0.0
 10
13.7199
 20
-6.6096
 30
0.0
 10
13.7199
 20
-6.6096
 30
0.0
 10
20.3869
 20
-6.6096
 30
0.0
 10
20.3869
 20
-6.6096
 30
0.0
 10
20.3869
 20
-6.6096
 30
0.0
 10
20.3869
 20
-6.6096
 30
0.0
 10
20.8658
 20
-4.3188
 30
0.0
 10
20.8658
 20
-4.3188
 30
0.0
 10
20.8658
 20
-4.3188
 30
0.0
 10
20.8658
 20
-4.3188
 30
0.0
 10
20.3869
 20
-6.6096
 30
0.0
 10
20.3869
 20
-6.6096
 30
0.0
 10
20.3869
 20
-6.6096
 30
0.0
 10
20.3869
 20
-6.6096
 30
0.0
 10
20.7334
 20
-6.6095
 30
0.0
 10
20.7334
 20
-6.6095
 30
0.0
 10
20.7334
 20
-6.6095
 30
0.0
 10
20.7334
 20
-6.6095
 30
0.0
 10
20.3869
 20
-6.6096
 30
0.0
 10
20.3869
 20
-6.6096
 30
0.0
 10
20.3869
 20
-6.6096
 30
0.0
 10
20.3869
 20
-6.6096
 30
0.0
 10
13.7199
 20
-6.6096
 30
0.0
 10
13.7199
 20
-6.6096
 30
0.0
 10
13.7199
 20
-6.6096
 30
0.0
 10
13.7199
 20
-6.6096
 30
0.0
 10
13.3733
 20
-6.6095
 30
0.0
 10
13.3733
 20
-6.6095
 30
0.0
  0
SPLINE
  5
75
330
1F
100
AcDbEntity
  8
DEFAULT_1
 62
   250
100
AcDbSpline
210
0.0
220
0.0
230
1.0
 70
    11
 71
     3
 72
    16
 73
    12
 74
     0
 42
0.0000000001
 43
0.0000000001
 40
0.0
 40
0.0
 40
0.0
 40
0.0
 40
0.25
 40
0.25
 40
0.25
 40
0.25
 40
0.5
 40
0.5
 40
0.5
 40
0.5
 40
1.0
 40
1.0
 40
1.0
 40
1.0
 10
11.9251
 20
4.7452
 30
0.0
 10
11.9251
 20
4.7452
 30
0.0
 10
11.8865
 20
4.7452
 30
0.0
 10
11.8865
 20
4.7452
 30
0.0
 10
11.8865
 20
4.7452
 30
0.0
 10
11.8865
 20
4.7452
 30
0.0
 10
11.259
 20
4.7451
 30
0.0
 10
11.259
 20
4.7451
 30
0.0
 10
11.259
 20
4.7451
 30
0.0
 10
11.259
 20
4.7451
 30
0.0
 10
11.9251
 20
4.7452
 30
0.0
 10
11.9251
 20
4.7452
 30
0.0
  0
SPLINE
  5
76
330
1F
100
AcDbEntity
  8
DEFAULT_1
 62
   250
100
AcDbSpline
210
0.0
220
0.0
230
1.0
 70
    11
 71
     3
 72
    28
 73
    24
 74
     0
 42
0.0000000001
 43
0.0000000001
 40
0.0
 40
0.0
 40
0.0
 40
0.0
 40
0.1428571428571428
 40
0.1428571428571428
 40
0.1428571428571428
 40
0.1428571428571428
 40
0.2857142857142857
 40
0.2857142857142857
 40
0.2857142857142857
 40
0.2857142857142857
 40
0.4285714285714285
 40
0.4285714285714285
 40
0.4285714285714285
 40
0.4285714285714285
 40
0.5714285714285714
 40
0.5714285714285714
 40
0.5714285714285714
 40
0.5714285714285714
 40
0.7142857142857143
 40
0.7142857142857143
 40
0.7142857142857143
 40
0.7142857142857143
 40
1.0
 40
1.0
 40
1.0
 40
1.0
 10
20.4169
 20
-4.2367
 30
0.0
 10
20.4169
 20
-4.2367
 30
0.0
 10
20.4168
 20
0.7518
 30
0.0
 10
20.4168
 20
0.7518
 30
0.0
 10
20.4168
 20
0.7518
 30
0.0
 10
20.4168
 20
0.7518
 30
0.0
 10
20.4168
 20
1.0168
 30
0.0
 10
20.4168
 20
1.0168
 30
0.0
 10
20.4168
 20
1.0168
 30
0.0
 10
20.4168
 20
1.0168
 30
0.0
 10
20.4168
 20
0.7518
 30
0.0
 10
20.4168
 20
0.7518
 30
0.0
 10
20.4168
 20
0.7518
 30
0.0
 10
20.4168
 20
0.7518
 30
0.0
 10
20.4169
 20
-4.2367
 30
0.0
 10
20.4169
 20
-4.2367
 30
0.0
 10
20.4169
 20
-4.2367
 30
0.0
 10
20.4169
 20
-4.2367
 30
0.0
 10
20.8007
 20
-4.2367
 30
0.0
 10
20.8007
 20
-4.2367
 30
0.0
 10
20.8007
 20
-4.2367
 30
0.0
 10
20.8007
 20
-4.2367
 30
0.0
 10
20.4169
 20
-4.2367
 30
0.0
 10
20.4169
 20
-4.2367
 30
0.0
  0
SPLINE
  5
77
330
1F
100
AcDbEntity
  8
DEFAULT_1
 62
   250
100
AcDbSpline
210
0.0
220
0.0
230
1.0
 70
    27
 71
     3
 72
    12
 73
     8
 74
     0
 42
0.0000000001
 43
0.0000000001
 40
0.0
 40
0.0
 40
0.0
 40
0.0
 40
0.3333333333333333
 40
0.3333333333333333
 40
0.3333333333333333
 40
0.3333333333333333
 40
1.0
 40
1.0
 40
1.0
 40
1.0
 10
13.69
 20
-4.2368
 30
0.0
 10
13.69
 20
-4.2368
 30
0.0
 10
13.69
 20
-2.881
 30
0.0
 10
13.69
 20
-2.881
 30
0.0
 10
13.69
 20
-2.881
 30
0.0
 10
13.69
 20
-2.881
 30
0.0
 10
13.69
 20
-4.2368
 30
0.0
 10
13.69
 20
-4.2368
 30
0.0
  0
SPLINE
  5
78
330
1F
100
AcDbEntity
  8
DEFAULT_1
 62
   250
100
AcDbSpline
210
0.0
220
0.0
230
1.0
 70
    27
 71
     3
 72
    12
 73
     8
 74
     0
 42
0.0000000001
 43
0.0000000001
 40
0.0
 40
0.0
 40
0.0
 40
0.0
 40
0.3333333333333333
 40
0.3333333333333333
 40
0.3333333333333333
 40
0.3333333333333333
 40
1.0
 40
1.0
 40
1.0
 40
1.0
 10
11.925
 20
-2.7117
 30
0.0
 10
11.925
 20
-2.7117
 30
0.0
 10
11.259
 20
-2.7116
 30
0.0
 10
11.259
 20
-2.7116
 30
0.0
 10
11.259
 20
-2.7116
 30
0.0
 10
11.259
 20
-2.7116
 30
0.0
 10
11.925
 20
-2.7117
 30
0.0
 10
11.925
 20
-2.7117
 30
0.0
  0
SPLINE
  5
79
330
1F
100
AcDbEntity
  8
DEFAULT_1
 62
   250
100
AcDbSpline
210
0.0
220
0.0
230
1.0
 70
    11
 71
     3
 72
    68
 73
    64
 74
     0
 42
0.0000000001
 43
0.0000000001
 40
0.0
 40
0.0
 40
0.0
 40
0.0
 40
0.0588235294117647
 40
0.0588235294117647
 40
0.0588235294117647
 40
0.0588235294117647
 40
0.1176470588235294
 40
0.1176470588235294
 40
0.1176470588235294
 40
0.1176470588235294
 40
0.1764705882352941
 40
0.1764705882352941
 40
0.1764705882352941
 40
0.1764705882352941
 40
0.2352941176470588
 40
0.2352941176470588
 40
0.2352941176470588
 40
0.2352941176470588
 40
0.2941176470588235
 40
0.2941176470588235
 40
0.2941176470588235
 40
0.2941176470588235
 40
0.3529411764705883
 40
0.3529411764705883
 40
0.3529411764705883
 40
0.3529411764705883
 40
0.4117647058823529
 40
0.4117647058823529
 40
0.4117647058823529
 40
0.4117647058823529
 40
0.4705882352941176
 40
0.4705882352941176
 40
0.4705882352941176
 40
0.4705882352941176
 40
0.5294117647058824
 40
0.5294117647058824
 40
0.5294117647058824
 40
0.5294117647058824
 40
0.5882352941176471
 40
0.5882352941176471
 40
0.5882352941176471
 40
0.5882352941176471
 40
0.6470588235294118
 40
0.6470588235294118
 40
0.6470588235294118
 40
0.6470588235294118
 40
0.7058823529411765
 40
0.7058823529411765
 40
0.7058823529411765
 40
0.7058823529411765
 40
0.7647058823529411
 40
0.7647058823529411
 40
0.7647058823529411
 40
0.7647058823529411
 40
0.8235294117647058
 40
0.8235294117647058
 40
0.8235294117647058
 40
0.8235294117647058
 40
0.8823529411764706
 40
0.8823529411764706
 40
0.8823529411764706
 40
0.8823529411764706
 40
1.0
 40
1.0
 40
1.0
 40
1.0
 10
19.9215
 20
-16.4466
 30
0.0
 10
19.9215
 20
-16.4466
 30
0.0
 10
19.9223
 20
-16.426
 30
0.0
 10
19.9223
 20
-16.426
 30
0.0
 10
19.9223
 20
-16.426
 30
0.0
 10
19.9223
 20
-16.426
 30
0.0
 10
20.0171
 20
-13.7272
 30
0.0
 10
20.0171
 20
-13.7272
 30
0.0
 10
20.0171
 20
-13.7272
 30
0.0
 10
20.0171
 20
-13.7272
 30
0.0
 10
19.9706
 20
-13.7273
 30
0.0
 10
19.9706
 20
-13.7273
 30
0.0
 10
19.9706
 20
-13.7273
 30
0.0
 10
19.9706
 20
-13.7273
 30
0.0
 10
20.217
 20
-11.3547
 30
0.0
 10
20.217
 20
-11.3547
 30
0.0
 10
20.217
 20
-11.3547
 30
0.0
 10
20.217
 20
-11.3547
 30
0.0
 10
20.0537
 20
-11.3547
 30
0.0
 10
20.0537
 20
-11.3547
 30
0.0
 10
20.0537
 20
-11.3547
 30
0.0
 10
20.0537
 20
-11.3547
 30
0.0
 10
20.4666
 20
-8.9821
 30
0.0
 10
20.4666
 20
-8.9821
 30
0.0
 10
20.4666
 20
-8.9821
 30
0.0
 10
20.4666
 20
-8.9821
 30
0.0
 10
20.3003
 20
-8.9821
 30
0.0
 10
20.3003
 20
-8.9821
 30
0.0
 10
20.3003
 20
-8.9821
 30
0.0
 10
20.3003
 20
-8.9821
 30
0.0
 10
20.7985
 20
-6.6918
 30
0.0
 10
20.7985
 20
-6.6918
 30
0.0
 10
20.7985
 20
-6.6918
 30
0.0
 10
20.7985
 20
-6.6918
 30
0.0
 10
20.3003
 20
-8.9821
 30
0.0
 10
20.3003
 20
-8.9821
 30
0.0
 10
20.3003
 20
-8.9821
 30
0.0
 10
20.3003
 20
-8.9821
 30
0.0
 10
20.4666
 20
-8.9821
 30
0.0
 10
20.4666
 20
-8.9821
 30
0.0
 10
20.4666
 20
-8.9821
 30
0.0
 10
20.4666
 20
-8.9821
 30
0.0
 10
20.0537
 20
-11.3547
 30
0.0
 10
20.0537
 20
-11.3547
 30
0.0
 10
20.0537
 20
-11.3547
 30
0.0
 10
20.0537
 20
-11.3547
 30
0.0
 10
20.217
 20
-11.3547
 30
0.0
 10
20.217
 20
-11.3547
 30
0.0
 10
20.217
 20
-11.3547
 30
0.0
 10
20.217
 20
-11.3547
 30
0.0
 10
19.9706
 20
-13.7273
 30
0.0
 10
19.9706
 20
-13.7273
 30
0.0
 10
19.9706
 20
-13.7273
 30
0.0
 10
19.9706
 20
-13.7273
 30
0.0
 10
20.0171
 20
-13.7272
 30
0.0
 10
20.0171
 20
-13.7272
 30
0.0
 10
20.0171
 20
-13.7272
 30
0.0
 10
20.0171
 20
-13.7272
 30
0.0
 10
19.9223
 20
-16.426
 30
0.0
 10
19.9223
 20
-16.426
 30
0.0
 10
19.9223
 20
-16.426
 30
0.0
 10
19.9223
 20
-16.426
 30
0.0
 10
19.9215
 20
-16.4466
 30
0.0
 10
19.9215
 20
-16.4466
 30
0.0
  0
SPLINE
  5
7A
330
1F
100
AcDbEntity
  8
DEFAULT_1
 62
   250
100
AcDbSpline
210
0.0
220
0.0
230
1.0
 70
    27
 71
     3
 72
    12
 73
     8
 74
     0
 42
0.0000000001
 43
0.0000000001
 40
0.0
 40
0.0
 40
0.0
 40
0.0
 40
0.3333333333333333
 40
0.3333333333333333
 40
0.3333333333333333
 40
0.3333333333333333
 40
1.0
 40
1.0
 40
1.0
 40
1.0
 10
13.3059
 20
-4.237
 30
0.0
 10
13.3059
 20
-4.237
 30
0.0
 10
20.4169
 20
-4.2367
 30
0.0
 10
20.4169
 20
-4.2367
 30
0.0
 10
20.4169
 20
-4.2367
 30
0.0
 10
20.4169
 20
-4.2367
 30
0.0
 10
13.3059
 20
-4.237
 30
0.0
 10
13.3059
 20
-4.237
 30
0.0
  0
SPLINE
  5
7B
330
1F
100
AcDbEntity
  8
DEFAULT_1
 62
   250
100
AcDbSpline
210
0.0
220
0.0
230
1.0
 70
    11
 71
     3
 72
    20
 73
    16
 74
     0
 42
0.0000000001
 43
0.0000000001
 40
0.0
 40
0.0
 40
0.0
 40
0.0
 40
0.2
 40
0.2
 40
0.2
 40
0.2
 40
0.4
 40
0.4
 40
0.4
 40
0.4
 40
0.6
 40
0.6
 40
0.6
 40
0.6
 40
1.0
 40
1.0
 40
1.0
 40
1.0
 10
13.8064
 20
-8.9822
 30
0.0
 10
13.8064
 20
-8.9822
 30
0.0
 10
13.3082
 20
-6.6919
 30
0.0
 10
13.3082
 20
-6.6919
 30
0.0
 10
13.3082
 20
-6.6919
 30
0.0
 10
13.3082
 20
-6.6919
 30
0.0
 10
13.8064
 20
-8.9822
 30
0.0
 10
13.8064
 20
-8.9822
 30
0.0
 10
13.8064
 20
-8.9822
 30
0.0
 10
13.8064
 20
-8.9822
 30
0.0
 10
20.3003
 20
-8.9821
 30
0.0
 10
20.3003
 20
-8.9821
 30
0.0
 10
20.3003
 20
-8.9821
 30
0.0
 10
20.3003
 20
-8.9821
 30
0.0
 10
13.8064
 20
-8.9822
 30
0.0
 10
13.8064
 20
-8.9822
 30
0.0
  0
SPLINE
  5
7C
330
1F
100
AcDbEntity
  8
DEFAULT_1
 62
   250
100
AcDbSpline
210
0.0
220
0.0
230
1.0
 70
    11
 71
     3
 72
    20
 73
    16
 74
     0
 42
0.0000000001
 43
0.0000000001
 40
0.0
 40
0.0
 40
0.0
 40
0.0
 40
0.2
 40
0.2
 40
0.2
 40
0.2
 40
0.4
 40
0.4
 40
0.4
 40
0.4
 40
0.6
 40
0.6
 40
0.6
 40
0.6
 40
1.0
 40
1.0
 40
1.0
 40
1.0
 10
14.053
 20
-11.3546
 30
0.0
 10
14.053
 20
-11.3546
 30
0.0
 10
13.6398
 20
-8.9822
 30
0.0
 10
13.6398
 20
-8.9822
 30
0.0
 10
13.6398
 20
-8.9822
 30
0.0
 10
13.6398
 20
-8.9822
 30
0.0
 10
13.8064
 20
-8.9822
 30
0.0
 10
13.8064
 20
-8.9822
 30
0.0
 10
13.8064
 20
-8.9822
 30
0.0
 10
13.8064
 20
-8.9822
 30
0.0
 10
13.6398
 20
-8.9822
 30
0.0
 10
13.6398
 20
-8.9822
 30
0.0
 10
13.6398
 20
-8.9822
 30
0.0
 10
13.6398
 20
-8.9822
 30
0.0
 10
14.053
 20
-11.3546
 30
0.0
 10
14.053
 20
-11.3546
 30
0.0
  0
SPLINE
  5
7D
330
1F
100
AcDbEntity
  8
DEFAULT_1
 62
   250
100
AcDbSpline
210
0.0
220
0.0
230
1.0
 70
    11
 71
     3
 72
    20
 73
    16
 74
     0
 42
0.0000000001
 43
0.0000000001
 40
0.0
 40
0.0
 40
0.0
 40
0.0
 40
0.2
 40
0.2
 40
0.2
 40
0.2
 40
0.4
 40
0.4
 40
0.4
 40
0.4
 40
0.6
 40
0.6
 40
0.6
 40
0.6
 40
1.0
 40
1.0
 40
1.0
 40
1.0
 10
14.1362
 20
-13.7272
 30
0.0
 10
14.1362
 20
-13.7272
 30
0.0
 10
13.8897
 20
-11.3546
 30
0.0
 10
13.8897
 20
-11.3546
 30
0.0
 10
13.8897
 20
-11.3546
 30
0.0
 10
13.8897
 20
-11.3546
 30
0.0
 10
20.0537
 20
-11.3547
 30
0.0
 10
20.0537
 20
-11.3547
 30
0.0
 10
20.0537
 20
-11.3547
 30
0.0
 10
20.0537
 20
-11.3547
 30
0.0
 10
13.8897
 20
-11.3546
 30
0.0
 10
13.8897
 20
-11.3546
 30
0.0
 10
13.8897
 20
-11.3546
 30
0.0
 10
13.8897
 20
-11.3546
 30
0.0
 10
14.1362
 20
-13.7272
 30
0.0
 10
14.1362
 20
-13.7272
 30
0.0
  0
SPLINE
  5
7E
330
1F
100
AcDbEntity
  8
DEFAULT_1
 62
   250
100
AcDbSpline
210
0.0
220
0.0
230
1.0
 70
    11
 71
     3
 72
    20
 73
    16
 74
     0
 42
0.0000000001
 43
0.0000000001
 40
0.0
 40
0.0
 40
0.0
 40
0.0
 40
0.2
 40
0.2
 40
0.2
 40
0.2
 40
0.4
 40
0.4
 40
0.4
 40
0.4
 40
0.6
 40
0.6
 40
0.6
 40
0.6
 40
1.0
 40
1.0
 40
1.0
 40
1.0
 10
14.1824
 20
-16.3764
 30
0.0
 10
14.1824
 20
-16.3764
 30
0.0
 10
14.0894
 20
-13.7272
 30
0.0
 10
14.0894
 20
-13.7272
 30
0.0
 10
14.0894
 20
-13.7272
 30
0.0
 10
14.0894
 20
-13.7272
 30
0.0
 10
19.9706
 20
-13.7273
 30
0.0
 10
19.9706
 20
-13.7273
 30
0.0
 10
19.9706
 20
-13.7273
 30
0.0
 10
19.9706
 20
-13.7273
 30
0.0
 10
14.0894
 20
-13.7272
 30
0.0
 10
14.0894
 20
-13.7272
 30
0.0
 10
14.0894
 20
-13.7272
 30
0.0
 10
14.0894
 20
-13.7272
 30
0.0
 10
14.1824
 20
-16.3764
 30
0.0
 10
14.1824
 20
-16.3764
 30
0.0
  0
SPLINE
  5
7F
330
1F
100
AcDbEntity
  8
DEFAULT_1
 62
   250
100
AcDbSpline
210
0.0
220
0.0
230
1.0
 70
     8
 71
     3
 72
    48
 73
    44
 74
     0
 42
0.0000000001
 43
0.0000000001
 40
0.0
 40
0.0
 40
0.0
 40
0.0
 40
0.0833333333333333
 40
0.0833333333333333
 40
0.0833333333333333
 40
0.0833333333333333
 40
0.1666666666666667
 40
0.1666666666666667
 40
0.1666666666666667
 40
0.1666666666666667
 40
0.25
 40
0.25
 40
0.25
 40
0.25
 40
0.3333333333333333
 40
0.3333333333333333
 40
0.3333333333333333
 40
0.3333333333333333
 40
0.4166666666666667
 40
0.4166666666666667
 40
0.4166666666666667
 40
0.4166666666666667
 40
0.5
 40
0.5
 40
0.5
 40
0.5
 40
0.5833333333333334
 40
0.5833333333333334
 40
0.5833333333333334
 40
0.5833333333333334
 40
0.6666666666666666
 40
0.6666666666666666
 40
0.6666666666666666
 40
0.6666666666666666
 40
0.75
 40
0.75
 40
0.75
 40
0.75
 40
0.8333333333333334
 40
0.8333333333333334
 40
0.8333333333333334
 40
0.8333333333333334
 40
1.0
 40
1.0
 40
1.0
 40
1.0
 10
10.593
 20
7.4567
 30
0.0
 10
10.9609
 20
7.4566
 30
0.0
 10
11.259
 20
7.1532
 30
0.0
 10
11.2589
 20
6.7788
 30
0.0
 10
11.2589
 20
6.7788
 30
0.0
 10
11.2589
 20
6.7788
 30
0.0
 10
11.2135
 20
-4.8064
 30
0.0
 10
11.2135
 20
-4.8064
 30
0.0
 10
11.2135
 20
-4.8064
 30
0.0
 10
11.2135
 20
-4.8064
 30
0.0
 10
11.1557
 20
-5.0259
 30
0.0
 10
11.1557
 20
-5.0259
 30
0.0
 10
11.1557
 20
-5.0259
 30
0.0
 10
11.1557
 20
-5.0259
 30
0.0
 10
11.0301
 20
-5.184
 30
0.0
 10
11.0301
 20
-5.184
 30
0.0
 10
11.0301
 20
-5.184
 30
0.0
 10
11.0301
 20
-5.184
 30
0.0
 10
10.7963
 20
-5.3554
 30
0.0
 10
10.7963
 20
-5.3554
 30
0.0
 10
10.7963
 20
-5.3554
 30
0.0
 10
10.7963
 20
-5.3554
 30
0.0
 10
10.6736
 20
-5.3434
 30
0.0
 10
10.6736
 20
-5.3434
 30
0.0
 10
10.6736
 20
-5.3434
 30
0.0
 10
10.6736
 20
-5.3434
 30
0.0
 10
10.728
 20
-5.6149
 30
0.0
 10
10.728
 20
-5.6149
 30
0.0
 10
10.728
 20
-5.6149
 30
0.0
 10
10.728
 20
-5.6149
 30
0.0
 10
5.6607
 20
-5.6659
 30
0.0
 10
5.6607
 20
-5.6659
 30
0.0
 10
5.6607
 20
-5.6659
 30
0.0
 10
5.6607
 20
-5.6659
 30
0.0
 10
5.5971
 20
7.633
 30
0.0
 10
5.5971
 20
7.633
 30
0.0
 10
5.5971
 20
7.633
 30
0.0
 10
5.5971
 20
7.633
 30
0.0
 10
10.766
 20
7.5922
 30
0.0
 10
10.766
 20
7.5922
 30
0.0
 10
10.766
 20
7.5922
 30
0.0
 10
10.766
 20
7.5922
 30
0.0
 10
10.7616
 20
7.3367
 30
0.0
 10
10.7616
 20
7.3367
 30
0.0
  0
SPLINE
  5
80
330
1F
100
AcDbEntity
  8
DEFAULT_1
 62
   250
100
AcDbSpline
210
0.0
220
0.0
230
1.0
 70
     8
 71
     3
 72
   132
 73
   128
 74
     0
 42
0.0000000001
 43
0.0000000001
 40
0.0
 40
0.0
 40
0.0
 40
0.0
 40
0.0303030303030303
 40
0.0303030303030303
 40
0.0303030303030303
 40
0.0303030303030303
 40
0.0606060606060606
 40
0.0606060606060606
 40
0.0606060606060606
 40
0.0606060606060606
 40
0.0909090909090909
 40
0.0909090909090909
 40
0.0909090909090909
 40
0.0909090909090909
 40
0.1212121212121212
 40
0.1212121212121212
 40
0.1212121212121212
 40
0.1212121212121212
 40
0.1515151515151515
 40
0.1515151515151515
 40
0.1515151515151515
 40
0.1515151515151515
 40
0.1818181818181818
 40
0.1818181818181818
 40
0.1818181818181818
 40
0.1818181818181818
 40
0.2121212121212121
 40
0.2121212121212121
 40
0.2121212121212121
 40
0.2121212121212121
 40
0.2424242424242424
 40
0.2424242424242424
 40
0.2424242424242424
 40
0.2424242424242424
 40
0.2727272727272727
 40
0.2727272727272727
 40
0.2727272727272727
 40
0.2727272727272727
 40
0.303030303030303
 40
0.303030303030303
 40
0.303030303030303
 40
0.303030303030303
 40
0.3333333333333333
 40
0.3333333333333333
 40
0.3333333333333333
 40
0.3333333333333333
 40
0.3636363636363636
 40
0.3636363636363636
 40
0.3636363636363636
 40
0.3636363636363636
 40
0.3939393939393939
 40
0.3939393939393939
 40
0.3939393939393939
 40
0.3939393939393939
 40
0.4242424242424243
 40
0.4242424242424243
 40
0.4242424242424243
 40
0.4242424242424243
 40
0.4545454545454545
 40
0.4545454545454545
 40
0.4545454545454545
 40
0.4545454545454545
 40
0.4848484848484849
 40
0.4848484848484849
 40
0.4848484848484849
 40
0.4848484848484849
 40
0.5151515151515151
 40
0.5151515151515151
 40
0.5151515151515151
 40
0.5151515151515151
 40
0.5454545454545454
 40
0.5454545454545454
 40
0.5454545454545454
 40
0.5454545454545454
 40
0.5757575757575758
 40
0.5757575757575758
 40
0.5757575757575758
 40
0.5757575757575758
 40
0.6060606060606061
 40
0.6060606060606061
 40
0.6060606060606061
 40
0.6060606060606061
 40
0.6363636363636364
 40
0.6363636363636364
 40
0.6363636363636364
 40
0.6363636363636364
 40
0.6666666666666666
 40
0.6666666666666666
 40
0.6666666666666666
 40
0.6666666666666666
 40
0.696969696969697
 40
0.696969696969697
 40
0.696969696969697
 40
0.696969696969697
 40
0.7272727272727273
 40
0.7272727272727273
 40
0.7272727272727273
 40
0.7272727272727273
 40
0.7575757575757576
 40
0.7575757575757576
 40
0.7575757575757576
 40
0.7575757575757576
 40
0.7878787878787878
 40
0.7878787878787878
 40
0.7878787878787878
 40
0.7878787878787878
 40
0.8181818181818182
 40
0.8181818181818182
 40
0.8181818181818182
 40
0.8181818181818182
 40
0.8484848484848485
 40
0.8484848484848485
 40
0.8484848484848485
 40
0.8484848484848485
 40
0.8787878787878788
 40
0.8787878787878788
 40
0.8787878787878788
 40
0.8787878787878788
 40
0.9090909090909091
 40
0.9090909090909091
 40
0.9090909090909091
 40
0.9090909090909091
 40
0.9393939393939394
 40
0.9393939393939394
 40
0.9393939393939394
 40
0.9393939393939394
 40
1.0
 40
1.0
 40
1.0
 40
1.0
 10
6.5987
 20
7.6432
 30
0.0
 10
6.5987
 20
7.6432
 30
0.0
 10
6.5865
 20
6.1123
 30
0.0
 10
6.5865
 20
6.1123
 30
0.0
 10
6.5865
 20
6.1123
 30
0.0
 10
6.5865
 20
6.1123
 30
0.0
 10
9.9269
 20
6.1451
 30
0.0
 10
9.9269
 20
6.1451
 30
0.0
 10
9.9269
 20
6.1451
 30
0.0
 10
9.9269
 20
6.1451
 30
0.0
 10
10.0861
 20
6.1326
 30
0.0
 10
10.0861
 20
6.1326
 30
0.0
 10
10.0861
 20
6.1326
 30
0.0
 10
10.0861
 20
6.1326
 30
0.0
 10
10.236
 20
6.0956
 30
0.0
 10
10.236
 20
6.0956
 30
0.0
 10
10.236
 20
6.0956
 30
0.0
 10
10.236
 20
6.0956
 30
0.0
 10
10.3685
 20
6.0355
 30
0.0
 10
10.3685
 20
6.0355
 30
0.0
 10
10.3685
 20
6.0355
 30
0.0
 10
10.3685
 20
6.0355
 30
0.0
 10
10.4752
 20
5.9546
 30
0.0
 10
10.4752
 20
5.9546
 30
0.0
 10
10.4752
 20
5.9546
 30
0.0
 10
10.4752
 20
5.9546
 30
0.0
 10
10.5498
 20
5.8569
 30
0.0
 10
10.5498
 20
5.8569
 30
0.0
 10
10.5498
 20
5.8569
 30
0.0
 10
10.5498
 20
5.8569
 30
0.0
 10
10.5881
 20
5.7476
 30
0.0
 10
10.5881
 20
5.7476
 30
0.0
 10
10.5881
 20
5.7476
 30
0.0
 10
10.5881
 20
5.7476
 30
0.0
 10
10.593
 20
5.6903
 30
0.0
 10
10.593
 20
5.6903
 30
0.0
 10
10.593
 20
5.6903
 30
0.0
 10
10.593
 20
5.6903
 30
0.0
 10
10.5077
 20
5.4216
 30
0.0
 10
10.5077
 20
5.4216
 30
0.0
 10
10.5077
 20
5.4216
 30
0.0
 10
10.5077
 20
5.4216
 30
0.0
 10
10.2995
 20
5.2988
 30
0.0
 10
10.2995
 20
5.2988
 30
0.0
 10
10.2995
 20
5.2988
 30
0.0
 10
10.2995
 20
5.2988
 30
0.0
 10
10.0187
 20
5.1961
 30
0.0
 10
10.0187
 20
5.1961
 30
0.0
 10
10.0187
 20
5.1961
 30
0.0
 10
10.0187
 20
5.1961
 30
0.0
 10
6.5984
 20
5.1923
 30
0.0
 10
6.5984
 20
5.1923
 30
0.0
 10
6.5984
 20
5.1923
 30
0.0
 10
6.5984
 20
5.1923
 30
0.0
 10
6.5838
 20
1.6491
 30
0.0
 10
6.5838
 20
1.6491
 30
0.0
 10
6.5838
 20
1.6491
 30
0.0
 10
6.5838
 20
1.6491
 30
0.0
 10
10.1234
 20
1.6604
 30
0.0
 10
10.1234
 20
1.6604
 30
0.0
 10
10.1234
 20
1.6604
 30
0.0
 10
10.1234
 20
1.6604
 30
0.0
 10
10.4851
 20
1.4022
 30
0.0
 10
10.4851
 20
1.4022
 30
0.0
 10
10.4851
 20
1.4022
 30
0.0
 10
10.4851
 20
1.4022
 30
0.0
 10
10.5904
 20
1.1343
 30
0.0
 10
10.5904
 20
1.1343
 30
0.0
 10
10.5904
 20
1.1343
 30
0.0
 10
10.5904
 20
1.1343
 30
0.0
 10
10.5768
 20
0.8591
 30
0.0
 10
10.5768
 20
0.8591
 30
0.0
 10
10.5768
 20
0.8591
 30
0.0
 10
10.5768
 20
0.8591
 30
0.0
 10
10.4583
 20
0.6322
 30
0.0
 10
10.4583
 20
0.6322
 30
0.0
 10
10.4583
 20
0.6322
 30
0.0
 10
10.4583
 20
0.6322
 30
0.0
 10
10.3814
 20
0.4141
 30
0.0
 10
10.3814
 20
0.4141
 30
0.0
 10
10.3814
 20
0.4141
 30
0.0
 10
10.3814
 20
0.4141
 30
0.0
 10
10.2012
 20
0.3237
 30
0.0
 10
10.2012
 20
0.3237
 30
0.0
 10
10.2012
 20
0.3237
 30
0.0
 10
10.2012
 20
0.3237
 30
0.0
 10
6.6021
 20
0.3089
 30
0.0
 10
6.6021
 20
0.3089
 30
0.0
 10
6.6021
 20
0.3089
 30
0.0
 10
6.6021
 20
0.3089
 30
0.0
 10
6.5976
 20
-3.1973
 30
0.0
 10
6.5976
 20
-3.1973
 30
0.0
 10
6.5976
 20
-3.1973
 30
0.0
 10
6.5976
 20
-3.1973
 30
0.0
 10
10.0326
 20
-3.1375
 30
0.0
 10
10.0326
 20
-3.1375
 30
0.0
 10
10.0326
 20
-3.1375
 30
0.0
 10
10.0326
 20
-3.1375
 30
0.0
 10
10.3193
 20
-3.2357
 30
0.0
 10
10.3193
 20
-3.2357
 30
0.0
 10
10.3193
 20
-3.2357
 30
0.0
 10
10.3193
 20
-3.2357
 30
0.0
 10
10.5368
 20
-3.3746
 30
0.0
 10
10.5368
 20
-3.3746
 30
0.0
 10
10.5368
 20
-3.3746
 30
0.0
 10
10.5368
 20
-3.3746
 30
0.0
 10
10.6618
 20
-3.5682
 30
0.0
 10
10.6618
 20
-3.5682
 30
0.0
 10
10.6618
 20
-3.5682
 30
0.0
 10
10.6618
 20
-3.5682
 30
0.0
 10
10.5981
 20
-3.81
 30
0.0
 10
10.5981
 20
-3.81
 30
0.0
 10
10.5981
 20
-3.81
 30
0.0
 10
10.5981
 20
-3.81
 30
0.0
 10
10.4201
 20
-4.0405
 30
0.0
 10
10.4201
 20
-4.0405
 30
0.0
 10
10.4201
 20
-4.0405
 30
0.0
 10
10.4201
 20
-4.0405
 30
0.0
 10
9.9105
 20
-4.1206
 30
0.0
 10
9.9105
 20
-4.1206
 30
0.0
 10
9.9105
 20
-4.1206
 30
0.0
 10
9.9105
 20
-4.1206
 30
0.0
 10
6.5632
 20
-4.1445
 30
0.0
 10
6.5632
 20
-4.1445
 30
0.0
 10
6.5632
 20
-4.1445
 30
0.0
 10
6.5632
 20
-4.1445
 30
0.0
 10
6.5665
 20
-5.5708
 30
0.0
 10
6.5665
 20
-5.5708
 30
0.0
  0
SPLINE
  5
81
330
1F
100
AcDbEntity
  8
DEFAULT_1
 62
   250
100
AcDbSpline
210
0.0
220
0.0
230
1.0
 70
    11
 71
     3
 72
    20
 73
    16
 74
     0
 42
0.0000000001
 43
0.0000000001
 40
0.0
 40
0.0
 40
0.0
 40
0.0
 40
0.2
 40
0.2
 40
0.2
 40
0.2
 40
0.4
 40
0.4
 40
0.4
 40
0.4
 40
0.6
 40
0.6
 40
0.6
 40
0.6
 40
1.0
 40
1.0
 40
1.0
 40
1.0
 10
-2.5947
 20
-16.5174
 30
0.0
 10
-2.5947
 20
-16.5174
 30
0.0
 10
0.4053
 20
-16.9407
 30
0.0
 10
0.4053
 20
-16.9407
 30
0.0
 10
0.4053
 20
-16.9407
 30
0.0
 10
0.4053
 20
-16.9407
 30
0.0
 10
0.4053
 20
-17.0347
 30
0.0
 10
0.4053
 20
-17.0347
 30
0.0
 10
0.4053
 20
-17.0347
 30
0.0
 10
0.4053
 20
-17.0347
 30
0.0
 10
-2.5947
 20
-17.4862
 30
0.0
 10
-2.5947
 20
-17.4862
 30
0.0
 10
-2.5947
 20
-17.4862
 30
0.0
 10
-2.5947
 20
-17.4862
 30
0.0
 10
-2.5947
 20
-16.5174
 30
0.0
 10
-2.5947
 20
-16.5174
 30
0.0
  0
SPLINE
  5
82
330
1F
100
AcDbEntity
  8
DEFAULT_1
 62
   250
100
AcDbSpline
210
0.0
220
0.0
230
1.0
 70
    11
 71
     3
 72
    20
 73
    16
 74
     0
 42
0.0000000001
 43
0.0000000001
 40
0.0
 40
0.0
 40
0.0
 40
0.0
 40
0.2
 40
0.2
 40
0.2
 40
0.2
 40
0.4
 40
0.4
 40
0.4
 40
0.4
 40
0.6
 40
0.6
 40
0.6
 40
0.6
 40
1.0
 40
1.0
 40
1.0
 40
1.0
 10
-12.3655
 20
-17.5057
 30
0.0
 10
-12.3655
 20
-17.5057
 30
0.0
 10
-15.3653
 20
-17.0823
 30
0.0
 10
-15.3653
 20
-17.0823
 30
0.0
 10
-15.3653
 20
-17.0823
 30
0.0
 10
-15.3653
 20
-17.0823
 30
0.0
 10
-15.3653
 20
-16.9883
 30
0.0
 10
-15.3653
 20
-16.9883
 30
0.0
 10
-15.3653
 20
-16.9883
 30
0.0
 10
-15.3653
 20
-16.9883
 30
0.0
 10
-12.3655
 20
-16.5368
 30
0.0
 10
-12.3655
 20
-16.5368
 30
0.0
 10
-12.3655
 20
-16.5368
 30
0.0
 10
-12.3655
 20
-16.5368
 30
0.0
 10
-12.3655
 20
-17.5057
 30
0.0
 10
-12.3655
 20
-17.5057
 30
0.0
  0
SPLINE
  5
83
330
1F
100
AcDbEntity
  8
DEFAULT_1
 62
   250
100
AcDbSpline
210
0.0
220
0.0
230
1.0
 70
    11
 71
     3
 72
    20
 73
    16
 74
     0
 42
0.0000000001
 43
0.0000000001
 40
0.0
 40
0.0
 40
0.0
 40
0.0
 40
0.2
 40
0.2
 40
0.2
 40
0.2
 40
0.4
 40
0.4
 40
0.4
 40
0.4
 40
0.6
 40
0.6
 40
0.6
 40
0.6
 40
1.0
 40
1.0
 40
1.0
 40
1.0
 10
-22.0887
 20
15.1898
 30
0.0
 10
-22.0887
 20
15.1898
 30
0.0
 10
-21.6653
 20
18.1902
 30
0.0
 10
-21.6653
 20
18.1902
 30
0.0
 10
-21.6653
 20
18.1902
 30
0.0
 10
-21.6653
 20
18.1902
 30
0.0
 10
-21.5713
 20
18.1902
 30
0.0
 10
-21.5713
 20
18.1902
 30
0.0
 10
-21.5713
 20
18.1902
 30
0.0
 10
-21.5713
 20
18.1902
 30
0.0
 10
-21.1198
 20
15.1898
 30
0.0
 10
-21.1198
 20
15.1898
 30
0.0
 10
-21.1198
 20
15.1898
 30
0.0
 10
-21.1198
 20
15.1898
 30
0.0
 10
-22.0887
 20
15.1898
 30
0.0
 10
-22.0887
 20
15.1898
 30
0.0
  0
SPLINE
  5
84
330
1F
100
AcDbEntity
  8
DEFAULT_1
 62
   250
100
AcDbSpline
210
0.0
220
0.0
230
1.0
 70
    11
 71
     3
 72
    20
 73
    16
 74
     0
 42
0.0000000001
 43
0.0000000001
 40
0.0
 40
0.0
 40
0.0
 40
0.0
 40
0.2
 40
0.2
 40
0.2
 40
0.2
 40
0.4
 40
0.4
 40
0.4
 40
0.4
 40
0.6
 40
0.6
 40
0.6
 40
0.6
 40
1.0
 40
1.0
 40
1.0
 40
1.0
 10
-21.1006
 20
-9.3184
 30
0.0
 10
-21.1006
 20
-9.3184
 30
0.0
 10
-21.524
 20
-12.3185
 30
0.0
 10
-21.524
 20
-12.3185
 30
0.0
 10
-21.524
 20
-12.3185
 30
0.0
 10
-21.524
 20
-12.3185
 30
0.0
 10
-21.618
 20
-12.3185
 30
0.0
 10
-21.618
 20
-12.3185
 30
0.0
 10
-21.618
 20
-12.3185
 30
0.0
 10
-21.618
 20
-12.3185
 30
0.0
 10
-22.0696
 20
-9.3184
 30
0.0
 10
-22.0696
 20
-9.3184
 30
0.0
 10
-22.0696
 20
-9.3184
 30
0.0
 10
-22.0696
 20
-9.3184
 30
0.0
 10
-21.1006
 20
-9.3184
 30
0.0
 10
-21.1006
 20
-9.3184
 30
0.0
  0
SPLINE
  5
85
330
1F
100
AcDbEntity
  8
DEFAULT_1
 62
   250
100
AcDbSpline
210
0.0
220
0.0
230
1.0
 70
    11
 71
     3
 72
    20
 73
    16
 74
     0
 42
0.0000000001
 43
0.0000000001
 40
0.0
 40
0.0
 40
0.0
 40
0.0
 40
0.2
 40
0.2
 40
0.2
 40
0.2
 40
0.4
 40
0.4
 40
0.4
 40
0.4
 40
0.6
 40
0.6
 40
0.6
 40
0.6
 40
1.0
 40
1.0
 40
1.0
 40
1.0
 10
13.9322
 20
-23.2262
 30
0.0
 10
13.9322
 20
-23.2262
 30
0.0
 10
16.9321
 20
-23.6495
 30
0.0
 10
16.9321
 20
-23.6495
 30
0.0
 10
16.9321
 20
-23.6495
 30
0.0
 10
16.9321
 20
-23.6495
 30
0.0
 10
16.9321
 20
-23.7435
 30
0.0
 10
16.9321
 20
-23.7435
 30
0.0
 10
16.9321
 20
-23.7435
 30
0.0
 10
16.9321
 20
-23.7435
 30
0.0
 10
13.9322
 20
-24.1949
 30
0.0
 10
13.9322
 20
-24.1949
 30
0.0
 10
13.9322
 20
-24.1949
 30
0.0
 10
13.9322
 20
-24.1949
 30
0.0
 10
13.9322
 20
-23.2262
 30
0.0
 10
13.9322
 20
-23.2262
 30
0.0
  0
SPLINE
  5
86
330
1F
100
AcDbEntity
  8
DEFAULT_1
 62
   250
100
AcDbSpline
210
0.0
220
0.0
230
1.0
 70
    11
 71
     3
 72
    20
 73
    16
 74
     0
 42
0.0000000001
 43
0.0000000001
 40
0.0
 40
0.0
 40
0.0
 40
0.0
 40
0.2
 40
0.2
 40
0.2
 40
0.2
 40
0.4
 40
0.4
 40
0.4
 40
0.4
 40
0.6
 40
0.6
 40
0.6
 40
0.6
 40
1.0
 40
1.0
 40
1.0
 40
1.0
 10
-4.3598
 20
-24.1863
 30
0.0
 10
-4.3598
 20
-24.1863
 30
0.0
 10
-7.3598
 20
-23.7629
 30
0.0
 10
-7.3598
 20
-23.7629
 30
0.0
 10
-7.3598
 20
-23.7629
 30
0.0
 10
-7.3598
 20
-23.7629
 30
0.0
 10
-7.3598
 20
-23.6688
 30
0.0
 10
-7.3598
 20
-23.6688
 30
0.0
 10
-7.3598
 20
-23.6688
 30
0.0
 10
-7.3598
 20
-23.6688
 30
0.0
 10
-4.3598
 20
-23.2173
 30
0.0
 10
-4.3598
 20
-23.2173
 30
0.0
 10
-4.3598
 20
-23.2173
 30
0.0
 10
-4.3598
 20
-23.2173
 30
0.0
 10
-4.3598
 20
-24.1863
 30
0.0
 10
-4.3598
 20
-24.1863
 30
0.0
  0
SPLINE
  5
87
330
1F
100
AcDbEntity
  8
DEFAULT_1
 62
   250
100
AcDbSpline
210
0.0
220
0.0
230
1.0
 70
    24
 71
     3
 72
     8
 73
     4
 74
     0
 42
0.0000000001
 43
0.0000000001
 40
0.0
 40
0.0
 40
0.0
 40
0.0
 40
1.0
 40
1.0
 40
1.0
 40
1.0
 10
24.3458
 20
-19.6936
 30
0.0
 10
24.3458
 20
-19.6936
 30
0.0
 10
5.4859
 20
-19.6936
 30
0.0
 10
5.4859
 20
-19.6936
 30
0.0
  0
SPLINE
  5
88
330
1F
100
AcDbEntity
  8
DEFAULT_1
 62
   250
100
AcDbSpline
210
0.0
220
0.0
230
1.0
 70
    11
 71
     3
 72
    20
 73
    16
 74
     0
 42
0.0000000001
 43
0.0000000001
 40
0.0
 40
0.0
 40
0.0
 40
0.0
 40
0.2
 40
0.2
 40
0.2
 40
0.2
 40
0.4
 40
0.4
 40
0.4
 40
0.4
 40
0.6
 40
0.6
 40
0.6
 40
0.6
 40
1.0
 40
1.0
 40
1.0
 40
1.0
 10
11.0582
 20
-19.2073
 30
0.0
 10
11.0582
 20
-19.2073
 30
0.0
 10
14.0581
 20
-19.6306
 30
0.0
 10
14.0581
 20
-19.6306
 30
0.0
 10
14.0581
 20
-19.6306
 30
0.0
 10
14.0581
 20
-19.6306
 30
0.0
 10
14.0581
 20
-19.7246
 30
0.0
 10
14.0581
 20
-19.7246
 30
0.0
 10
14.0581
 20
-19.7246
 30
0.0
 10
14.0581
 20
-19.7246
 30
0.0
 10
11.0582
 20
-20.176
 30
0.0
 10
11.0582
 20
-20.176
 30
0.0
 10
11.0582
 20
-20.176
 30
0.0
 10
11.0582
 20
-20.176
 30
0.0
 10
11.0582
 20
-19.2073
 30
0.0
 10
11.0582
 20
-19.2073
 30
0.0
  0
SPLINE
  5
89
330
1F
100
AcDbEntity
  8
DEFAULT_1
 62
   250
100
AcDbSpline
210
0.0
220
0.0
230
1.0
 70
    11
 71
     3
 72
    20
 73
    16
 74
     0
 42
0.0000000001
 43
0.0000000001
 40
0.0
 40
0.0
 40
0.0
 40
0.0
 40
0.2
 40
0.2
 40
0.2
 40
0.2
 40
0.4
 40
0.4
 40
0.4
 40
0.4
 40
0.6
 40
0.6
 40
0.6
 40
0.6
 40
1.0
 40
1.0
 40
1.0
 40
1.0
 10
23.0074
 20
-20.1822
 30
0.0
 10
23.0074
 20
-20.1822
 30
0.0
 10
20.0074
 20
-19.7588
 30
0.0
 10
20.0074
 20
-19.7588
 30
0.0
 10
20.0074
 20
-19.7588
 30
0.0
 10
20.0074
 20
-19.7588
 30
0.0
 10
20.0074
 20
-19.6648
 30
0.0
 10
20.0074
 20
-19.6648
 30
0.0
 10
20.0074
 20
-19.6648
 30
0.0
 10
20.0074
 20
-19.6648
 30
0.0
 10
23.0074
 20
-19.2132
 30
0.0
 10
23.0074
 20
-19.2132
 30
0.0
 10
23.0074
 20
-19.2132
 30
0.0
 10
23.0074
 20
-19.2132
 30
0.0
 10
23.0074
 20
-20.1822
 30
0.0
 10
23.0074
 20
-20.1822
 30
0.0
  0
SPLINE
  5
8A
330
1F
100
AcDbEntity
  8
DEFAULT_1
 62
   250
100
AcDbSpline
210
0.0
220
0.0
230
1.0
 70
    11
 71
     3
 72
   120
 73
   116
 74
     0
 42
0.0000000001
 43
0.0000000001
 40
0.0
 40
0.0
 40
0.0
 40
0.0
 40
0.0333333333333333
 40
0.0333333333333333
 40
0.0333333333333333
 40
0.0333333333333333
 40
0.0666666666666667
 40
0.0666666666666667
 40
0.0666666666666667
 40
0.0666666666666667
 40
0.1
 40
0.1
 40
0.1
 40
0.1
 40
0.1333333333333333
 40
0.1333333333333333
 40
0.1333333333333333
 40
0.1333333333333333
 40
0.1666666666666667
 40
0.1666666666666667
 40
0.1666666666666667
 40
0.1666666666666667
 40
0.2
 40
0.2
 40
0.2
 40
0.2
 40
0.2333333333333333
 40
0.2333333333333333
 40
0.2333333333333333
 40
0.2333333333333333
 40
0.2666666666666667
 40
0.2666666666666667
 40
0.2666666666666667
 40
0.2666666666666667
 40
0.3
 40
0.3
 40
0.3
 40
0.3
 40
0.3333333333333333
 40
0.3333333333333333
 40
0.3333333333333333
 40
0.3333333333333333
 40
0.3666666666666666
 40
0.3666666666666666
 40
0.3666666666666666
 40
0.3666666666666666
 40
0.4
 40
0.4
 40
0.4
 40
0.4
 40
0.4333333333333333
 40
0.4333333333333333
 40
0.4333333333333333
 40
0.4333333333333333
 40
0.4666666666666667
 40
0.4666666666666667
 40
0.4666666666666667
 40
0.4666666666666667
 40
0.5
 40
0.5
 40
0.5
 40
0.5
 40
0.5333333333333333
 40
0.5333333333333333
 40
0.5333333333333333
 40
0.5333333333333333
 40
0.5666666666666667
 40
0.5666666666666667
 40
0.5666666666666667
 40
0.5666666666666667
 40
0.6
 40
0.6
 40
0.6
 40
0.6
 40
0.6333333333333333
 40
0.6333333333333333
 40
0.6333333333333333
 40
0.6333333333333333
 40
0.6666666666666666
 40
0.6666666666666666
 40
0.6666666666666666
 40
0.6666666666666666
 40
0.7
 40
0.7
 40
0.7
 40
0.7
 40
0.7333333333333333
 40
0.7333333333333333
 40
0.7333333333333333
 40
0.7333333333333333
 40
0.7666666666666667
 40
0.7666666666666667
 40
0.7666666666666667
 40
0.7666666666666667
 40
0.8
 40
0.8
 40
0.8
 40
0.8
 40
0.8333333333333334
 40
0.8333333333333334
 40
0.8333333333333334
 40
0.8333333333333334
 40
0.8666666666666667
 40
0.8666666666666667
 40
0.8666666666666667
 40
0.8666666666666667
 40
0.9
 40
0.9
 40
0.9
 40
0.9
 40
0.9333333333333333
 40
0.9333333333333333
 40
0.9333333333333333
 40
0.9333333333333333
 40
1.0
 40
1.0
 40
1.0
 40
1.0
 10
-10.0087
 20
23.5294
 30
0.0
 10
-10.0087
 20
23.5294
 30
0.0
 10
-10.0087
 20
23.766
 30
0.0
 10
-10.0087
 20
23.766
 30
0.0
 10
-10.0087
 20
23.766
 30
0.0
 10
-10.0087
 20
23.766
 30
0.0
 10
-9.1531
 20
23.7674
 30
0.0
 10
-9.1531
 20
23.7674
 30
0.0
 10
-9.1531
 20
23.7674
 30
0.0
 10
-9.1531
 20
23.7674
 30
0.0
 10
-9.1531
 20
23.0181
 30
0.0
 10
-9.1531
 20
23.0181
 30
0.0
 10
-9.1531
 20
23.0181
 30
0.0
 10
-9.2843
 20
22.9132
 30
0.0
 10
-9.4198
 20
22.8346
 30
0.0
 10
-9.5595
 20
22.7815
 30
0.0
 10
-9.5595
 20
22.7815
 30
0.0
 10
-9.6992
 20
22.7288
 30
0.0
 10
-9.8426
 20
22.7025
 30
0.0
 10
-9.9894
 20
22.7025
 30
0.0
 10
-9.9894
 20
22.7025
 30
0.0
 10
-10.1879
 20
22.7025
 30
0.0
 10
-10.3685
 20
22.7448
 30
0.0
 10
-10.5303
 20
22.8299
 30
0.0
 10
-10.5303
 20
22.8299
 30
0.0
 10
-10.6926
 20
22.9146
 30
0.0
 10
-10.8149
 20
23.0378
 30
0.0
 10
-10.8977
 20
23.1982
 30
0.0
 10
-10.8977
 20
23.1982
 30
0.0
 10
-10.9805
 20
23.3591
 30
0.0
 10
-11.0219
 20
23.5388
 30
0.0
 10
-11.0219
 20
23.7373
 30
0.0
 10
-11.0219
 20
23.7373
 30
0.0
 10
-11.0219
 20
23.9339
 30
0.0
 10
-10.9805
 20
24.1173
 30
0.0
 10
-10.8981
 20
24.2876
 30
0.0
 10
-10.8981
 20
24.2876
 30
0.0
 10
-10.8163
 20
24.4583
 30
0.0
 10
-10.6978
 20
24.5849
 30
0.0
 10
-10.5435
 20
24.6677
 30
0.0
 10
-10.5435
 20
24.6677
 30
0.0
 10
-10.3892
 20
24.75
 30
0.0
 10
-10.2114
 20
24.7914
 30
0.0
 10
-10.0101
 20
24.7914
 30
0.0
 10
-10.0101
 20
24.7914
 30
0.0
 10
-9.8643
 20
24.7914
 30
0.0
 10
-9.7321
 20
24.7678
 30
0.0
 10
-9.614
 20
24.7203
 30
0.0
 10
-9.614
 20
24.7203
 30
0.0
 10
-9.496
 20
24.6733
 30
0.0
 10
-9.4033
 20
24.6074
 30
0.0
 10
-9.3365
 20
24.5228
 30
0.0
 10
-9.3365
 20
24.5228
 30
0.0
 10
-9.2693
 20
24.4381
 30
0.0
 10
-9.2185
 20
24.3281
 30
0.0
 10
-9.1832
 20
24.1921
 30
0.0
 10
-9.1832
 20
24.1921
 30
0.0
 10
-9.1832
 20
24.1921
 30
0.0
 10
-9.4245
 20
24.1258
 30
0.0
 10
-9.4245
 20
24.1258
 30
0.0
 10
-9.4245
 20
24.1258
 30
0.0
 10
-9.4551
 20
24.2288
 30
0.0
 10
-9.4927
 20
24.3097
 30
0.0
 10
-9.5374
 20
24.3685
 30
0.0
 10
-9.5374
 20
24.3685
 30
0.0
 10
-9.5825
 20
24.4273
 30
0.0
 10
-9.647
 20
24.4743
 30
0.0
 10
-9.7307
 20
24.5096
 30
0.0
 10
-9.7307
 20
24.5096
 30
0.0
 10
-9.814
 20
24.5449
 30
0.0
 10
-9.9071
 20
24.5628
 30
0.0
 10
-10.0087
 20
24.5628
 30
0.0
 10
-10.0087
 20
24.5628
 30
0.0
 10
-10.131
 20
24.5628
 30
0.0
 10
-10.2368
 20
24.5439
 30
0.0
 10
-10.3257
 20
24.5068
 30
0.0
 10
-10.3257
 20
24.5068
 30
0.0
 10
-10.4151
 20
24.4696
 30
0.0
 10
-10.4866
 20
24.4207
 30
0.0
 10
-10.5416
 20
24.36
 30
0.0
 10
-10.5416
 20
24.36
 30
0.0
 10
-10.5962
 20
24.2994
 30
0.0
 10
-10.6385
 20
24.233
 30
0.0
 10
-10.6691
 20
24.1601
 30
0.0
 10
-10.6691
 20
24.1601
 30
0.0
 10
-10.7203
 20
24.0355
 30
0.0
 10
-10.7462
 20
23.9
 30
0.0
 10
-10.7462
 20
23.7537
 30
0.0
 10
-10.7462
 20
23.7537
 30
0.0
 10
-10.7462
 20
23.5736
 30
0.0
 10
-10.7152
 20
23.4231
 30
0.0
 10
-10.6531
 20
23.3017
 30
0.0
 10
-10.6531
 20
23.3017
 30
0.0
 10
-10.591
 20
23.1804
 30
0.0
 10
-10.5007
 20
23.0905
 30
0.0
 10
-10.3822
 20
23.0317
 30
0.0
 10
-10.3822
 20
23.0317
 30
0.0
 10
-10.2636
 20
22.9729
 30
0.0
 10
-10.138
 20
22.9433
 30
0.0
 10
-10.0049
 20
22.9433
 30
0.0
 10
-10.0049
 20
22.9433
 30
0.0
 10
-9.8887
 20
22.9433
 30
0.0
 10
-9.7759
 20
22.9659
 30
0.0
 10
-9.6658
 20
23.0106
 30
0.0
 10
-9.6658
 20
23.0106
 30
0.0
 10
-9.5552
 20
23.0548
 30
0.0
 10
-9.472
 20
23.1023
 30
0.0
 10
-9.4151
 20
23.1531
 30
0.0
 10
-9.4151
 20
23.1531
 30
0.0
 10
-9.4151
 20
23.1531
 30
0.0
 10
-9.4151
 20
23.5294
 30
0.0
 10
-9.4151
 20
23.5294
 30
0.0
 10
-9.4151
 20
23.5294
 30
0.0
 10
-9.4151
 20
23.5294
 30
0.0
 10
-10.0087
 20
23.5294
 30
0.0
 10
-10.0087
 20
23.5294
 30
0.0
  0
SPLINE
  5
8B
330
1F
100
AcDbEntity
  8
DEFAULT_1
 62
   250
100
AcDbSpline
210
0.0
220
0.0
230
1.0
 70
    11
 71
     3
 72
    80
 73
    76
 74
     0
 42
0.0000000001
 43
0.0000000001
 40
0.0
 40
0.0
 40
0.0
 40
0.0
 40
0.05
 40
0.05
 40
0.05
 40
0.05
 40
0.1
 40
0.1
 40
0.1
 40
0.1
 40
0.15
 40
0.15
 40
0.15
 40
0.15
 40
0.2
 40
0.2
 40
0.2
 40
0.2
 40
0.25
 40
0.25
 40
0.25
 40
0.25
 40
0.3
 40
0.3
 40
0.3
 40
0.3
 40
0.35
 40
0.35
 40
0.35
 40
0.35
 40
0.4
 40
0.4
 40
0.4
 40
0.4
 40
0.45
 40
0.45
 40
0.45
 40
0.45
 40
0.5
 40
0.5
 40
0.5
 40
0.5
 40
0.55
 40
0.55
 40
0.55
 40
0.55
 40
0.6
 40
0.6
 40
0.6
 40
0.6
 40
0.65
 40
0.65
 40
0.65
 40
0.65
 40
0.7
 40
0.7
 40
0.7
 40
0.7
 40
0.75
 40
0.75
 40
0.75
 40
0.75
 40
0.8
 40
0.8
 40
0.8
 40
0.8
 40
0.85
 40
0.85
 40
0.85
 40
0.85
 40
0.9
 40
0.9
 40
0.9
 40
0.9
 40
1.0
 40
1.0
 40
1.0
 40
1.0
 10
-6.7886
 20
24.2622
 30
0.0
 10
-6.7886
 20
24.2622
 30
0.0
 10
-7.035
 20
24.2429
 30
0.0
 10
-7.035
 20
24.2429
 30
0.0
 10
-7.035
 20
24.2429
 30
0.0
 10
-7.0571
 20
24.3403
 30
0.0
 10
-7.0882
 20
24.4113
 30
0.0
 10
-7.1286
 20
24.455
 30
0.0
 10
-7.1286
 20
24.455
 30
0.0
 10
-7.1959
 20
24.5261
 30
0.0
 10
-7.2787
 20
24.5614
 30
0.0
 10
-7.377
 20
24.5614
 30
0.0
 10
-7.377
 20
24.5614
 30
0.0
 10
-7.456
 20
24.5614
 30
0.0
 10
-7.5251
 20
24.5392
 30
0.0
 10
-7.5849
 20
24.495
 30
0.0
 10
-7.5849
 20
24.495
 30
0.0
 10
-7.663
 20
24.4381
 30
0.0
 10
-7.7246
 20
24.3549
 30
0.0
 10
-7.7697
 20
24.2457
 30
0.0
 10
-7.7697
 20
24.2457
 30
0.0
 10
-7.8144
 20
24.1366
 30
0.0
 10
-7.8379
 20
23.9809
 30
0.0
 10
-7.8398
 20
23.7787
 30
0.0
 10
-7.8398
 20
23.7787
 30
0.0
 10
-7.7801
 20
23.8694
 30
0.0
 10
-7.7072
 20
23.9372
 30
0.0
 10
-7.6206
 20
23.9814
 30
0.0
 10
-7.6206
 20
23.9814
 30
0.0
 10
-7.5346
 20
24.0251
 30
0.0
 10
-7.4438
 20
24.0472
 30
0.0
 10
-7.3492
 20
24.0472
 30
0.0
 10
-7.3492
 20
24.0472
 30
0.0
 10
-7.1837
 20
24.0472
 30
0.0
 10
-7.043
 20
23.9866
 30
0.0
 10
-6.9268
 20
23.8647
 30
0.0
 10
-6.9268
 20
23.8647
 30
0.0
 10
-6.8107
 20
23.7429
 30
0.0
 10
-6.7523
 20
23.5858
 30
0.0
 10
-6.7523
 20
23.393
 30
0.0
 10
-6.7523
 20
23.393
 30
0.0
 10
-6.7523
 20
23.266
 30
0.0
 10
-6.7801
 20
23.1484
 30
0.0
 10
-6.8347
 20
23.0392
 30
0.0
 10
-6.8347
 20
23.0392
 30
0.0
 10
-6.8892
 20
22.9306
 30
0.0
 10
-6.9645
 20
22.8469
 30
0.0
 10
-7.06
 20
22.789
 30
0.0
 10
-7.06
 20
22.789
 30
0.0
 10
-7.1554
 20
22.7312
 30
0.0
 10
-7.2636
 20
22.7025
 30
0.0
 10
-7.385
 20
22.7025
 30
0.0
 10
-7.385
 20
22.7025
 30
0.0
 10
-7.5919
 20
22.7025
 30
0.0
 10
-7.7603
 20
22.7782
 30
0.0
 10
-7.8906
 20
22.9306
 30
0.0
 10
-7.8906
 20
22.9306
 30
0.0
 10
-8.0214
 20
23.0825
 30
0.0
 10
-8.0863
 20
23.3332
 30
0.0
 10
-8.0863
 20
23.6822
 30
0.0
 10
-8.0863
 20
23.6822
 30
0.0
 10
-8.0863
 20
24.0726
 30
0.0
 10
-8.0143
 20
24.3563
 30
0.0
 10
-7.8699
 20
24.5336
 30
0.0
 10
-7.8699
 20
24.5336
 30
0.0
 10
-7.7443
 20
24.6879
 30
0.0
 10
-7.575
 20
24.7655
 30
0.0
 10
-7.3615
 20
24.7655
 30
0.0
 10
-7.3615
 20
24.7655
 30
0.0
 10
-7.2029
 20
24.7655
 30
0.0
 10
-7.0727
 20
24.7208
 30
0.0
 10
-6.9711
 20
24.6314
 30
0.0
 10
-6.9711
 20
24.6314
 30
0.0
 10
-6.8695
 20
24.5425
 30
0.0
 10
-6.8088
 20
24.4193
 30
0.0
 10
-6.7886
 20
24.2622
 30
0.0
  0
SPLINE
  5
8C
330
1F
100
AcDbEntity
  8
DEFAULT_1
 62
   250
100
AcDbSpline
210
0.0
220
0.0
230
1.0
 70
    11
 71
     3
 72
    40
 73
    36
 74
     0
 42
0.0000000001
 43
0.0000000001
 40
0.0
 40
0.0
 40
0.0
 40
0.0
 40
0.1
 40
0.1
 40
0.1
 40
0.1
 40
0.2
 40
0.2
 40
0.2
 40
0.2
 40
0.3
 40
0.3
 40
0.3
 40
0.3
 40
0.4
 40
0.4
 40
0.4
 40
0.4
 40
0.5
 40
0.5
 40
0.5
 40
0.5
 40
0.6
 40
0.6
 40
0.6
 40
0.6
 40
0.7
 40
0.7
 40
0.7
 40
0.7
 40
0.8
 40
0.8
 40
0.8
 40
0.8
 40
1.0
 40
1.0
 40
1.0
 40
1.0
 10
-7.8013
 20
23.3916
 30
0.0
 10
-7.8013
 20
23.3059
 30
0.0
 10
-7.7829
 20
23.2241
 30
0.0
 10
-7.7467
 20
23.146
 30
0.0
 10
-7.7467
 20
23.146
 30
0.0
 10
-7.7105
 20
23.0679
 30
0.0
 10
-7.6597
 20
23.0087
 30
0.0
 10
-7.5948
 20
22.9678
 30
0.0
 10
-7.5948
 20
22.9678
 30
0.0
 10
-7.5294
 20
22.9268
 30
0.0
 10
-7.4607
 20
22.9061
 30
0.0
 10
-7.3892
 20
22.9061
 30
0.0
 10
-7.3892
 20
22.9061
 30
0.0
 10
-7.2843
 20
22.9061
 30
0.0
 10
-7.1945
 20
22.9485
 30
0.0
 10
-7.1192
 20
23.0331
 30
0.0
 10
-7.1192
 20
23.0331
 30
0.0
 10
-7.044
 20
23.1178
 30
0.0
 10
-7.0063
 20
23.2326
 30
0.0
 10
-7.0063
 20
23.3774
 30
0.0
 10
-7.0063
 20
23.3774
 30
0.0
 10
-7.0063
 20
23.5171
 30
0.0
 10
-7.0435
 20
23.6272
 30
0.0
 10
-7.1178
 20
23.7076
 30
0.0
 10
-7.1178
 20
23.7076
 30
0.0
 10
-7.1921
 20
23.7881
 30
0.0
 10
-7.2857
 20
23.8281
 30
0.0
 10
-7.3986
 20
23.8281
 30
0.0
 10
-7.3986
 20
23.8281
 30
0.0
 10
-7.511
 20
23.8281
 30
0.0
 10
-7.6061
 20
23.7881
 30
0.0
 10
-7.6841
 20
23.7076
 30
0.0
 10
-7.6841
 20
23.7076
 30
0.0
 10
-7.7622
 20
23.6272
 30
0.0
 10
-7.8013
 20
23.5218
 30
0.0
 10
-7.8013
 20
23.3916
 30
0.0
  0
SPLINE
  5
8D
330
1F
100
AcDbEntity
  8
DEFAULT_1
 62
   250
100
AcDbSpline
210
0.0
220
0.0
230
1.0
 70
    11
 71
     3
 72
    20
 73
    16
 74
     0
 42
0.0000000001
 43
0.0000000001
 40
0.0
 40
0.0
 40
0.0
 40
0.0
 40
0.2
 40
0.2
 40
0.2
 40
0.2
 40
0.4
 40
0.4
 40
0.4
 40
0.4
 40
0.6
 40
0.6
 40
0.6
 40
0.6
 40
1.0
 40
1.0
 40
1.0
 40
1.0
 10
-6.623
 20
22.7025
 30
0.0
 10
-6.623
 20
22.7025
 30
0.0
 10
-6.0374
 20
24.7914
 30
0.0
 10
-6.0374
 20
24.7914
 30
0.0
 10
-6.0374
 20
24.7914
 30
0.0
 10
-6.0374
 20
24.7914
 30
0.0
 10
-5.8389
 20
24.7914
 30
0.0
 10
-5.8389
 20
24.7914
 30
0.0
 10
-5.8389
 20
24.7914
 30
0.0
 10
-5.8389
 20
24.7914
 30
0.0
 10
-6.4231
 20
22.7025
 30
0.0
 10
-6.4231
 20
22.7025
 30
0.0
 10
-6.4231
 20
22.7025
 30
0.0
 10
-6.4231
 20
22.7025
 30
0.0
 10
-6.623
 20
22.7025
 30
0.0
 10
-6.623
 20
22.7025
 30
0.0
  0
SPLINE
  5
8E
330
1F
100
AcDbEntity
  8
DEFAULT_1
 62
   250
100
AcDbSpline
210
0.0
220
0.0
230
1.0
 70
    11
 71
     3
 72
    48
 73
    44
 74
     0
 42
0.0000000001
 43
0.0000000001
 40
0.0
 40
0.0
 40
0.0
 40
0.0
 40
0.0833333333333333
 40
0.0833333333333333
 40
0.0833333333333333
 40
0.0833333333333333
 40
0.1666666666666667
 40
0.1666666666666667
 40
0.1666666666666667
 40
0.1666666666666667
 40
0.25
 40
0.25
 40
0.25
 40
0.25
 40
0.3333333333333333
 40
0.3333333333333333
 40
0.3333333333333333
 40
0.3333333333333333
 40
0.4166666666666667
 40
0.4166666666666667
 40
0.4166666666666667
 40
0.4166666666666667
 40
0.5
 40
0.5
 40
0.5
 40
0.5
 40
0.5833333333333334
 40
0.5833333333333334
 40
0.5833333333333334
 40
0.5833333333333334
 40
0.6666666666666666
 40
0.6666666666666666
 40
0.6666666666666666
 40
0.6666666666666666
 40
0.75
 40
0.75
 40
0.75
 40
0.75
 40
0.8333333333333334
 40
0.8333333333333334
 40
0.8333333333333334
 40
0.8333333333333334
 40
1.0
 40
1.0
 40
1.0
 40
1.0
 10
-4.9269
 20
22.7368
 30
0.0
 10
-4.9269
 20
22.7368
 30
0.0
 10
-4.9269
 20
23.2203
 30
0.0
 10
-4.9269
 20
23.2203
 30
0.0
 10
-4.9269
 20
23.2203
 30
0.0
 10
-4.9269
 20
23.2203
 30
0.0
 10
-5.8032
 20
23.2203
 30
0.0
 10
-5.8032
 20
23.2203
 30
0.0
 10
-5.8032
 20
23.2203
 30
0.0
 10
-5.8032
 20
23.2203
 30
0.0
 10
-5.8032
 20
23.448
 30
0.0
 10
-5.8032
 20
23.448
 30
0.0
 10
-5.8032
 20
23.448
 30
0.0
 10
-5.8032
 20
23.448
 30
0.0
 10
-4.8812
 20
24.757
 30
0.0
 10
-4.8812
 20
24.757
 30
0.0
 10
-4.8812
 20
24.757
 30
0.0
 10
-4.8812
 20
24.757
 30
0.0
 10
-4.6785
 20
24.757
 30
0.0
 10
-4.6785
 20
24.757
 30
0.0
 10
-4.6785
 20
24.757
 30
0.0
 10
-4.6785
 20
24.757
 30
0.0
 10
-4.6785
 20
23.448
 30
0.0
 10
-4.6785
 20
23.448
 30
0.0
 10
-4.6785
 20
23.448
 30
0.0
 10
-4.6785
 20
23.448
 30
0.0
 10
-4.4057
 20
23.448
 30
0.0
 10
-4.4057
 20
23.448
 30
0.0
 10
-4.4057
 20
23.448
 30
0.0
 10
-4.4057
 20
23.448
 30
0.0
 10
-4.4057
 20
23.2203
 30
0.0
 10
-4.4057
 20
23.2203
 30
0.0
 10
-4.4057
 20
23.2203
 30
0.0
 10
-4.4057
 20
23.2203
 30
0.0
 10
-4.6785
 20
23.2203
 30
0.0
 10
-4.6785
 20
23.2203
 30
0.0
 10
-4.6785
 20
23.2203
 30
0.0
 10
-4.6785
 20
23.2203
 30
0.0
 10
-4.6785
 20
22.7368
 30
0.0
 10
-4.6785
 20
22.7368
 30
0.0
 10
-4.6785
 20
22.7368
 30
0.0
 10
-4.6785
 20
22.7368
 30
0.0
 10
-4.9269
 20
22.7368
 30
0.0
 10
-4.9269
 20
22.7368
 30
0.0
  0
SPLINE
  5
8F
330
1F
100
AcDbEntity
  8
DEFAULT_1
 62
   250
100
AcDbSpline
210
0.0
220
0.0
230
1.0
 70
    11
 71
     3
 72
    16
 73
    12
 74
     0
 42
0.0000000001
 43
0.0000000001
 40
0.0
 40
0.0
 40
0.0
 40
0.0
 40
0.25
 40
0.25
 40
0.25
 40
0.25
 40
0.5
 40
0.5
 40
0.5
 40
0.5
 40
1.0
 40
1.0
 40
1.0
 40
1.0
 10
-4.9269
 20
23.448
 30
0.0
 10
-4.9269
 20
23.448
 30
0.0
 10
-4.9269
 20
24.3586
 30
0.0
 10
-4.9269
 20
24.3586
 30
0.0
 10
-4.9269
 20
24.3586
 30
0.0
 10
-4.9269
 20
24.3586
 30
0.0
 10
-5.559
 20
23.448
 30
0.0
 10
-5.559
 20
23.448
 30
0.0
 10
-5.559
 20
23.448
 30
0.0
 10
-5.559
 20
23.448
 30
0.0
 10
-4.9269
 20
23.448
 30
0.0
 10
-4.9269
 20
23.448
 30
0.0
  0
SPLINE
  5
90
330
1F
100
AcDbEntity
  8
DEFAULT_1
 62
   250
100
AcDbSpline
210
0.0
220
0.0
230
1.0
 70
    11
 71
     3
 72
    28
 73
    24
 74
     0
 42
0.0000000001
 43
0.0000000001
 40
0.0
 40
0.0
 40
0.0
 40
0.0
 40
0.1428571428571428
 40
0.1428571428571428
 40
0.1428571428571428
 40
0.1428571428571428
 40
0.2857142857142857
 40
0.2857142857142857
 40
0.2857142857142857
 40
0.2857142857142857
 40
0.4285714285714285
 40
0.4285714285714285
 40
0.4285714285714285
 40
0.4285714285714285
 40
0.5714285714285714
 40
0.5714285714285714
 40
0.5714285714285714
 40
0.5714285714285714
 40
0.7142857142857143
 40
0.7142857142857143
 40
0.7142857142857143
 40
0.7142857142857143
 40
1.0
 40
1.0
 40
1.0
 40
1.0
 10
-4.0708
 20
24.0416
 30
0.0
 10
-4.0708
 20
24.0416
 30
0.0
 10
-4.1399
 20
24.4264
 30
0.0
 10
-4.1399
 20
24.4264
 30
0.0
 10
-4.1399
 20
24.4264
 30
0.0
 10
-4.1399
 20
24.4264
 30
0.0
 10
-4.1399
 20
24.757
 30
0.0
 10
-4.1399
 20
24.757
 30
0.0
 10
-4.1399
 20
24.757
 30
0.0
 10
-4.1399
 20
24.757
 30
0.0
 10
-3.8573
 20
24.757
 30
0.0
 10
-3.8573
 20
24.757
 30
0.0
 10
-3.8573
 20
24.757
 30
0.0
 10
-3.8573
 20
24.757
 30
0.0
 10
-3.8573
 20
24.4264
 30
0.0
 10
-3.8573
 20
24.4264
 30
0.0
 10
-3.8573
 20
24.4264
 30
0.0
 10
-3.8573
 20
24.4264
 30
0.0
 10
-3.9193
 20
24.0416
 30
0.0
 10
-3.9193
 20
24.0416
 30
0.0
 10
-3.9193
 20
24.0416
 30
0.0
 10
-3.9193
 20
24.0416
 30
0.0
 10
-4.0708
 20
24.0416
 30
0.0
 10
-4.0708
 20
24.0416
 30
0.0
  0
SPLINE
  5
91
330
1F
100
AcDbEntity
  8
DEFAULT_1
 62
   250
100
AcDbSpline
210
0.0
220
0.0
230
1.0
 70
    11
 71
     3
 72
    28
 73
    24
 74
     0
 42
0.0000000001
 43
0.0000000001
 40
0.0
 40
0.0
 40
0.0
 40
0.0
 40
0.1428571428571428
 40
0.1428571428571428
 40
0.1428571428571428
 40
0.1428571428571428
 40
0.2857142857142857
 40
0.2857142857142857
 40
0.2857142857142857
 40
0.2857142857142857
 40
0.4285714285714285
 40
0.4285714285714285
 40
0.4285714285714285
 40
0.4285714285714285
 40
0.5714285714285714
 40
0.5714285714285714
 40
0.5714285714285714
 40
0.5714285714285714
 40
0.7142857142857143
 40
0.7142857142857143
 40
0.7142857142857143
 40
0.7142857142857143
 40
1.0
 40
1.0
 40
1.0
 40
1.0
 10
-3.6145
 20
24.0416
 30
0.0
 10
-3.6145
 20
24.0416
 30
0.0
 10
-3.6823
 20
24.4264
 30
0.0
 10
-3.6823
 20
24.4264
 30
0.0
 10
-3.6823
 20
24.4264
 30
0.0
 10
-3.6823
 20
24.4264
 30
0.0
 10
-3.6823
 20
24.757
 30
0.0
 10
-3.6823
 20
24.757
 30
0.0
 10
-3.6823
 20
24.757
 30
0.0
 10
-3.6823
 20
24.757
 30
0.0
 10
-3.3996
 20
24.757
 30
0.0
 10
-3.3996
 20
24.757
 30
0.0
 10
-3.3996
 20
24.757
 30
0.0
 10
-3.3996
 20
24.757
 30
0.0
 10
-3.3996
 20
24.4264
 30
0.0
 10
-3.3996
 20
24.4264
 30
0.0
 10
-3.3996
 20
24.4264
 30
0.0
 10
-3.3996
 20
24.4264
 30
0.0
 10
-3.4659
 20
24.0416
 30
0.0
 10
-3.4659
 20
24.0416
 30
0.0
 10
-3.4659
 20
24.0416
 30
0.0
 10
-3.4659
 20
24.0416
 30
0.0
 10
-3.6145
 20
24.0416
 30
0.0
 10
-3.6145
 20
24.0416
 30
0.0
  0
SPLINE
  5
92
330
1F
100
AcDbEntity
  8
DEFAULT_1
 62
   250
100
AcDbSpline
210
0.0
220
0.0
230
1.0
 70
    24
 71
     3
 72
     8
 73
     4
 74
     0
 42
0.0000000001
 43
0.0000000001
 40
0.0
 40
0.0
 40
0.0
 40
0.0
 40
1.0
 40
1.0
 40
1.0
 40
1.0
 10
-15.4438
 20
18.6972
 30
0.0
 10
-15.4438
 20
18.6972
 30
0.0
 10
-15.4438
 20
22.9187
 30
0.0
 10
-15.4438
 20
22.9187
 30
0.0
  0
SPLINE
  5
93
330
1F
100
AcDbEntity
  8
DEFAULT_1
 62
   250
100
AcDbSpline
210
0.0
220
0.0
230
1.0
 70
    24
 71
     3
 72
     8
 73
     4
 74
     0
 42
0.0000000001
 43
0.0000000001
 40
0.0
 40
0.0
 40
0.0
 40
0.0
 40
1.0
 40
1.0
 40
1.0
 40
1.0
 10
0.5401
 20
18.8026
 30
0.0
 10
0.5401
 20
18.8026
 30
0.0
 10
0.5401
 20
23.0068
 30
0.0
 10
0.5401
 20
23.0068
 30
0.0
  0
SPLINE
  5
94
330
1F
100
AcDbEntity
  8
DEFAULT_1
 62
   250
100
AcDbSpline
210
0.0
220
0.0
230
1.0
 70
    24
 71
     3
 72
     8
 73
     4
 74
     0
 42
0.0000000001
 43
0.0000000001
 40
0.0
 40
0.0
 40
0.0
 40
0.0
 40
1.0
 40
1.0
 40
1.0
 40
1.0
 10
0.0727
 20
22.1166
 30
0.0
 10
0.0727
 20
22.1166
 30
0.0
 10
-14.2224
 20
22.1166
 30
0.0
 10
-14.2224
 20
22.1166
 30
0.0
  0
SPLINE
  5
95
330
1F
100
AcDbEntity
  8
DEFAULT_1
 62
   250
100
AcDbSpline
210
0.0
220
0.0
230
1.0
 70
    11
 71
     3
 72
    20
 73
    16
 74
     0
 42
0.0000000001
 43
0.0000000001
 40
0.0
 40
0.0
 40
0.0
 40
0.0
 40
0.2
 40
0.2
 40
0.2
 40
0.2
 40
0.4
 40
0.4
 40
0.4
 40
0.4
 40
0.6
 40
0.6
 40
0.6
 40
0.6
 40
1.0
 40
1.0
 40
1.0
 40
1.0
 10
-2.5947
 20
22.611
 30
0.0
 10
-2.5947
 20
22.611
 30
0.0
 10
0.4053
 20
22.1877
 30
0.0
 10
0.4053
 20
22.1877
 30
0.0
 10
0.4053
 20
22.1877
 30
0.0
 10
0.4053
 20
22.1877
 30
0.0
 10
0.4053
 20
22.0937
 30
0.0
 10
0.4053
 20
22.0937
 30
0.0
 10
0.4053
 20
22.0937
 30
0.0
 10
0.4053
 20
22.0937
 30
0.0
 10
-2.5947
 20
21.6422
 30
0.0
 10
-2.5947
 20
21.6422
 30
0.0
 10
-2.5947
 20
21.6422
 30
0.0
 10
-2.5947
 20
21.6422
 30
0.0
 10
-2.5947
 20
22.611
 30
0.0
 10
-2.5947
 20
22.611
 30
0.0
  0
SPLINE
  5
96
330
1F
100
AcDbEntity
  8
DEFAULT_1
 62
   250
100
AcDbSpline
210
0.0
220
0.0
230
1.0
 70
    11
 71
     3
 72
    20
 73
    16
 74
     0
 42
0.0000000001
 43
0.0000000001
 40
0.0
 40
0.0
 40
0.0
 40
0.0
 40
0.2
 40
0.2
 40
0.2
 40
0.2
 40
0.4
 40
0.4
 40
0.4
 40
0.4
 40
0.6
 40
0.6
 40
0.6
 40
0.6
 40
1.0
 40
1.0
 40
1.0
 40
1.0
 10
-12.3655
 20
21.6227
 30
0.0
 10
-12.3655
 20
21.6227
 30
0.0
 10
-15.3653
 20
22.0461
 30
0.0
 10
-15.3653
 20
22.0461
 30
0.0
 10
-15.3653
 20
22.0461
 30
0.0
 10
-15.3653
 20
22.0461
 30
0.0
 10
-15.3653
 20
22.1401
 30
0.0
 10
-15.3653
 20
22.1401
 30
0.0
 10
-15.3653
 20
22.1401
 30
0.0
 10
-15.3653
 20
22.1401
 30
0.0
 10
-12.3655
 20
22.5916
 30
0.0
 10
-12.3655
 20
22.5916
 30
0.0
 10
-12.3655
 20
22.5916
 30
0.0
 10
-12.3655
 20
22.5916
 30
0.0
 10
-12.3655
 20
21.6227
 30
0.0
 10
-12.3655
 20
21.6227
 30
0.0
  0
ENDSEC
  0
SECTION
  2
OBJECTS
  0
DICTIONARY
  5
C
330
0
100
AcDbDictionary
  3
ACAD_GROUP
350
D
  3
ACAD_LAYOUT
350
1A
  3
ACAD_MATERIAL
350
3B
  3
ACAD_MLEADERSTYLE
350
B9
  3
ACAD_MLINESTYLE
350
17
  3
ACAD_PLOTSETTINGS
350
19
  3
ACAD_VISUALSTYLE
350
2A
  3
ACDBHEADERROUNDTRIPXREC
350
97
  3
ACDBVARIABLEDICTIONARY
350
B7
  0
DICTIONARY
  5
D
102
{ACAD_REACTORS
330
C
102
}
330
C
100
AcDbDictionary
  0
DICTIONARY
  5
1A
102
{ACAD_REACTORS
330
C
102
}
330
C
100
AcDbDictionary
  0
DICTIONARY
  5
3B
102
{ACAD_REACTORS
330
C
102
}
330
C
100
AcDbDictionary
  3
BYBLOCK
350
3D
  3
BYLAYER
350
3C
  3
GLOBAL
350
3E
  0
DICTIONARY
  5
B9
102
{ACAD_REACTORS
330
C
102
}
330
C
100
AcDbDictionary
  0
DICTIONARY
  5
17
102
{ACAD_REACTORS
330
C
102
}
330
C
100
AcDbDictionary
  3
STANDARD
350
18
  0
DICTIONARY
  5
19
102
{ACAD_REACTORS
330
C
102
}
330
C
100
AcDbDictionary
  0
DICTIONARY
  5
2A
102
{ACAD_REACTORS
330
C
102
}
330
C
100
AcDbDictionary
  3
2DWIREFRAME
350
2F
  3
3D_HIDDEN
350
31
  3
3DWIREFRAME
350
30
  3
BASIC
350
32
  3
BRIGHTEN
350
36
  3
COLORCHANGE
350
3A
  3
CONCEPTUAL
350
34
  3
DIM
350
35
  3
FACEPATTERN
350
39
  3
FLAT
350
2B
  3
FLATWITHEDGES
350
2C
  3
GOURAUD
350
2D
  3
GOURAUDWITHEDGES
350
2E
  3
LINEPATTERN
350
38
  3
REALISTIC
350
33
  3
THICKEN
350
37
  0
DICTIONARY
  5
97
102
{ACAD_REACTORS
330
C
102
}
330
C
100
AcDbDictionary
  3
CEPSNTYPE
350
A0
  3
DIMSTYLEDATA
350
B6
  3
FINGERPRINTGUID
350
A1
  3
HYPERLINKBASE
350
9A
  3
INSUNITS
350
9F
  3
LAYOUTDICT
350
9C
  3
LWETCUNION
350
9E
  3
PLOTSETDICT
350
9D
  3
PSVPSCALE
350
A3
  3
PUCSBASE
350
A6
  3
PUCSORGBACK
350
AC
  3
PUCSORGBOTTOM
350
A8
  3
PUCSORGFRONT
350
AB
  3
PUCSORGLEFT
350
A9
  3
PUCSORGRIGHT
350
AA
  3
PUCSORGTOP
350
A7
  3
PUCSORTHOREF
350
A4
  3
PUCSORTHOVIEW
350
A5
  3
STYLESHEET
350
9B
  3
TSTACKALIGN
350
98
  3
TSTACKSIZE
350
99
  3
UCSBASE
350
AF
  3
UCSORGBACK
350
B5
  3
UCSORGBOTTOM
350
B1
  3
UCSORGFRONT
350
B4
  3
UCSORGLEFT
350
B2
  3
UCSORGRIGHT
350
B3
  3
UCSORGTOP
350
B0
  3
UCSORTHOREF
350
AD
  3
UCSORTHOVIEW
350
AE
  3
VERSIONGUID
350
A2
  0
DICTIONARY
  5
B7
102
{ACAD_REACTORS
330
C
102
}
330
C
100
AcDbDictionary
  3
DIMASSOC
350
BA
  3
HIDETEXT
350
BB
  0
MATERIAL
  5
3D
102
{ACAD_REACTORS
330
3B
102
}
102
{ACAD_XDICTIONARY
360
BE
102
}
330
3B
100
AcDbMaterial
  1
ByBlock
  0
MATERIAL
  5
3C
102
{ACAD_REACTORS
330
3B
102
}
102
{ACAD_XDICTIONARY
360
BC
102
}
330
3B
100
AcDbMaterial
  1
ByLayer
  0
MATERIAL
  5
3E
102
{ACAD_REACTORS
330
3B
102
}
102
{ACAD_XDICTIONARY
360
C0
102
}
330
3B
100
AcDbMaterial
  1
Global
  0
MLINESTYLE
  5
18
102
{ACAD_REACTORS
330
17
102
}
330
17
100
AcDbMlineStyle
  2
Standard
 70
     0
  3

 62
   256
 51
90.0
 52
90.0
 71
     2
 49
0.5
 62
   256
  6
BYLAYER
 49
-0.5
 62
   256
  6
BYLAYER
  0
ACAD_PROXY_OBJECT
  5
2F
102
{ACAD_REACTORS
330
2A
102
}
330
2A
100
AcDbProxyObject
 90
      499
 91
      501
 93
      436
310
42CC9915DA5C99599C985B595049028333333333333E3BF0000000000000FB0107901411070040501600405405064090741402480A0340
1001
ACAD
1000
AcDbSavedByObjectVersion
1070
     0
  0
ACAD_PROXY_OBJECT
  5
31
102
{ACAD_REACTORS
330
2A
102
}
330
2A
100
AcDbProxyObject
 90
      499
 91
      501
 93
      500
310
424CD108121A5919195B90640502408333333333333E3BF0000000000000FB01079024090700405020000000000001110200405405064090740C02480A0340
1001
ACAD
1000
AcDbSavedByObjectVersion
1070
     0
  0
ACAD_PROXY_OBJECT
  5
30
102
{ACAD_REACTORS
330
2A
102
}
330
2A
100
AcDbProxyObject
 90
      499
 91
      501
 93
      436
310
42CCD915DA5C99599C985B595059028333333333333E3BF0000000000000FB0107901411070040501600405405064090741402480A0340
1001
ACAD
1000
AcDbSavedByObjectVersion
1070
     0
  0
ACAD_PROXY_OBJECT
  5
32
102
{ACAD_REACTORS
330
2A
102
}
330
2A
100
AcDbProxyObject
 90
      499
 91
      501
 93
      388
310
4150985CDA58D07406404333333333333E3BF0000000000000FB0107A41107004050150841D405064090741402480A0350
1001
ACAD
1000
AcDbSavedByObjectVersion
1070
     0
  0
ACAD_PROXY_OBJECT
  5
36
102
{ACAD_REACTORS
330
2A
102
}
330
2A
100
AcDbProxyObject
 90
      499
 91
      501
 93
      428
310
42109C9A59DA1D195B90C409028333333333333E3BF0000000000000FB010790141107004050150841D405064090741402480A029950
1001
ACAD
1000
AcDbSavedByObjectVersion
1070
     0
  0
ACAD_PROXY_OBJECT
  5
3A
102
{ACAD_REACTORS
330
2A
102
}
330
2A
100
AcDbProxyObject
 90
      499
 91
      501
 93
      452
310
42D0DBDB1BDC90DA185B99D95104090240C333333333333E3BF0000000000000FB0108901411070040501508421405064090741402480A0350
1001
ACAD
1000
AcDbSavedByObjectVersion
1070
     0
  0
ACAD_PROXY_OBJECT
  5
34
102
{ACAD_REACTORS
330
2A
102
}
330
2A
100
AcDbProxyObject
 90
      499
 91
      501
 93
      500
310
4290DBDB98D95C1D1D585B10940D028333333333333E3BF0000000000000FB0107902409070040501000000000000111010841D405064090740C02480A0340
1001
ACAD
1000
AcDbSavedByObjectVersion
1070
     0
  0
ACAD_PROXY_OBJECT
  5
35
102
{ACAD_REACTORS
330
2A
102
}
330
2A
100
AcDbProxyObject
 90
      499
 91
      501
 93
      412
310
40D11A5B50B409028333333333333E3BF0000000000000FB010790141107004050150841D405064090741402480A02677FFFFFD0
1001
ACAD
1000
AcDbSavedByObjectVersion
1070
     0
  0
ACAD_PROXY_OBJECT
  5
39
102
{ACAD_REACTORS
330
2A
102
}
330
2A
100
AcDbProxyObject
 90
      499
 91
      501
 93
      444
310
42D19858D95C185D1D195C9B90F409028333333333333E3BF0000000000000FB010790141107004050150841D405064090741402480A0350
1001
ACAD
1000
AcDbSavedByObjectVersion
1070
     0
  0
ACAD_PROXY_OBJECT
  5
2B
102
{ACAD_REACTORS
330
2A
102
}
330
2A
100
AcDbProxyObject
 90
      499
 91
      501
 93
      388
310
41119B185D240901404333333333333E3BF0000000000000F9010740A41107004050150841D405064090741402480A1B50
1001
ACAD
1000
AcDbSavedByObjectVersion
1070
     0
  0
ACAD_PROXY_OBJECT
  5
2C
102
{ACAD_REACTORS
330
2A
102
}
330
2A
100
AcDbProxyObject
 90
      499
 91
      501
 93
      476
310
43519B185D15DA5D1A115919D95CD0140901404333333333333E3BF0000000000000F9010740901411070040501600405405064090741402480A1B50
1001
ACAD
1000
AcDbSavedByObjectVersion
1070
     0
  0
ACAD_PROXY_OBJECT
  5
2D
102
{ACAD_REACTORS
330
2A
102
}
330
2A
100
AcDbProxyObject
 90
      499
 91
      501
 93
      412
310
41D1DBDD5C985D5910240902404333333333333E3BF0000000000000F9010740A411070040501641D405064090741402480A1B50
1001
ACAD
1000
AcDbSavedByObjectVersion
1070
     0
  0
ACAD_PROXY_OBJECT
  5
2E
102
{ACAD_REACTORS
330
2A
102
}
330
2A
100
AcDbProxyObject
 90
      499
 91
      501
 93
      500
310
4411DBDD5C985D5915DA5D1A115919D95CD0340902404333333333333E3BF0000000000000F9010740901411070040501600405405064090741402480A1B50
1001
ACAD
1000
AcDbSavedByObjectVersion
1070
     0
  0
ACAD_PROXY_OBJECT
  5
38
102
{ACAD_REACTORS
330
2A
102
}
330
2A
100
AcDbProxyObject
 90
      499
 91
      501
 93
      444
310
42D31A5B995C185D1D195C9B90E409028333333333333E3BF0000000000000FB010790141107004050750841D405064090741402483A0350
1001
ACAD
1000
AcDbSavedByObjectVersion
1070
     0
  0
ACAD_PROXY_OBJECT
  5
33
102
{ACAD_REACTORS
330
2A
102
}
330
2A
100
AcDbProxyObject
 90
      499
 91
      501
 93
      420
310
425499585B1A5CDD1A58D08409028333333333333E3BF0000000000000FB01079019070040501508421405064090741402480A1B40
1001
ACAD
1000
AcDbSavedByObjectVersion
1070
     0
  0
ACAD_PROXY_OBJECT
  5
37
102
{ACAD_REACTORS
330
2A
102
}
330
2A
100
AcDbProxyObject
 90
      499
 91
      501
 93
      412
310
41D51A1A58DAD95B90D409028333333333333E3BF0000000000000FB010790141107004050150C41D405064090741402480A0350
1001
ACAD
1000
AcDbSavedByObjectVersion
1070
     0
  0
XRECORD
  5
A0
102
{ACAD_REACTORS
330
97
102
}
330
97
100
AcDbXrecord
 90
        0
  0
XRECORD
  5
B6
102
{ACAD_REACTORS
330
97
102
}
330
97
100
AcDbXrecord
1000
DSTYLE
1002
{
1070
   340
340
11
1002
}
  0
XRECORD
  5
A1
102
{ACAD_REACTORS
330
97
102
}
330
97
100
AcDbXrecord
  1
{2F70CC89-1F73-4996-8873-5BD3C527631D}
  0
XRECORD
  5
9A
102
{ACAD_REACTORS
330
97
102
}
330
97
100
AcDbXrecord
  1

  0
XRECORD
  5
9F
102
{ACAD_REACTORS
330
97
102
}
330
97
100
AcDbXrecord
 90
        4
  0
XRECORD
  5
9C
102
{ACAD_REACTORS
330
97
102
}
330
97
100
AcDbXrecord
340
1A
  0
XRECORD
  5
9E
102
{ACAD_REACTORS
330
97
102
}
330
97
100
AcDbXrecord
 90
    10781
  0
XRECORD
  5
9D
102
{ACAD_REACTORS
330
97
102
}
330
97
100
AcDbXrecord
340
19
  0
XRECORD
  5
A3
102
{ACAD_REACTORS
330
97
102
}
330
97
100
AcDbXrecord
 40
0.0
  0
XRECORD
  5
A6
102
{ACAD_REACTORS
330
97
102
}
330
97
100
AcDbXrecord
340
0
  0
XRECORD
  5
AC
102
{ACAD_REACTORS
330
97
102
}
330
97
100
AcDbXrecord
 10
0.0
 20
0.0
 30
0.0
  0
XRECORD
  5
A8
102
{ACAD_REACTORS
330
97
102
}
330
97
100
AcDbXrecord
 10
0.0
 20
0.0
 30
0.0
  0
XRECORD
  5
AB
102
{ACAD_REACTORS
330
97
102
}
330
97
100
AcDbXrecord
 10
0.0
 20
0.0
 30
0.0
  0
XRECORD
  5
A9
102
{ACAD_REACTORS
330
97
102
}
330
97
100
AcDbXrecord
 10
0.0
 20
0.0
 30
0.0
  0
XRECORD
  5
AA
102
{ACAD_REACTORS
330
97
102
}
330
97
100
AcDbXrecord
 10
0.0
 20
0.0
 30
0.0
  0
XRECORD
  5
A7
102
{ACAD_REACTORS
330
97
102
}
330
97
100
AcDbXrecord
 10
0.0
 20
0.0
 30
0.0
  0
XRECORD
  5
A4
102
{ACAD_REACTORS
330
97
102
}
330
97
100
AcDbXrecord
340
0
  0
XRECORD
  5
A5
102
{ACAD_REACTORS
330
97
102
}
330
97
100
AcDbXrecord
 70
     0
  0
XRECORD
  5
9B
102
{ACAD_REACTORS
330
97
102
}
330
97
100
AcDbXrecord
  1

  0
XRECORD
  5
98
102
{ACAD_REACTORS
330
97
102
}
330
97
100
AcDbXrecord
 90
        1
  0
XRECORD
  5
99
102
{ACAD_REACTORS
330
97
102
}
330
97
100
AcDbXrecord
 90
       70
  0
XRECORD
  5
AF
102
{ACAD_REACTORS
330
97
102
}
330
97
100
AcDbXrecord
340
0
  0
XRECORD
  5
B5
102
{ACAD_REACTORS
330
97
102
}
330
97
100
AcDbXrecord
 10
0.0
 20
0.0
 30
0.0
  0
XRECORD
  5
B1
102
{ACAD_REACTORS
330
97
102
}
330
97
100
AcDbXrecord
 10
0.0
 20
0.0
 30
0.0
  0
XRECORD
  5
B4
102
{ACAD_REACTORS
330
97
102
}
330
97
100
AcDbXrecord
 10
0.0
 20
0.0
 30
0.0
  0
XRECORD
  5
B2
102
{ACAD_REACTORS
330
97
102
}
330
97
100
AcDbXrecord
 10
0.0
 20
0.0
 30
0.0
  0
XRECORD
  5
B3
102
{ACAD_REACTORS
330
97
102
}
330
97
100
AcDbXrecord
 10
0.0
 20
0.0
 30
0.0
  0
XRECORD
  5
B0
102
{ACAD_REACTORS
330
97
102
}
330
97
100
AcDbXrecord
 10
0.0
 20
0.0
 30
0.0
  0
XRECORD
  5
AD
102
{ACAD_REACTORS
330
97
102
}
330
97
100
AcDbXrecord
340
0
  0
XRECORD
  5
AE
102
{ACAD_REACTORS
330
97
102
}
330
97
100
AcDbXrecord
 70
     0
  0
XRECORD
  5
A2
102
{ACAD_REACTORS
330
97
102
}
330
97
100
AcDbXrecord
  1
{FAEB1C32-E019-11D5-929B-00C0DF256EC4}
  0
DICTIONARYVAR
  5
BA
102
{ACAD_REACTORS
330
B7
102
}
330
B7
100
DictionaryVariables
280
     0
  1
2
  0
DICTIONARYVAR
  5
BB
102
{ACAD_REACTORS
330
B7
102
}
330
B7
100
DictionaryVariables
280
     0
  1
1
  0
DICTIONARY
  5
BE
330
3D
100
AcDbDictionary
280
     1
  3
ACAD_XREC_ROUNDTRIP
360
BF
  0
DICTIONARY
  5
BC
330
3C
100
AcDbDictionary
280
     1
  3
ACAD_XREC_ROUNDTRIP
360
BD
  0
DICTIONARY
  5
C0
330
3E
100
AcDbDictionary
280
     1
  3
ACAD_XREC_ROUNDTRIP
360
C1
  0
XRECORD
  5
BF
102
{ACAD_REACTORS
330
BE
102
}
330
BE
100
AcDbXrecord
102
MATERIAL
148
0.0
149
0.0
149
0.0
 93
        0
 94
      127
282
     0
 72
     1
 77
     1
171
     1
175
     1
179
     1
273
     0
  0
XRECORD
  5
BD
102
{ACAD_REACTORS
330
BC
102
}
330
BC
100
AcDbXrecord
102
MATERIAL
148
0.0
149
0.0
149
0.0
 93
        0
 94
      127
282
     0
 72
     1
 77
     1
171
     1
175
     1
179
     1
273
     0
  0
XRECORD
  5
C1
102
{ACAD_REACTORS
330
C0
102
}
330
C0
100
AcDbXrecord
102
MATERIAL
148
0.0
149
0.0
149
0.0
 93
        0
 94
      127
282
     0
 72
     1
 77
     1
171
     1
175
     1
179
     1
273
     0
  0
ENDSEC
  0
EOF
